  0
SECTION
  2
HEADER
  9
$ACADVER
  1
AC1015
  9
$ACADMAINTVER
 70
    20
  9
$DWGCODEPAGE
  3
ANSI_932
  9
$INSBASE
 10
0.0
 20
0.0
 30
0.0
  9
$EXTMIN
 10
299.8278950385593
 20
199.8230080583871
 30
-0.0015258207003583
  9
$EXTMAX
 10
5640.172132621719
 20
3900.201425445501
 30
0.0000000349246037
  9
$LIMMIN
 10
0.0
 20
0.0
  9
$LIMMAX
 10
5940.0
 20
4200.0
  9
$ORTHOMODE
 70
     1
  9
$REGENMODE
 70
     1
  9
$FILLMODE
 70
     1
  9
$QTEXTMODE
 70
     0
  9
$MIRRTEXT
 70
     0
  9
$LTSCALE
 40
20.0
  9
$ATTMODE
 70
     1
  9
$TEXTSIZE
 40
0.2
  9
$TRACEWID
 40
0.05
  9
$TEXTSTYLE
  7
STANDARD
  9
$CLAYER
  8
0
  9
$CELTYPE
  6
CONTINUOUS
  9
$CECOLOR
 62
   256
  9
$CELTSCALE
 40
1.0
  9
$DISPSILH
 70
     0
  9
$DIMSCALE
 40
1.0
  9
$DIMASZ
 40
0.18
  9
$DIMEXO
 40
0.0625
  9
$DIMDLI
 40
0.38
  9
$DIMRND
 40
0.0
  9
$DIMDLE
 40
0.0
  9
$DIMEXE
 40
0.18
  9
$DIMTP
 40
0.0
  9
$DIMTM
 40
0.0
  9
$DIMTXT
 40
0.18
  9
$DIMCEN
 40
0.09
  9
$DIMTSZ
 40
0.0
  9
$DIMTOL
 70
     0
  9
$DIMLIM
 70
     0
  9
$DIMTIH
 70
     1
  9
$DIMTOH
 70
     1
  9
$DIMSE1
 70
     0
  9
$DIMSE2
 70
     0
  9
$DIMTAD
 70
     0
  9
$DIMZIN
 70
     0
  9
$DIMBLK
  1

  9
$DIMASO
 70
     1
  9
$DIMSHO
 70
     1
  9
$DIMPOST
  1

  9
$DIMAPOST
  1

  9
$DIMALT
 70
     0
  9
$DIMALTD
 70
     2
  9
$DIMALTF
 40
25.4
  9
$DIMLFAC
 40
1.0
  9
$DIMTOFL
 70
     0
  9
$DIMTVP
 40
0.0
  9
$DIMTIX
 70
     0
  9
$DIMSOXD
 70
     0
  9
$DIMSAH
 70
     0
  9
$DIMBLK1
  1

  9
$DIMBLK2
  1

  9
$DIMSTYLE
  2
Standard
  9
$DIMCLRD
 70
     0
  9
$DIMCLRE
 70
     0
  9
$DIMCLRT
 70
     0
  9
$DIMTFAC
 40
1.0
  9
$DIMGAP
 40
0.09
  9
$DIMJUST
 70
     0
  9
$DIMSD1
 70
     0
  9
$DIMSD2
 70
     0
  9
$DIMTOLJ
 70
     1
  9
$DIMTZIN
 70
     0
  9
$DIMALTZ
 70
     0
  9
$DIMALTTZ
 70
     0
  9
$DIMUPT
 70
     0
  9
$DIMDEC
 70
     4
  9
$DIMTDEC
 70
     4
  9
$DIMALTU
 70
     2
  9
$DIMALTTD
 70
     2
  9
$DIMTXSTY
  7
STANDARD
  9
$DIMAUNIT
 70
     0
  9
$DIMADEC
 70
     0
  9
$DIMALTRND
 40
0.0
  9
$DIMAZIN
 70
     0
  9
$DIMDSEP
 70
    46
  9
$DIMATFIT
 70
     3
  9
$DIMFRAC
 70
     0
  9
$DIMLDRBLK
  1

  9
$DIMLUNIT
 70
     2
  9
$DIMLWD
 70
    -2
  9
$DIMLWE
 70
    -2
  9
$DIMTMOVE
 70
     0
  9
$LUNITS
 70
     2
  9
$LUPREC
 70
     4
  9
$SKETCHINC
 40
0.1
  9
$FILLETRAD
 40
0.0
  9
$AUNITS
 70
     0
  9
$AUPREC
 70
     0
  9
$MENU
  1
.
  9
$ELEVATION
 40
0.0
  9
$PELEVATION
 40
0.0
  9
$THICKNESS
 40
0.0
  9
$LIMCHECK
 70
     0
  9
$CHAMFERA
 40
0.0
  9
$CHAMFERB
 40
0.0
  9
$CHAMFERC
 40
0.0
  9
$CHAMFERD
 40
0.0
  9
$SKPOLY
 70
     0
  9
$TDCREATE
 40
2456348.933376088
  9
$TDUCREATE
 40
2456348.558376088
  9
$TDUPDATE
 40
2456348.938710880
  9
$TDUUPDATE
 40
2456348.563710880
  9
$TDINDWG
 40
0.0053349769
  9
$TDUSRTIMER
 40
0.0053349769
  9
$USRTIMER
 70
     1
  9
$ANGBASE
 50
0.0
  9
$ANGDIR
 70
     0
  9
$PDMODE
 70
     0
  9
$PDSIZE
 40
0.0
  9
$PLINEWID
 40
0.0
  9
$SPLFRAME
 70
     0
  9
$SPLINETYPE
 70
     6
  9
$SPLINESEGS
 70
     8
  9
$HANDSEED
  5
30C
  9
$SURFTAB1
 70
     6
  9
$SURFTAB2
 70
     6
  9
$SURFTYPE
 70
     6
  9
$SURFU
 70
     6
  9
$SURFV
 70
     6
  9
$UCSBASE
  2

  9
$UCSNAME
  2

  9
$UCSORG
 10
0.0
 20
0.0
 30
0.0
  9
$UCSXDIR
 10
1.0
 20
0.0
 30
0.0
  9
$UCSYDIR
 10
0.0
 20
1.0
 30
0.0
  9
$UCSORTHOREF
  2

  9
$UCSORTHOVIEW
 70
     0
  9
$UCSORGTOP
 10
0.0
 20
0.0
 30
0.0
  9
$UCSORGBOTTOM
 10
0.0
 20
0.0
 30
0.0
  9
$UCSORGLEFT
 10
0.0
 20
0.0
 30
0.0
  9
$UCSORGRIGHT
 10
0.0
 20
0.0
 30
0.0
  9
$UCSORGFRONT
 10
0.0
 20
0.0
 30
0.0
  9
$UCSORGBACK
 10
0.0
 20
0.0
 30
0.0
  9
$PUCSBASE
  2

  9
$PUCSNAME
  2

  9
$PUCSORG
 10
0.0
 20
0.0
 30
0.0
  9
$PUCSXDIR
 10
1.0
 20
0.0
 30
0.0
  9
$PUCSYDIR
 10
0.0
 20
1.0
 30
0.0
  9
$PUCSORTHOREF
  2

  9
$PUCSORTHOVIEW
 70
     0
  9
$PUCSORGTOP
 10
0.0
 20
0.0
 30
0.0
  9
$PUCSORGBOTTOM
 10
0.0
 20
0.0
 30
0.0
  9
$PUCSORGLEFT
 10
0.0
 20
0.0
 30
0.0
  9
$PUCSORGRIGHT
 10
0.0
 20
0.0
 30
0.0
  9
$PUCSORGFRONT
 10
0.0
 20
0.0
 30
0.0
  9
$PUCSORGBACK
 10
0.0
 20
0.0
 30
0.0
  9
$USERI1
 70
     0
  9
$USERI2
 70
     0
  9
$USERI3
 70
     0
  9
$USERI4
 70
     0
  9
$USERI5
 70
     0
  9
$USERR1
 40
0.0
  9
$USERR2
 40
0.0
  9
$USERR3
 40
0.0
  9
$USERR4
 40
0.0
  9
$USERR5
 40
0.0
  9
$WORLDVIEW
 70
     1
  9
$SHADEDGE
 70
     3
  9
$SHADEDIF
 70
    70
  9
$TILEMODE
 70
     1
  9
$MAXACTVP
 70
    64
  9
$PINSBASE
 10
0.0
 20
0.0
 30
0.0
  9
$PLIMCHECK
 70
     0
  9
$PEXTMIN
 10
1.000000000000000E+20
 20
1.000000000000000E+20
 30
1.000000000000000E+20
  9
$PEXTMAX
 10
-1.000000000000000E+20
 20
-1.000000000000000E+20
 30
-1.000000000000000E+20
  9
$PLIMMIN
 10
0.0
 20
0.0
  9
$PLIMMAX
 10
12.0
 20
9.0
  9
$UNITMODE
 70
     0
  9
$VISRETAIN
 70
     1
  9
$PLINEGEN
 70
     0
  9
$PSLTSCALE
 70
     1
  9
$TREEDEPTH
 70
  3020
  9
$CMLSTYLE
  2
Standard
  9
$CMLJUST
 70
     0
  9
$CMLSCALE
 40
1.0
  9
$PROXYGRAPHICS
 70
     1
  9
$MEASUREMENT
 70
     0
  9
$CELWEIGHT
370
    -1
  9
$ENDCAPS
280
     0
  9
$JOINSTYLE
280
     0
  9
$LWDISPLAY
290
     0
  9
$INSUNITS
 70
     0
  9
$HYPERLINKBASE
  1

  9
$STYLESHEET
  1

  9
$XEDIT
290
     1
  9
$CEPSNTYPE
380
     0
  9
$PSTYLEMODE
290
     1
  9
$FINGERPRINTGUID
  2
{17865C31-C8E3-4136-938C-8DEE5C32BBDE}
  9
$VERSIONGUID
  2
{C1D5714E-2694-41FE-9C27-BC8C4B695959}
  9
$EXTNAMES
290
     1
  9
$PSVPSCALE
 40
0.0
  9
$OLESTARTUP
290
     0
  0
ENDSEC
  0
SECTION
  2
CLASSES
  0
CLASS
  1
ACDBDICTIONARYWDFLT
  2
AcDbDictionaryWithDefault
  3
ObjectDBX Classes
 90
        0
280
     0
281
     0
  0
CLASS
  1
DICTIONARYVAR
  2
AcDbDictionaryVar
  3
ObjectDBX Classes
 90
        0
280
     0
281
     0
  0
CLASS
  1
ACDBPLACEHOLDER
  2
AcDbPlaceHolder
  3
ObjectDBX Classes
 90
        0
280
     0
281
     0
  0
CLASS
  1
LAYOUT
  2
AcDbLayout
  3
ObjectDBX Classes
 90
        0
280
     0
281
     0
  0
ENDSEC
  0
SECTION
  2
TABLES
  0
TABLE
  2
VPORT
  5
8
330
0
100
AcDbSymbolTable
 70
     6
  0
VPORT
  5
304
330
8
100
AcDbSymbolTableRecord
100
AcDbViewportTableRecord
  2
*Active
 70
     0
 10
0.0
 20
0.0
 11
1.0
 21
1.0
 12
2970.0
 22
2100.0
 13
0.0
 23
0.0
 14
1.0
 24
1.0
 15
0.0
 25
0.0
 16
0.0
 26
0.0
 36
1.0
 17
0.0
 27
0.0
 37
0.0
 40
4238.948995363215
 41
1.439628482972136
 42
50.0
 43
0.0
 44
0.0
 50
0.0
 51
0.0
 71
     0
 72
   100
 73
     1
 74
     1
 75
     0
 76
     0
 77
     0
 78
     0
281
     0
 65
     1
110
0.0
120
0.0
130
0.0
111
1.0
121
0.0
131
0.0
112
0.0
122
1.0
132
0.0
 79
     0
146
0.0
  0
ENDTAB
  0
TABLE
  2
LTYPE
  5
5
330
0
100
AcDbSymbolTable
 70
    35
  0
LTYPE
  5
13
330
5
100
AcDbSymbolTableRecord
100
AcDbLinetypeTableRecord
  2
ByBlock
 70
     0
  3

 72
    65
 73
     0
 40
0.0
  0
LTYPE
  5
14
330
5
100
AcDbSymbolTableRecord
100
AcDbLinetypeTableRecord
  2
ByLayer
 70
     0
  3

 72
    65
 73
     0
 40
0.0
  0
LTYPE
  5
15
330
5
100
AcDbSymbolTableRecord
100
AcDbLinetypeTableRecord
  2
CONTINUOUS
 70
     0
  3
実線
 72
    65
 73
     0
 40
0.0
  0
LTYPE
  5
24
330
5
100
AcDbSymbolTableRecord
100
AcDbLinetypeTableRecord
  2
DASHED1
 70
     0
  3
--  --  --  --  --  --  --  --  
 72
    65
 73
     2
 40
2.5
 49
1.25
 74
     0
 49
-1.25
 74
     0
  0
LTYPE
  5
25
330
5
100
AcDbSymbolTableRecord
100
AcDbLinetypeTableRecord
  2
DASHED2
 70
     0
  3
----    ----    ----    ----    
 72
    65
 73
     2
 40
5.0
 49
2.5
 74
     0
 49
-2.5
 74
     0
  0
LTYPE
  5
26
330
5
100
AcDbSymbolTableRecord
100
AcDbLinetypeTableRecord
  2
DASHED3
 70
     0
  3
------  ------  ------  ------  
 72
    65
 73
     2
 40
5.0
 49
3.75
 74
     0
 49
-1.25
 74
     0
  0
LTYPE
  5
27
330
5
100
AcDbSymbolTableRecord
100
AcDbLinetypeTableRecord
  2
CENTER1
 70
     0
  3
----- - ----- - ----- - ----- - 
 72
    65
 73
     4
 40
10.0
 49
6.25
 74
     0
 49
-1.25
 74
     0
 49
1.25
 74
     0
 49
-1.25
 74
     0
  0
LTYPE
  5
28
330
5
100
AcDbSymbolTableRecord
100
AcDbLinetypeTableRecord
  2
CENTER2
 70
     0
  3
----------  --  ----------  --  
 72
    65
 73
     4
 40
20.0
 49
12.5
 74
     0
 49
-2.5
 74
     0
 49
2.5
 74
     0
 49
-2.5
 74
     0
  0
LTYPE
  5
29
330
5
100
AcDbSymbolTableRecord
100
AcDbLinetypeTableRecord
  2
PHANTOM1
 70
     0
  3
--- - - --- - - --- - - --- - - 
 72
    65
 73
     6
 40
10.0
 49
3.25
 74
     0
 49
-1.25
 74
     0
 49
1.25
 74
     0
 49
-1.25
 74
     0
 49
1.25
 74
     0
 49
-1.25
 74
     0
  0
LTYPE
  5
2A
330
5
100
AcDbSymbolTableRecord
100
AcDbLinetypeTableRecord
  2
PHANTOM2
 70
     0
  3
--------  -  -  --------  -  -  
 72
    65
 73
     6
 40
20.0
 49
10.0
 74
     0
 49
-2.5
 74
     0
 49
1.25
 74
     0
 49
-2.5
 74
     0
 49
1.25
 74
     0
 49
-2.5
 74
     0
  0
LTYPE
  5
2B
330
5
100
AcDbSymbolTableRecord
100
AcDbLinetypeTableRecord
  2
DOT
 70
     0
  3
-   -   -   -   -   -   -   -   
 72
    65
 73
     2
 40
2.5
 49
0.625
 74
     0
 49
-1.875
 74
     0
  0
LTYPE
  5
2C
330
5
100
AcDbSymbolTableRecord
100
AcDbLinetypeTableRecord
  2
DUMMY
 70
     0
  3
ダミー
 72
    65
 73
     0
 40
0.0
  0
LTYPE
  5
2D
330
5
100
AcDbSymbolTableRecord
100
AcDbLinetypeTableRecord
  2
RAND1
 70
     0
  3
ランダム線1
 72
    65
 73
     4
 40
10.0
 49
1.0
 74
     0
 49
-2.0
 74
     0
 49
3.0
 74
     0
 49
-4.0
 74
     0
  0
LTYPE
  5
2E
330
5
100
AcDbSymbolTableRecord
100
AcDbLinetypeTableRecord
  2
RAND2
 70
     0
  3
ランダム線2
 72
    65
 73
     4
 40
14.0
 49
2.0
 74
     0
 49
-3.0
 74
     0
 49
4.0
 74
     0
 49
-5.0
 74
     0
  0
LTYPE
  5
2F
330
5
100
AcDbSymbolTableRecord
100
AcDbLinetypeTableRecord
  2
RAND3
 70
     0
  3
ランダム線3
 72
    65
 73
     4
 40
18.0
 49
3.0
 74
     0
 49
-4.0
 74
     0
 49
5.0
 74
     0
 49
-6.0
 74
     0
  0
LTYPE
  5
30
330
5
100
AcDbSymbolTableRecord
100
AcDbLinetypeTableRecord
  2
RAND4
 70
     0
  3
ランダム線4
 72
    65
 73
     4
 40
22.0
 49
4.0
 74
     0
 49
-5.0
 74
     0
 49
6.0
 74
     0
 49
-7.0
 74
     0
  0
LTYPE
  5
31
330
5
100
AcDbSymbolTableRecord
100
AcDbLinetypeTableRecord
  2
RAND5
 70
     0
  3
ランダム線5
 72
    65
 73
     4
 40
26.0
 49
5.0
 74
     0
 49
-6.0
 74
     0
 49
7.0
 74
     0
 49
-8.0
 74
     0
  0
LTYPE
  5
32
330
5
100
AcDbSymbolTableRecord
100
AcDbLinetypeTableRecord
  2
LONG1
 70
     0
  3
----------  --  ----------  --  
 72
    65
 73
     4
 40
40.0
 49
32.5
 74
     0
 49
-2.5
 74
     0
 49
2.5
 74
     0
 49
-2.5
 74
     0
  0
LTYPE
  5
33
330
5
100
AcDbSymbolTableRecord
100
AcDbLinetypeTableRecord
  2
LONG2
 70
     0
  3
--------  -  -  --------  -  -  
 72
    65
 73
     6
 40
40.0
 49
30.0
 74
     0
 49
-2.5
 74
     0
 49
1.25
 74
     0
 49
-2.5
 74
     0
 49
1.25
 74
     0
 49
-2.5
 74
     0
  0
LTYPE
  5
34
330
5
100
AcDbSymbolTableRecord
100
AcDbLinetypeTableRecord
  2
LONG3
 70
     0
  3
+++++++++++++++..+++++++++++++++
 72
    65
 73
     2
 40
40.0
 49
37.5
 74
     0
 49
-2.5
 74
     0
  0
LTYPE
  5
35
330
5
100
AcDbSymbolTableRecord
100
AcDbLinetypeTableRecord
  2
LONG4
 70
     0
  3
+++++++++++++++..+++++++++++++++
 72
    65
 73
     2
 40
80.0
 49
75.0
 74
     0
 49
-5.0
 74
     0
  0
LTYPE
  5
36
330
5
100
AcDbSymbolTableRecord
100
AcDbLinetypeTableRecord
  2
LONG5
 70
     0
  3
----------  --  ----------  --  
 72
    65
 73
     4
 40
60.0
 49
37.5
 74
     0
 49
-7.5
 74
     0
 49
7.5
 74
     0
 49
-7.5
 74
     0
  0
LTYPE
  5
37
330
5
100
AcDbSymbolTableRecord
100
AcDbLinetypeTableRecord
  2
DASHED
 70
     0
  3
-------   -------------   ------
 72
    65
 73
     2
 40
7.5
 49
6.0
 74
     0
 49
-1.5
 74
     0
  0
LTYPE
  5
38
330
5
100
AcDbSymbolTableRecord
100
AcDbLinetypeTableRecord
  2
DASHED_SPACED
 70
     0
  3
----        --------        ----
 72
    65
 73
     2
 40
12.0
 49
6.0
 74
     0
 49
-6.0
 74
     0
  0
LTYPE
  5
39
330
5
100
AcDbSymbolTableRecord
100
AcDbLinetypeTableRecord
  2
LONG_DASHED_DOTTED
 70
     0
  3
------------- --- --------------
 72
    65
 73
     4
 40
15.25
 49
12.0
 74
     0
 49
-1.5
 74
     0
 49
0.25
 74
     0
 49
-1.5
 74
     0
  0
LTYPE
  5
3A
330
5
100
AcDbSymbolTableRecord
100
AcDbLinetypeTableRecord
  2
LONG_DASHED_DOUBLE-DOTTED
 70
     0
  3
----------- --- --- ------------
 72
    65
 73
     6
 40
17.0
 49
12.0
 74
     0
 49
-1.5
 74
     0
 49
0.25
 74
     0
 49
-1.5
 74
     0
 49
0.25
 74
     0
 49
-1.5
 74
     0
  0
LTYPE
  5
3B
330
5
100
AcDbSymbolTableRecord
100
AcDbLinetypeTableRecord
  2
LONG_DASHED_TRIPLICATE-DOTTED
 70
     0
  3
--------- --- --- --- ----------
 72
    65
 73
     8
 40
18.75
 49
12.0
 74
     0
 49
-1.5
 74
     0
 49
0.25
 74
     0
 49
-1.5
 74
     0
 49
0.25
 74
     0
 49
-1.5
 74
     0
 49
0.25
 74
     0
 49
-1.5
 74
     0
  0
LTYPE
  5
3C
330
5
100
AcDbSymbolTableRecord
100
AcDbLinetypeTableRecord
  2
DOTTED
 70
     0
  3
   -       -       -       -    
 72
    65
 73
     2
 40
1.75
 49
0.25
 74
     0
 49
-1.5
 74
     0
  0
LTYPE
  5
3D
330
5
100
AcDbSymbolTableRecord
100
AcDbLinetypeTableRecord
  2
CHAIN
 70
     0
  3
-------------- -- --------------
 72
    65
 73
     4
 40
18.5
 49
12.0
 74
     0
 49
-1.5
 74
     0
 49
3.5
 74
     0
 49
-1.5
 74
     0
  0
LTYPE
  5
3E
330
5
100
AcDbSymbolTableRecord
100
AcDbLinetypeTableRecord
  2
CHAIN_DOUBLE_DASH
 70
     0
  3
------------ -- -- -------------
 72
    65
 73
     6
 40
23.5
 49
12.0
 74
     0
 49
-1.5
 74
     0
 49
3.5
 74
     0
 49
-1.5
 74
     0
 49
3.5
 74
     0
 49
-1.5
 74
     0
  0
LTYPE
  5
3F
330
5
100
AcDbSymbolTableRecord
100
AcDbLinetypeTableRecord
  2
DASHED_DOTTED
 70
     0
  3
-----------     -     ----------
 72
    65
 73
     4
 40
9.25
 49
6.0
 74
     0
 49
-1.5
 74
     0
 49
0.25
 74
     0
 49
-1.5
 74
     0
  0
LTYPE
  5
40
330
5
100
AcDbSymbolTableRecord
100
AcDbLinetypeTableRecord
  2
DOUBLE-DASHED_DOTTED
 70
     0
  3
------   -----------   -   -----
 72
    65
 73
     6
 40
16.75
 49
6.0
 74
     0
 49
-1.5
 74
     0
 49
6.0
 74
     0
 49
-1.5
 74
     0
 49
0.25
 74
     0
 49
-1.5
 74
     0
  0
LTYPE
  5
41
330
5
100
AcDbSymbolTableRecord
100
AcDbLinetypeTableRecord
  2
DASHED_DOUBLE-DOTTED
 70
     0
  3
---------    -    -    ---------
 72
    65
 73
     6
 40
11.0
 49
6.0
 74
     0
 49
-1.5
 74
     0
 49
0.25
 74
     0
 49
-1.5
 74
     0
 49
0.25
 74
     0
 49
-1.5
 74
     0
  0
LTYPE
  5
42
330
5
100
AcDbSymbolTableRecord
100
AcDbLinetypeTableRecord
  2
DOUBLE-DASHED_DOUBLE-DOTTED
 70
     0
  3
-----   ---------   -   -   ----
 72
    65
 73
     8
 40
18.5
 49
6.0
 74
     0
 49
-1.5
 74
     0
 49
6.0
 74
     0
 49
-1.5
 74
     0
 49
0.25
 74
     0
 49
-1.5
 74
     0
 49
0.25
 74
     0
 49
-1.5
 74
     0
  0
LTYPE
  5
43
330
5
100
AcDbSymbolTableRecord
100
AcDbLinetypeTableRecord
  2
DASHED_TRIPLICATE-DOTTED
 70
     0
  3
-------    -    -    -    ------
 72
    65
 73
     8
 40
12.75
 49
6.0
 74
     0
 49
-1.5
 74
     0
 49
0.25
 74
     0
 49
-1.5
 74
     0
 49
0.25
 74
     0
 49
-1.5
 74
     0
 49
0.25
 74
     0
 49
-1.5
 74
     0
  0
LTYPE
  5
44
330
5
100
AcDbSymbolTableRecord
100
AcDbLinetypeTableRecord
  2
DOUBLE-DASHED_TRIPLICATE-DOTTED
 70
     0
  3
-----  ---------  -  -  -  -----
 72
    65
 73
    10
 40
20.25
 49
6.0
 74
     0
 49
-1.5
 74
     0
 49
6.0
 74
     0
 49
-1.5
 74
     0
 49
0.25
 74
     0
 49
-1.5
 74
     0
 49
0.25
 74
     0
 49
-1.5
 74
     0
 49
0.25
 74
     0
 49
-1.5
 74
     0
  0
LTYPE
  5
45
330
5
100
AcDbSymbolTableRecord
100
AcDbLinetypeTableRecord
  2
UNDEFINED
 70
     0
  3
--------------------------------
 72
    65
 73
     0
 40
0.0
  0
ENDTAB
  0
TABLE
  2
LAYER
  5
2
330
0
100
AcDbSymbolTable
 70
     3
  0
LAYER
  5
10
330
2
100
AcDbSymbolTableRecord
100
AcDbLayerTableRecord
  2
0
 70
     0
 62
     7
  6
CONTINUOUS
370
    -3
390
F
  0
LAYER
  5
47
330
2
100
AcDbSymbolTableRecord
100
AcDbLayerTableRecord
  2
_0-0_
 70
     0
 62
     7
  6
CONTINUOUS
370
    -3
390
F
  0
LAYER
  5
48
330
2
100
AcDbSymbolTableRecord
100
AcDbLayerTableRecord
  2
ADD_LINE
 70
     0
 62
     7
  6
CONTINUOUS
370
    -3
390
F
  0
ENDTAB
  0
TABLE
  2
STYLE
  5
3
330
0
100
AcDbSymbolTable
 70
     2
  0
STYLE
  5
11
330
3
100
AcDbSymbolTableRecord
100
AcDbTextStyleTableRecord
  2
STANDARD
 70
     0
 40
0.0
 41
1.0
 50
0.0
 71
     0
 42
0.2
  3

  4

1001
ACAD
1000
MS Gothic
1071
    32817
  0
STYLE
  5
46
330
3
100
AcDbSymbolTableRecord
100
AcDbTextStyleTableRecord
  2
TATEGAKI
 70
     4
 40
0.0
 41
1.0
 50
0.0
 71
     0
 42
1.0
  3
txt
  4
bigfont.shx
  0
ENDTAB
  0
TABLE
  2
VIEW
  5
6
330
0
100
AcDbSymbolTable
 70
     0
  0
ENDTAB
  0
TABLE
  2
UCS
  5
7
330
0
100
AcDbSymbolTable
 70
     0
  0
ENDTAB
  0
TABLE
  2
APPID
  5
9
330
0
100
AcDbSymbolTable
 70
     1
  0
APPID
  5
12
330
9
100
AcDbSymbolTableRecord
100
AcDbRegAppTableRecord
  2
ACAD
 70
     0
  0
ENDTAB
  0
TABLE
  2
DIMSTYLE
  5
A
330
0
100
AcDbSymbolTable
 70
     1
100
AcDbDimStyleTable
 71
     0
  0
DIMSTYLE
105
2D3
330
A
100
AcDbSymbolTableRecord
100
AcDbDimStyleTableRecord
  2
Standard
 70
     0
340
11
  0
ENDTAB
  0
TABLE
  2
BLOCK_RECORD
  5
1
330
0
100
AcDbSymbolTable
 70
     0
  0
BLOCK_RECORD
  5
20
330
1
100
AcDbSymbolTableRecord
100
AcDbBlockTableRecord
  2
*Model_Space
340
23
  0
BLOCK_RECORD
  5
1C
330
1
100
AcDbSymbolTableRecord
100
AcDbBlockTableRecord
  2
*Paper_Space
340
1F
  0
ENDTAB
  0
ENDSEC
  0
SECTION
  2
BLOCKS
  0
BLOCK
  5
21
330
20
100
AcDbEntity
  8
0
100
AcDbBlockBegin
  2
*Model_Space
 70
     0
 10
0.0
 20
0.0
 30
0.0
  3
*Model_Space
  1

  0
ENDBLK
  5
22
330
20
100
AcDbEntity
  8
0
100
AcDbBlockEnd
  0
BLOCK
  5
1D
330
1C
100
AcDbEntity
 67
     1
  8
0
100
AcDbBlockBegin
  2
*Paper_Space
 70
     0
 10
0.0
 20
0.0
 30
0.0
  3
*Paper_Space
  1

  0
ENDBLK
  5
1E
330
1C
100
AcDbEntity
 67
     1
  8
0
100
AcDbBlockEnd
  0
ENDSEC
  0
SECTION
  2
ENTITIES
  0
LINE
  5
4C
330
20
100
AcDbEntity
  8
_0-0_
  6
Continuous
 62
     7
100
AcDbLine
 10
2570.0
 20
3090.0
 30
0.0
 11
2570.0
 21
2550.0
 31
0.0
  0
LINE
  5
4D
330
20
100
AcDbEntity
  8
_0-0_
  6
Continuous
 62
     7
100
AcDbLine
 10
2570.0
 20
1700.0
 30
0.0
 11
2570.0
 21
629.0
 31
0.0
  0
LINE
  5
4E
330
20
100
AcDbEntity
  8
_0-0_
  6
Continuous
 62
     7
100
AcDbLine
 10
3940.0
 20
1616.537914691943
 30
0.0
 11
3946.923185192655
 21
1567.019539246173
 31
0.0
  0
LINE
  5
4F
330
20
100
AcDbEntity
  8
_0-0_
  6
Continuous
 62
     2
100
AcDbLine
 10
300.0
 20
3900.0
 30
0.0
 11
5640.0
 21
3900.0
 31
0.0
  0
LINE
  5
50
330
20
100
AcDbEntity
  8
_0-0_
  6
Continuous
 62
     2
100
AcDbLine
 10
5640.0
 20
3900.0
 30
0.0
 11
5640.0
 21
200.0
 31
0.0
  0
LINE
  5
51
330
20
100
AcDbEntity
  8
_0-0_
  6
Continuous
 62
     2
100
AcDbLine
 10
5640.0
 20
200.0
 30
0.0
 11
300.0
 21
200.0
 31
0.0
  0
LINE
  5
52
330
20
100
AcDbEntity
  8
_0-0_
  6
Continuous
 62
     2
100
AcDbLine
 10
300.0
 20
200.0
 30
0.0
 11
300.0
 21
3900.0
 31
0.0
  0
LINE
  5
53
330
20
100
AcDbEntity
  8
_0-0_
  6
Continuous
 62
     4
100
AcDbLine
 10
2060.0
 20
3020.0
 30
0.0
 11
2058.495674730909
 21
2991.428571428571
 31
0.0
  0
LINE
  5
54
330
20
100
AcDbEntity
  8
_0-0_
  6
Continuous
 62
     4
100
AcDbLine
 10
2058.495674730909
 20
2991.428571428571
 30
0.0
 11
2046.909888948082
 21
2934.285714285715
 31
0.0
  0
LINE
  5
55
330
20
100
AcDbEntity
  8
_0-0_
  6
Continuous
 62
     4
100
AcDbLine
 10
2046.909888948082
 20
2934.285714285715
 30
0.0
 11
2026.033024347054
 21
2877.142857142857
 31
0.0
  0
LINE
  5
56
330
20
100
AcDbEntity
  8
_0-0_
  6
Continuous
 62
     4
100
AcDbLine
 10
2026.033024347054
 20
2877.142857142857
 30
0.0
 11
2000.0
 21
2820.0
 31
0.0
  0
LINE
  5
57
330
20
100
AcDbEntity
  8
_0-0_
  6
Continuous
 62
     4
100
AcDbLine
 10
2000.0
 20
2820.0
 30
0.0
 11
1973.966975652946
 21
2762.857142857143
 31
0.0
  0
LINE
  5
58
330
20
100
AcDbEntity
  8
_0-0_
  6
Continuous
 62
     4
100
AcDbLine
 10
1973.966975652946
 20
2762.857142857143
 30
0.0
 11
1953.090111051918
 21
2705.714285714285
 31
0.0
  0
LINE
  5
59
330
20
100
AcDbEntity
  8
_0-0_
  6
Continuous
 62
     4
100
AcDbLine
 10
1953.090111051918
 20
2705.714285714285
 30
0.0
 11
1941.504325269091
 21
2648.571428571429
 31
0.0
  0
LINE
  5
5A
330
20
100
AcDbEntity
  8
_0-0_
  6
Continuous
 62
     4
100
AcDbLine
 10
1941.504325269091
 20
2648.571428571429
 30
0.0
 11
1940.0
 21
2620.0
 31
0.0
  0
LINE
  5
5B
330
20
100
AcDbEntity
  8
_0-0_
  6
Continuous
 62
     7
100
AcDbLine
 10
2060.0
 20
3020.0
 30
0.0
 11
2497.5
 21
3020.0
 31
0.0
  0
LINE
  5
5C
330
20
100
AcDbEntity
  8
_0-0_
  6
Continuous
 62
     7
100
AcDbLine
 10
2497.5
 20
3020.0
 30
0.0
 11
2497.5
 21
2620.0
 31
0.0
  0
LINE
  5
5D
330
20
100
AcDbEntity
  8
_0-0_
  6
Continuous
 62
     7
100
AcDbLine
 10
2497.5
 20
2620.0
 30
0.0
 11
1940.0
 21
2620.0
 31
0.0
  0
LINE
  5
5E
330
20
100
AcDbEntity
  8
_0-0_
  6
Continuous
 62
     3
100
AcDbLine
 10
2054.151005062349
 20
2970.0
 30
0.0
 11
2497.5
 21
2970.0
 31
0.0
  0
LINE
  5
5F
330
20
100
AcDbEntity
  8
_0-0_
  6
Continuous
 62
     3
100
AcDbLine
 10
2041.690672797825
 20
2920.0
 30
0.0
 11
2497.5
 21
2920.0
 31
0.0
  0
LINE
  5
60
330
20
100
AcDbEntity
  8
_0-0_
  6
Continuous
 62
     3
100
AcDbLine
 10
2022.778896303672
 20
2870.0
 30
0.0
 11
2497.5
 21
2870.0
 31
0.0
  0
LINE
  5
61
330
20
100
AcDbEntity
  8
_0-0_
  6
Continuous
 62
     3
100
AcDbLine
 10
2000.0
 20
2820.0
 30
0.0
 11
2497.5
 21
2820.0
 31
0.0
  0
LINE
  5
62
330
20
100
AcDbEntity
  8
_0-0_
  6
Continuous
 62
     3
100
AcDbLine
 10
1977.221103696328
 20
2770.0
 30
0.0
 11
2497.5
 21
2770.0
 31
0.0
  0
LINE
  5
63
330
20
100
AcDbEntity
  8
_0-0_
  6
Continuous
 62
     3
100
AcDbLine
 10
1958.309327202175
 20
2720.0
 30
0.0
 11
2497.5
 21
2720.0
 31
0.0
  0
LINE
  5
64
330
20
100
AcDbEntity
  8
_0-0_
  6
Continuous
 62
     3
100
AcDbLine
 10
1945.848994937651
 20
2670.0
 30
0.0
 11
2497.5
 21
2670.0
 31
0.0
  0
LINE
  5
65
330
20
100
AcDbEntity
  8
_0-0_
  6
Continuous
 62
     3
100
AcDbLine
 10
1964.7
 20
2737.49215266333
 30
0.0
 11
1964.7
 21
2620.0
 31
0.0
  0
LINE
  5
66
330
20
100
AcDbEntity
  8
_0-0_
  6
Continuous
 62
     3
100
AcDbLine
 10
2000.0
 20
2820.0
 30
0.0
 11
2000.0
 21
2620.0
 31
0.0
  0
LINE
  5
67
330
20
100
AcDbEntity
  8
_0-0_
  6
Continuous
 62
     3
100
AcDbLine
 10
2035.3
 20
2902.507847336671
 30
0.0
 11
2035.3
 21
2620.0
 31
0.0
  0
LINE
  5
68
330
20
100
AcDbEntity
  8
_0-0_
  6
Continuous
 62
     3
100
AcDbLine
 10
2070.6
 20
3020.0
 30
0.0
 11
2070.6
 21
2620.0
 31
0.0
  0
LINE
  5
69
330
20
100
AcDbEntity
  8
_0-0_
  6
Continuous
 62
     3
100
AcDbLine
 10
2105.9
 20
3020.0
 30
0.0
 11
2105.9
 21
2620.0
 31
0.0
  0
LINE
  5
6A
330
20
100
AcDbEntity
  8
_0-0_
  6
Continuous
 62
     3
100
AcDbLine
 10
2141.2
 20
3020.0
 30
0.0
 11
2141.2
 21
2620.0
 31
0.0
  0
LINE
  5
6B
330
20
100
AcDbEntity
  8
_0-0_
  6
Continuous
 62
     3
100
AcDbLine
 10
2176.5
 20
3020.0
 30
0.0
 11
2176.5
 21
2620.0
 31
0.0
  0
LINE
  5
6C
330
20
100
AcDbEntity
  8
_0-0_
  6
Continuous
 62
     3
100
AcDbLine
 10
2211.8
 20
3020.0
 30
0.0
 11
2211.8
 21
2620.0
 31
0.0
  0
LINE
  5
6D
330
20
100
AcDbEntity
  8
_0-0_
  6
Continuous
 62
     3
100
AcDbLine
 10
2247.1
 20
3020.0
 30
0.0
 11
2247.1
 21
2620.0
 31
0.0
  0
LINE
  5
6E
330
20
100
AcDbEntity
  8
_0-0_
  6
Continuous
 62
     3
100
AcDbLine
 10
2282.4
 20
3020.0
 30
0.0
 11
2282.4
 21
2620.0
 31
0.0
  0
LINE
  5
6F
330
20
100
AcDbEntity
  8
_0-0_
  6
Continuous
 62
     3
100
AcDbLine
 10
2317.700000000001
 20
3020.0
 30
0.0
 11
2317.700000000001
 21
2620.0
 31
0.0
  0
LINE
  5
70
330
20
100
AcDbEntity
  8
_0-0_
  6
Continuous
 62
     3
100
AcDbLine
 10
2353.0
 20
3020.0
 30
0.0
 11
2353.0
 21
2620.0
 31
0.0
  0
LINE
  5
71
330
20
100
AcDbEntity
  8
_0-0_
  6
Continuous
 62
     3
100
AcDbLine
 10
2388.3
 20
3020.0
 30
0.0
 11
2388.3
 21
2620.0
 31
0.0
  0
LINE
  5
72
330
20
100
AcDbEntity
  8
_0-0_
  6
Continuous
 62
     3
100
AcDbLine
 10
2423.600000000001
 20
3020.0
 30
0.0
 11
2423.600000000001
 21
2620.0
 31
0.0
  0
LINE
  5
73
330
20
100
AcDbEntity
  8
_0-0_
  6
Continuous
 62
     3
100
AcDbLine
 10
2458.9
 20
3020.0
 30
0.0
 11
2458.9
 21
2620.0
 31
0.0
  0
LINE
  5
74
330
20
100
AcDbEntity
  8
_0-0_
  6
DASHED1
 62
     3
100
AcDbLine
 10
1541.1
 20
1674.0
 30
0.0
 11
1541.1
 21
1565.0
 31
0.0
  0
LINE
  5
75
330
20
100
AcDbEntity
  8
_0-0_
  6
DASHED1
 62
     3
100
AcDbLine
 10
1576.4
 20
1674.0
 30
0.0
 11
1576.4
 21
1565.0
 31
0.0
  0
LINE
  5
76
330
20
100
AcDbEntity
  8
_0-0_
  6
DASHED1
 62
     3
100
AcDbLine
 10
1611.7
 20
1674.0
 30
0.0
 11
1611.7
 21
1565.0
 31
0.0
  0
LINE
  5
77
330
20
100
AcDbEntity
  8
_0-0_
  6
DASHED1
 62
     3
100
AcDbLine
 10
1647.0
 20
1674.0
 30
0.0
 11
1647.0
 21
1565.0
 31
0.0
  0
LINE
  5
78
330
20
100
AcDbEntity
  8
_0-0_
  6
DASHED1
 62
     3
100
AcDbLine
 10
1682.3
 20
1674.0
 30
0.0
 11
1682.3
 21
1565.0
 31
0.0
  0
LINE
  5
79
330
20
100
AcDbEntity
  8
_0-0_
  6
DASHED1
 62
     3
100
AcDbLine
 10
1717.6
 20
1674.0
 30
0.0
 11
1717.6
 21
1565.0
 31
0.0
  0
LINE
  5
7A
330
20
100
AcDbEntity
  8
_0-0_
  6
DASHED1
 62
     3
100
AcDbLine
 10
1752.9
 20
1674.0
 30
0.0
 11
1752.9
 21
1565.0
 31
0.0
  0
LINE
  5
7B
330
20
100
AcDbEntity
  8
_0-0_
  6
DASHED1
 62
     3
100
AcDbLine
 10
1788.199999999999
 20
1674.0
 30
0.0
 11
1788.199999999999
 21
1565.0
 31
0.0
  0
LINE
  5
7C
330
20
100
AcDbEntity
  8
_0-0_
  6
DASHED1
 62
     3
100
AcDbLine
 10
1823.5
 20
1674.0
 30
0.0
 11
1823.5
 21
1565.0
 31
0.0
  0
LINE
  5
7D
330
20
100
AcDbEntity
  8
_0-0_
  6
DASHED1
 62
     3
100
AcDbLine
 10
1858.8
 20
1674.0
 30
0.0
 11
1858.8
 21
1565.0
 31
0.0
  0
LINE
  5
7E
330
20
100
AcDbEntity
  8
_0-0_
  6
DASHED1
 62
     3
100
AcDbLine
 10
1894.1
 20
1674.0
 30
0.0
 11
1894.1
 21
1565.0
 31
0.0
  0
LINE
  5
7F
330
20
100
AcDbEntity
  8
_0-0_
  6
DASHED1
 62
     3
100
AcDbLine
 10
1929.4
 20
1674.0
 30
0.0
 11
1929.4
 21
1565.0
 31
0.0
  0
LINE
  5
80
330
20
100
AcDbEntity
  8
_0-0_
  6
DASHED1
 62
     3
100
AcDbLine
 10
1964.7
 20
1674.0
 30
0.0
 11
1964.7
 21
1565.0
 31
0.0
  0
LINE
  5
81
330
20
100
AcDbEntity
  8
_0-0_
  6
DASHED1
 62
     3
100
AcDbLine
 10
2000.0
 20
1674.0
 30
0.0
 11
2000.0
 21
1565.0
 31
0.0
  0
LINE
  5
82
330
20
100
AcDbEntity
  8
_0-0_
  6
DASHED1
 62
     3
100
AcDbLine
 10
2035.3
 20
1674.0
 30
0.0
 11
2035.3
 21
1565.0
 31
0.0
  0
LINE
  5
83
330
20
100
AcDbEntity
  8
_0-0_
  6
DASHED1
 62
     3
100
AcDbLine
 10
2070.6
 20
1674.0
 30
0.0
 11
2070.6
 21
1565.0
 31
0.0
  0
LINE
  5
84
330
20
100
AcDbEntity
  8
_0-0_
  6
DASHED1
 62
     3
100
AcDbLine
 10
2105.9
 20
1674.0
 30
0.0
 11
2105.9
 21
1565.0
 31
0.0
  0
LINE
  5
85
330
20
100
AcDbEntity
  8
_0-0_
  6
DASHED1
 62
     3
100
AcDbLine
 10
2141.2
 20
1674.0
 30
0.0
 11
2141.2
 21
1565.0
 31
0.0
  0
LINE
  5
86
330
20
100
AcDbEntity
  8
_0-0_
  6
DASHED1
 62
     3
100
AcDbLine
 10
2176.5
 20
1674.0
 30
0.0
 11
2176.5
 21
1565.0
 31
0.0
  0
LINE
  5
87
330
20
100
AcDbEntity
  8
_0-0_
  6
DASHED1
 62
     3
100
AcDbLine
 10
2211.8
 20
1674.0
 30
0.0
 11
2211.8
 21
1565.0
 31
0.0
  0
LINE
  5
88
330
20
100
AcDbEntity
  8
_0-0_
  6
DASHED1
 62
     3
100
AcDbLine
 10
2247.1
 20
1674.0
 30
0.0
 11
2247.1
 21
1565.0
 31
0.0
  0
LINE
  5
89
330
20
100
AcDbEntity
  8
_0-0_
  6
DASHED1
 62
     3
100
AcDbLine
 10
2282.4
 20
1674.0
 30
0.0
 11
2282.4
 21
1565.0
 31
0.0
  0
LINE
  5
8A
330
20
100
AcDbEntity
  8
_0-0_
  6
DASHED1
 62
     3
100
AcDbLine
 10
2317.700000000001
 20
1674.0
 30
0.0
 11
2317.700000000001
 21
1565.0
 31
0.0
  0
LINE
  5
8B
330
20
100
AcDbEntity
  8
_0-0_
  6
DASHED1
 62
     3
100
AcDbLine
 10
2353.0
 20
1674.0
 30
0.0
 11
2353.0
 21
1565.0
 31
0.0
  0
LINE
  5
8C
330
20
100
AcDbEntity
  8
_0-0_
  6
DASHED1
 62
     3
100
AcDbLine
 10
2388.3
 20
1674.0
 30
0.0
 11
2388.3
 21
1565.0
 31
0.0
  0
LINE
  5
8D
330
20
100
AcDbEntity
  8
_0-0_
  6
DASHED1
 62
     3
100
AcDbLine
 10
2423.600000000001
 20
1674.0
 30
0.0
 11
2423.600000000001
 21
1565.0
 31
0.0
  0
LINE
  5
8E
330
20
100
AcDbEntity
  8
_0-0_
  6
DASHED1
 62
     3
100
AcDbLine
 10
2458.9
 20
1674.0
 30
0.0
 11
2458.9
 21
1565.0
 31
0.0
  0
LINE
  5
8F
330
20
100
AcDbEntity
  8
_0-0_
  6
DASHED1
 62
     7
100
AcDbLine
 10
2497.5
 20
1674.0
 30
0.0
 11
2497.5
 21
1565.0
 31
0.0
  0
LINE
  5
90
330
20
100
AcDbEntity
  8
_0-0_
  6
DASHED1
 62
     7
100
AcDbLine
 10
2497.5
 20
1565.0
 30
0.0
 11
1502.5
 21
1565.0
 31
0.0
  0
LINE
  5
91
330
20
100
AcDbEntity
  8
_0-0_
  6
DASHED1
 62
     7
100
AcDbLine
 10
1502.5
 20
1565.0
 30
0.0
 11
1502.5
 21
1674.0
 31
0.0
  0
LINE
  5
92
330
20
100
AcDbEntity
  8
_0-0_
  6
Continuous
 62
     7
100
AcDbLine
 10
3936.753967415774
 20
1559.539419500738
 30
0.0
 11
3929.0
 21
1615.0
 31
0.0
  0
LINE
  5
93
330
20
100
AcDbEntity
  8
_0-0_
  6
Continuous
 62
     7
100
AcDbLine
 10
3936.753967415774
 20
1559.539419500738
 30
0.0
 11
4358.753967415772
 21
1618.539419500738
 31
0.0
  0
LINE
  5
94
330
20
100
AcDbEntity
  8
_0-0_
  6
Continuous
 62
     7
100
AcDbLine
 10
4358.753967415772
 20
1618.539419500738
 30
0.0
 11
4351.0
 21
1674.0
 31
0.0
  0
LINE
  5
95
330
20
100
AcDbEntity
  8
_0-0_
  6
Continuous
 62
     7
100
AcDbLine
 10
4340.0
 20
1672.462085308056
 30
0.0
 11
4346.923185192655
 21
1622.943709862287
 31
0.0
  0
LINE
  5
96
330
20
100
AcDbEntity
  8
_0-0_
  6
Continuous
 62
     7
100
AcDbLine
 10
3946.923185192655
 20
1567.019539246173
 30
0.0
 11
4346.923185192655
 21
1622.943709862287
 31
0.0
  0
LINE
  5
97
330
20
100
AcDbEntity
  8
_0-0_
  6
Continuous
 62
     7
100
AcDbLine
 10
3940.0
 20
1616.537914691942
 30
0.0
 11
4340.0
 21
1672.462085308056
 31
0.0
  0
LINE
  5
98
330
20
100
AcDbEntity
  8
_0-0_
  6
DASHED1
 62
     7
100
AcDbLine
 10
4340.0
 20
1672.462085308056
 30
0.0
 11
4351.0
 21
1674.0
 31
0.0
  0
LINE
  5
99
330
20
100
AcDbEntity
  8
_0-0_
  6
DASHED1
 62
     7
100
AcDbLine
 10
3929.0
 20
1615.0
 30
0.0
 11
3940.0
 21
1616.537914691942
 31
0.0
  0
LINE
  5
9A
330
20
100
AcDbEntity
  8
_0-0_
  6
Continuous
 62
     7
100
AcDbLine
 10
4351.0
 20
1674.0
 30
0.0
 11
4410.0
 21
1674.0
 31
0.0
  0
CIRCLE
  5
9B
330
20
100
AcDbEntity
  8
_0-0_
  6
Continuous
 62
     7
100
AcDbCircle
 10
3990.0
 20
1620.499257483723
 30
0.0
 40
3.0
  0
CIRCLE
  5
9C
330
20
100
AcDbEntity
  8
_0-0_
  6
Continuous
 62
     7
100
AcDbCircle
 10
4040.0
 20
1627.489778810736
 30
0.0
 40
3.0
  0
CIRCLE
  5
9D
330
20
100
AcDbEntity
  8
_0-0_
  6
Continuous
 62
     7
100
AcDbCircle
 10
4090.0
 20
1634.480300137751
 30
0.0
 40
3.0
  0
CIRCLE
  5
9E
330
20
100
AcDbEntity
  8
_0-0_
  6
Continuous
 62
     7
100
AcDbCircle
 10
4140.0
 20
1641.470821464765
 30
0.0
 40
3.0
  0
CIRCLE
  5
9F
330
20
100
AcDbEntity
  8
_0-0_
  6
Continuous
 62
     7
100
AcDbCircle
 10
4190.0
 20
1648.46134279178
 30
0.0
 40
3.0
  0
CIRCLE
  5
A0
330
20
100
AcDbEntity
  8
_0-0_
  6
Continuous
 62
     7
100
AcDbCircle
 10
4240.0
 20
1655.451864118794
 30
0.0
 40
3.0
  0
CIRCLE
  5
A1
330
20
100
AcDbEntity
  8
_0-0_
  6
Continuous
 62
     7
100
AcDbCircle
 10
4290.0
 20
1662.442385445808
 30
0.0
 40
3.0
  0
LINE
  5
A2
330
20
100
AcDbEntity
  8
_0-0_
  6
Continuous
 62
     7
100
AcDbLine
 10
1491.5
 20
3031.0
 30
0.0
 11
1491.5
 21
2610.0
 31
0.0
  0
LINE
  5
A3
330
20
100
AcDbEntity
  8
_0-0_
  6
DASHED1
 62
     7
100
AcDbLine
 10
1491.5
 20
2610.0
 30
0.0
 11
1491.5
 21
2609.0
 31
0.0
  0
LINE
  5
A4
330
20
100
AcDbEntity
  8
_0-0_
  6
DASHED1
 62
     7
100
AcDbLine
 10
2508.5
 20
2610.0
 30
0.0
 11
2508.5
 21
2609.0
 31
0.0
  0
LINE
  5
A5
330
20
100
AcDbEntity
  8
_0-0_
  6
DASHED1
 62
     7
100
AcDbLine
 10
1491.5
 20
2609.0
 30
0.0
 11
2508.5
 21
2609.0
 31
0.0
  0
LINE
  5
A6
330
20
100
AcDbEntity
  8
_0-0_
  6
Continuous
 62
     7
100
AcDbLine
 10
2508.5
 20
3031.0
 30
0.0
 11
2508.5
 21
2610.0
 31
0.0
  0
LINE
  5
A7
330
20
100
AcDbEntity
  8
_0-0_
  6
Continuous
 62
     7
100
AcDbLine
 10
1491.5
 20
3031.0
 30
0.0
 11
2508.5
 21
3031.0
 31
0.0
  0
LINE
  5
A8
330
20
100
AcDbEntity
  8
_0-0_
  6
Continuous
 62
     7
100
AcDbLine
 10
1430.0
 20
3030.0
 30
0.0
 11
1491.5
 21
3030.0
 31
0.0
  0
LINE
  5
A9
330
20
100
AcDbEntity
  8
_0-0_
  6
Continuous
 62
     7
100
AcDbLine
 10
2508.5
 20
3030.0
 30
0.0
 11
2570.0
 21
3030.0
 31
0.0
  0
LINE
  5
AA
330
20
100
AcDbEntity
  8
_0-0_
  6
Continuous
 62
     7
100
AcDbLine
 10
1430.0
 20
2610.0
 30
0.0
 11
2570.0
 21
2610.0
 31
0.0
  0
LINE
  5
AB
330
20
100
AcDbEntity
  8
_0-0_
  6
Continuous
 62
     7
100
AcDbLine
 10
1430.0
 20
3090.0
 30
0.0
 11
2570.0
 21
3090.0
 31
0.0
  0
LINE
  5
AC
330
20
100
AcDbEntity
  8
_0-0_
  6
Continuous
 62
     7
100
AcDbLine
 10
2570.0
 20
2550.0
 30
0.0
 11
1430.0
 21
2550.0
 31
0.0
  0
LINE
  5
AD
330
20
100
AcDbEntity
  8
_0-0_
  6
Continuous
 62
     7
100
AcDbLine
 10
1430.0
 20
2550.0
 30
0.0
 11
1430.0
 21
3090.0
 31
0.0
  0
LINE
  5
AE
330
20
100
AcDbEntity
  8
_0-0_
  6
DASHED1
 62
     7
100
AcDbLine
 10
1430.0
 20
1674.0
 30
0.0
 11
2570.0
 21
1674.0
 31
0.0
  0
LINE
  5
AF
330
20
100
AcDbEntity
  8
_0-0_
  6
DASHED1
 62
     7
100
AcDbLine
 10
1430.0
 20
1615.0
 30
0.0
 11
2570.0
 21
1615.0
 31
0.0
  0
LINE
  5
B0
330
20
100
AcDbEntity
  8
_0-0_
  6
DASHED1
 62
     7
100
AcDbLine
 10
1491.5
 20
1674.0
 30
0.0
 11
1491.5
 21
1559.0
 31
0.0
  0
LINE
  5
B1
330
20
100
AcDbEntity
  8
_0-0_
  6
DASHED1
 62
     7
100
AcDbLine
 10
1491.5
 20
1559.0
 30
0.0
 11
2508.5
 21
1559.0
 31
0.0
  0
LINE
  5
B2
330
20
100
AcDbEntity
  8
_0-0_
  6
DASHED1
 62
     7
100
AcDbLine
 10
2508.5
 20
1559.0
 30
0.0
 11
2508.5
 21
1674.0
 31
0.0
  0
LINE
  5
B3
330
20
100
AcDbEntity
  8
_0-0_
  6
Continuous
 62
     7
100
AcDbLine
 10
1430.0
 20
1700.0
 30
0.0
 11
2570.0
 21
1700.0
 31
0.0
  0
LINE
  5
B4
330
20
100
AcDbEntity
  8
_0-0_
  6
Continuous
 62
     7
100
AcDbLine
 10
2570.0
 20
629.0
 30
0.0
 11
1430.0
 21
629.0
 31
0.0
  0
LINE
  5
B5
330
20
100
AcDbEntity
  8
_0-0_
  6
Continuous
 62
     7
100
AcDbLine
 10
1430.0
 20
629.0
 30
0.0
 11
1430.0
 21
1700.0
 31
0.0
  0
LINE
  5
B6
330
20
100
AcDbEntity
  8
_0-0_
  6
Continuous
 62
     7
100
AcDbLine
 10
1550.0
 20
2970.0
 30
0.0
 11
2054.151005062349
 21
2970.0
 31
0.0
  0
LINE
  5
B7
330
20
100
AcDbEntity
  8
_0-0_
  6
Continuous
 62
     7
100
AcDbLine
 10
1550.0
 20
2970.0
 30
0.0
 11
1550.0
 21
2670.0
 31
0.0
  0
LINE
  5
B8
330
20
100
AcDbEntity
  8
_0-0_
  6
Continuous
 62
     7
100
AcDbLine
 10
1550.0
 20
2670.0
 30
0.0
 11
1945.848994937651
 21
2670.0
 31
0.0
  0
LINE
  5
B9
330
20
100
AcDbEntity
  8
_0-0_
  6
DASHED1
 62
     7
100
AcDbLine
 10
2054.151005062349
 20
2970.0
 30
0.0
 11
2450.0
 21
2970.0
 31
0.0
  0
LINE
  5
BA
330
20
100
AcDbEntity
  8
_0-0_
  6
DASHED1
 62
     7
100
AcDbLine
 10
2450.0
 20
2970.0
 30
0.0
 11
2450.0
 21
2670.0
 31
0.0
  0
LINE
  5
BB
330
20
100
AcDbEntity
  8
_0-0_
  6
DASHED1
 62
     7
100
AcDbLine
 10
2450.0
 20
2670.0
 30
0.0
 11
1945.848994937651
 21
2670.0
 31
0.0
  0
LINE
  5
BC
330
20
100
AcDbEntity
  8
_0-0_
  6
Continuous
 62
     7
100
AcDbLine
 10
1570.0
 20
2950.0
 30
0.0
 11
2050.09598003836
 21
2950.0
 31
0.0
  0
LINE
  5
BD
330
20
100
AcDbEntity
  8
_0-0_
  6
Continuous
 62
     7
100
AcDbLine
 10
1570.0
 20
2950.0
 30
0.0
 11
1570.0
 21
2690.0
 31
0.0
  0
LINE
  5
BE
330
20
100
AcDbEntity
  8
_0-0_
  6
Continuous
 62
     7
100
AcDbLine
 10
1570.0
 20
2690.0
 30
0.0
 11
1949.90401996164
 21
2690.0
 31
0.0
  0
LINE
  5
BF
330
20
100
AcDbEntity
  8
_0-0_
  6
DASHED1
 62
     7
100
AcDbLine
 10
2050.09598003836
 20
2950.0
 30
0.0
 11
2430.0
 21
2950.0
 31
0.0
  0
LINE
  5
C0
330
20
100
AcDbEntity
  8
_0-0_
  6
DASHED1
 62
     7
100
AcDbLine
 10
2430.0
 20
2950.0
 30
0.0
 11
2430.0
 21
2690.0
 31
0.0
  0
LINE
  5
C1
330
20
100
AcDbEntity
  8
_0-0_
  6
DASHED1
 62
     7
100
AcDbLine
 10
2430.0
 20
2690.0
 30
0.0
 11
1949.90401996164
 21
2690.0
 31
0.0
  0
LINE
  5
C2
330
20
100
AcDbEntity
  8
_0-0_
  6
DASHED1
 62
     7
100
AcDbLine
 10
2430.0
 20
2950.0
 30
0.0
 11
2450.0
 21
2970.0
 31
0.0
  0
LINE
  5
C3
330
20
100
AcDbEntity
  8
_0-0_
  6
DASHED1
 62
     7
100
AcDbLine
 10
2430.0
 20
2690.0
 30
0.0
 11
2450.0
 21
2670.0
 31
0.0
  0
LINE
  5
C4
330
20
100
AcDbEntity
  8
_0-0_
  6
Continuous
 62
     7
100
AcDbLine
 10
1550.0
 20
2970.0
 30
0.0
 11
1570.0
 21
2950.0
 31
0.0
  0
LINE
  5
C5
330
20
100
AcDbEntity
  8
_0-0_
  6
Continuous
 62
     7
100
AcDbLine
 10
1550.0
 20
2670.0
 30
0.0
 11
1570.0
 21
2690.0
 31
0.0
  0
LINE
  5
C6
330
20
100
AcDbEntity
  8
_0-0_
  6
DASHED1
 62
     7
100
AcDbLine
 10
1550.0
 20
1559.0
 30
0.0
 11
1570.0
 21
749.0
 31
0.0
  0
LINE
  5
C7
330
20
100
AcDbEntity
  8
_0-0_
  6
DASHED1
 62
     7
100
AcDbLine
 10
2450.0
 20
1559.0
 30
0.0
 11
2430.0
 21
749.0
 31
0.0
  0
LINE
  5
C8
330
20
100
AcDbEntity
  8
_0-0_
  6
DASHED1
 62
     7
100
AcDbLine
 10
1570.0
 20
749.0
 30
0.0
 11
2430.0
 21
749.0
 31
0.0
  0
LINE
  5
C9
330
20
100
AcDbEntity
  8
_0-0_
  6
Continuous
 62
     7
100
AcDbLine
 10
4010.0
 20
749.0
 30
0.0
 11
4270.0
 21
749.0
 31
0.0
  0
LINE
  5
CA
330
20
100
AcDbEntity
  8
_0-0_
  6
Continuous
 62
     7
100
AcDbLine
 10
3990.0
 20
1566.983770027916
 30
0.0
 11
4010.0
 21
749.0
 31
0.0
  0
LINE
  5
CB
330
20
100
AcDbEntity
  8
_0-0_
  6
Continuous
 62
     7
100
AcDbLine
 10
4290.0
 20
1608.926897990002
 30
0.0
 11
4270.0
 21
749.0
 31
0.0
  0
CIRCLE
  5
CC
330
20
100
AcDbEntity
  8
_0-0_
  6
Continuous
 62
     7
100
AcDbCircle
 10
2000.0
 20
1064.0
 30
0.0
 40
200.0
  0
CIRCLE
  5
CD
330
20
100
AcDbEntity
  8
_0-0_
  6
Continuous
 62
     7
100
AcDbCircle
 10
2000.0
 20
1064.0
 30
0.0
 40
212.0
  0
LINE
  5
CE
330
20
100
AcDbEntity
  8
_0-0_
  6
DASHED1
 62
     7
100
AcDbLine
 10
3870.0
 20
1276.0
 30
0.0
 11
3870.0
 21
852.0
 31
0.0
  0
LINE
  5
CF
330
20
100
AcDbEntity
  8
_0-0_
  6
DASHED1
 62
     7
100
AcDbLine
 10
4410.0
 20
1276.0
 30
0.0
 11
4410.0
 21
852.0
 31
0.0
  0
LINE
  5
D0
330
20
100
AcDbEntity
  8
_0-0_
  6
Continuous
 62
     7
100
AcDbLine
 10
3950.0
 20
1264.0
 30
0.0
 11
3950.0
 21
864.0
 31
0.0
  0
LINE
  5
D1
330
20
100
AcDbEntity
  8
_0-0_
  6
Continuous
 62
     7
100
AcDbLine
 10
4330.0
 20
1264.0
 30
0.0
 11
4330.0
 21
864.0
 31
0.0
  0
LINE
  5
D2
330
20
100
AcDbEntity
  8
_0-0_
  6
Continuous
 62
     7
100
AcDbLine
 10
3870.0
 20
1276.0
 30
0.0
 11
3950.0
 21
1264.0
 31
0.0
  0
LINE
  5
D3
330
20
100
AcDbEntity
  8
_0-0_
  6
Continuous
 62
     7
100
AcDbLine
 10
4330.0
 20
1264.0
 30
0.0
 11
4410.0
 21
1276.0
 31
0.0
  0
LINE
  5
D4
330
20
100
AcDbEntity
  8
_0-0_
  6
Continuous
 62
     7
100
AcDbLine
 10
3870.0
 20
852.0
 30
0.0
 11
3950.0
 21
864.0
 31
0.0
  0
LINE
  5
D5
330
20
100
AcDbEntity
  8
_0-0_
  6
Continuous
 62
     7
100
AcDbLine
 10
4330.0
 20
864.0
 30
0.0
 11
4410.0
 21
852.0
 31
0.0
  0
LINE
  5
D6
330
20
100
AcDbEntity
  8
_0-0_
  6
Continuous
 62
     7
100
AcDbLine
 10
4410.0
 20
1674.0
 30
0.0
 11
4410.0
 21
1276.0
 31
0.0
  0
LINE
  5
D7
330
20
100
AcDbEntity
  8
_0-0_
  6
Continuous
 62
     7
100
AcDbLine
 10
4410.0
 20
852.0
 30
0.0
 11
4410.0
 21
629.0
 31
0.0
  0
LINE
  5
D8
330
20
100
AcDbEntity
  8
_0-0_
  6
Continuous
 62
     7
100
AcDbLine
 10
3870.0
 20
629.0
 30
0.0
 11
4410.0
 21
629.0
 31
0.0
  0
LINE
  5
D9
330
20
100
AcDbEntity
  8
_0-0_
  6
Continuous
 62
     7
100
AcDbLine
 10
3870.0
 20
852.0
 30
0.0
 11
3870.0
 21
629.0
 31
0.0
  0
LINE
  5
DA
330
20
100
AcDbEntity
  8
_0-0_
  6
Continuous
 62
     7
100
AcDbLine
 10
3870.0
 20
1700.0
 30
0.0
 11
3870.0
 21
1276.0
 31
0.0
  0
LINE
  5
DB
330
20
100
AcDbEntity
  8
_0-0_
  6
Continuous
 62
     7
100
AcDbLine
 10
3910.0
 20
1700.0
 30
0.0
 11
3870.0
 21
1700.0
 31
0.0
  0
LINE
  5
DC
330
20
100
AcDbEntity
  8
_0-0_
  6
Continuous
 62
     7
100
AcDbLine
 10
3930.0
 20
1680.0
 30
0.0
 11
3930.0
 21
1615.13981042654
 31
0.0
  0
ARC
  5
DD
330
20
100
AcDbEntity
  8
_0-0_
  6
Continuous
 62
     7
100
AcDbCircle
 10
3910.0
 20
1680.0
 30
0.0
 40
20.0
100
AcDbArc
 50
0.0
 51
90.00000000000003
  0
LINE
  5
DE
330
20
100
AcDbEntity
  8
_0-0_
  6
DASHED1
 62
     7
100
AcDbLine
 10
1800.0
 20
3010.0
 30
0.0
 11
2200.0
 21
3010.0
 31
0.0
  0
LINE
  5
DF
330
20
100
AcDbEntity
  8
_0-0_
  6
DASHED1
 62
     7
100
AcDbLine
 10
1788.0
 20
3090.0
 30
0.0
 11
1800.0
 21
3010.0
 31
0.0
  0
LINE
  5
E0
330
20
100
AcDbEntity
  8
_0-0_
  6
DASHED1
 62
     7
100
AcDbLine
 10
2212.0
 20
3090.0
 30
0.0
 11
2200.0
 21
3010.0
 31
0.0
  0
LINE
  5
E1
330
20
100
AcDbEntity
  8
_0-0_
  6
DASHED1
 62
     7
100
AcDbLine
 10
1800.0
 20
2630.0
 30
0.0
 11
1788.0
 21
2550.0
 31
0.0
  0
LINE
  5
E2
330
20
100
AcDbEntity
  8
_0-0_
  6
DASHED1
 62
     7
100
AcDbLine
 10
2200.0
 20
2630.0
 30
0.0
 11
2212.0
 21
2550.0
 31
0.0
  0
LINE
  5
E3
330
20
100
AcDbEntity
  8
_0-0_
  6
DASHED1
 62
     7
100
AcDbLine
 10
1800.0
 20
2630.0
 30
0.0
 11
2200.0
 21
2630.0
 31
0.0
  0
LINE
  5
E4
330
20
100
AcDbEntity
  8
_0-0_
  6
Continuous
 62
     4
100
AcDbLine
 10
1800.0
 20
3290.0
 30
0.0
 11
1839.392310120488
 21
3296.945927106678
 31
0.0
  0
LINE
  5
E5
330
20
100
AcDbEntity
  8
_0-0_
  6
Continuous
 62
     4
100
AcDbLine
 10
1800.0
 20
3290.0
 30
0.0
 11
1839.392310120488
 21
3283.054072893323
 31
0.0
  0
LINE
  5
E6
330
20
100
AcDbEntity
  8
_0-0_
  6
Continuous
 62
     4
100
AcDbLine
 10
2200.0
 20
3290.0
 30
0.0
 11
2160.607689879512
 21
3296.945927106678
 31
0.0
  0
LINE
  5
E7
330
20
100
AcDbEntity
  8
_0-0_
  6
Continuous
 62
     4
100
AcDbLine
 10
2200.0
 20
3290.0
 30
0.0
 11
2160.607689879512
 21
3283.054072893323
 31
0.0
  0
LINE
  5
E8
330
20
100
AcDbEntity
  8
_0-0_
  6
Continuous
 62
     4
100
AcDbLine
 10
1800.0
 20
3310.0
 30
0.0
 11
1800.0
 21
3110.0
 31
0.0
  0
LINE
  5
E9
330
20
100
AcDbEntity
  8
_0-0_
  6
Continuous
 62
     4
100
AcDbLine
 10
2200.0
 20
3310.0
 30
0.0
 11
2200.0
 21
3110.0
 31
0.0
  0
LINE
  5
EA
330
20
100
AcDbEntity
  8
_0-0_
  6
Continuous
 62
     4
100
AcDbLine
 10
1800.0
 20
2350.0
 30
0.0
 11
1839.392310120488
 21
2356.945927106677
 31
0.0
  0
LINE
  5
EB
330
20
100
AcDbEntity
  8
_0-0_
  6
Continuous
 62
     4
100
AcDbLine
 10
1800.0
 20
2350.0
 30
0.0
 11
1839.392310120488
 21
2343.054072893323
 31
0.0
  0
LINE
  5
EC
330
20
100
AcDbEntity
  8
_0-0_
  6
Continuous
 62
     4
100
AcDbLine
 10
2200.0
 20
2350.0
 30
0.0
 11
2160.607689879512
 21
2356.945927106677
 31
0.0
  0
LINE
  5
ED
330
20
100
AcDbEntity
  8
_0-0_
  6
Continuous
 62
     4
100
AcDbLine
 10
2200.0
 20
2350.0
 30
0.0
 11
2160.607689879512
 21
2343.054072893323
 31
0.0
  0
LINE
  5
EE
330
20
100
AcDbEntity
  8
_0-0_
  6
Continuous
 62
     4
100
AcDbLine
 10
1800.0
 20
2330.0
 30
0.0
 11
1800.0
 21
2530.0
 31
0.0
  0
LINE
  5
EF
330
20
100
AcDbEntity
  8
_0-0_
  6
Continuous
 62
     4
100
AcDbLine
 10
2200.0
 20
2330.0
 30
0.0
 11
2200.0
 21
2530.0
 31
0.0
  0
LINE
  5
F0
330
20
100
AcDbEntity
  8
_0-0_
  6
Continuous
 62
     4
100
AcDbLine
 10
1800.0
 20
3110.0
 30
0.0
 11
1800.0
 21
3050.0
 31
0.0
  0
LINE
  5
F1
330
20
100
AcDbEntity
  8
_0-0_
  6
Continuous
 62
     4
100
AcDbLine
 10
2200.0
 20
3110.0
 30
0.0
 11
2200.0
 21
3050.0
 31
0.0
  0
LINE
  5
F2
330
20
100
AcDbEntity
  8
_0-0_
  6
Continuous
 62
     4
100
AcDbLine
 10
1800.0
 20
2590.0
 30
0.0
 11
1800.0
 21
2530.0
 31
0.0
  0
LINE
  5
F3
330
20
100
AcDbEntity
  8
_0-0_
  6
Continuous
 62
     4
100
AcDbLine
 10
2200.0
 20
2590.0
 30
0.0
 11
2200.0
 21
2530.0
 31
0.0
  0
LINE
  5
F4
330
20
100
AcDbEntity
  8
_0-0_
  6
Continuous
 62
     4
100
AcDbLine
 10
1430.0
 20
3410.0
 30
0.0
 11
1469.392310120488
 21
3416.945927106677
 31
0.0
  0
LINE
  5
F5
330
20
100
AcDbEntity
  8
_0-0_
  6
Continuous
 62
     4
100
AcDbLine
 10
1430.0
 20
3410.0
 30
0.0
 11
1469.392310120488
 21
3403.054072893323
 31
0.0
  0
LINE
  5
F6
330
20
100
AcDbEntity
  8
_0-0_
  6
Continuous
 62
     4
100
AcDbLine
 10
2570.0
 20
3410.0
 30
0.0
 11
2530.607689879512
 21
3416.945927106677
 31
0.0
  0
LINE
  5
F7
330
20
100
AcDbEntity
  8
_0-0_
  6
Continuous
 62
     4
100
AcDbLine
 10
2570.0
 20
3410.0
 30
0.0
 11
2530.607689879512
 21
3403.054072893323
 31
0.0
  0
LINE
  5
F8
330
20
100
AcDbEntity
  8
_0-0_
  6
Continuous
 62
     4
100
AcDbLine
 10
1430.0
 20
3430.0
 30
0.0
 11
1430.0
 21
3290.0
 31
0.0
  0
LINE
  5
F9
330
20
100
AcDbEntity
  8
_0-0_
  6
Continuous
 62
     4
100
AcDbLine
 10
2570.0
 20
3430.0
 30
0.0
 11
2570.0
 21
3290.0
 31
0.0
  0
LINE
  5
FA
330
20
100
AcDbEntity
  8
_0-0_
  6
Continuous
 62
     4
100
AcDbLine
 10
1430.0
 20
3410.0
 30
0.0
 11
2570.0
 21
3410.0
 31
0.0
  0
TEXT
  5
FB
330
20
100
AcDbEntity
  8
_0-0_
 62
     7
100
AcDbText
 10
1928.75
 20
3410.0
 30
0.0
 40
100.0
  1
1140
 41
0.5999999999999999
100
AcDbText
  0
LINE
  5
FC
330
20
100
AcDbEntity
  8
_0-0_
  6
Continuous
 62
     4
100
AcDbLine
 10
1430.0
 20
3290.0
 30
0.0
 11
1430.0
 21
3110.0
 31
0.0
  0
LINE
  5
FD
330
20
100
AcDbEntity
  8
_0-0_
  6
Continuous
 62
     4
100
AcDbLine
 10
2570.0
 20
3290.0
 30
0.0
 11
2570.0
 21
3110.0
 31
0.0
  0
LINE
  5
FE
330
20
100
AcDbEntity
  8
_0-0_
  6
Continuous
 62
     4
100
AcDbLine
 10
1430.0
 20
2230.0
 30
0.0
 11
1469.392310120488
 21
2236.945927106677
 31
0.0
  0
LINE
  5
FF
330
20
100
AcDbEntity
  8
_0-0_
  6
Continuous
 62
     4
100
AcDbLine
 10
1430.0
 20
2230.0
 30
0.0
 11
1469.392310120488
 21
2223.054072893323
 31
0.0
  0
LINE
  5
100
330
20
100
AcDbEntity
  8
_0-0_
  6
Continuous
 62
     4
100
AcDbLine
 10
2000.0
 20
2230.0
 30
0.0
 11
1960.607689879512
 21
2236.945927106677
 31
0.0
  0
LINE
  5
101
330
20
100
AcDbEntity
  8
_0-0_
  6
Continuous
 62
     4
100
AcDbLine
 10
2000.0
 20
2230.0
 30
0.0
 11
1960.607689879512
 21
2223.054072893323
 31
0.0
  0
LINE
  5
102
330
20
100
AcDbEntity
  8
_0-0_
  6
Continuous
 62
     4
100
AcDbLine
 10
1430.0
 20
2210.0
 30
0.0
 11
1430.0
 21
2350.0
 31
0.0
  0
LINE
  5
103
330
20
100
AcDbEntity
  8
_0-0_
  6
Continuous
 62
     4
100
AcDbLine
 10
1430.0
 20
2230.0
 30
0.0
 11
2000.0
 21
2230.0
 31
0.0
  0
TEXT
  5
104
330
20
100
AcDbEntity
  8
_0-0_
 62
     7
100
AcDbText
 10
1662.5
 20
2230.0
 30
0.0
 40
100.0
  1
570
 41
0.5999999999999999
100
AcDbText
  0
LINE
  5
105
330
20
100
AcDbEntity
  8
_0-0_
  6
Continuous
 62
     4
100
AcDbLine
 10
2000.0
 20
2230.0
 30
0.0
 11
2039.392310120488
 21
2236.945927106677
 31
0.0
  0
LINE
  5
106
330
20
100
AcDbEntity
  8
_0-0_
  6
Continuous
 62
     4
100
AcDbLine
 10
2000.0
 20
2230.0
 30
0.0
 11
2039.392310120488
 21
2223.054072893323
 31
0.0
  0
LINE
  5
107
330
20
100
AcDbEntity
  8
_0-0_
  6
Continuous
 62
     4
100
AcDbLine
 10
2570.0
 20
2230.0
 30
0.0
 11
2530.607689879512
 21
2236.945927106677
 31
0.0
  0
LINE
  5
108
330
20
100
AcDbEntity
  8
_0-0_
  6
Continuous
 62
     4
100
AcDbLine
 10
2570.0
 20
2230.0
 30
0.0
 11
2530.607689879512
 21
2223.054072893323
 31
0.0
  0
LINE
  5
109
330
20
100
AcDbEntity
  8
_0-0_
  6
Continuous
 62
     4
100
AcDbLine
 10
2570.0
 20
2210.0
 30
0.0
 11
2570.0
 21
2350.0
 31
0.0
  0
LINE
  5
10A
330
20
100
AcDbEntity
  8
_0-0_
  6
Continuous
 62
     4
100
AcDbLine
 10
2000.0
 20
2230.0
 30
0.0
 11
2570.0
 21
2230.0
 31
0.0
  0
TEXT
  5
10B
330
20
100
AcDbEntity
  8
_0-0_
 62
     7
100
AcDbText
 10
2232.5
 20
2230.0
 30
0.0
 40
100.0
  1
570
 41
0.5999999999999999
100
AcDbText
  0
LINE
  5
10C
330
20
100
AcDbEntity
  8
_0-0_
  6
Continuous
 62
     4
100
AcDbLine
 10
1430.0
 20
2530.0
 30
0.0
 11
1430.0
 21
2350.0
 31
0.0
  0
LINE
  5
10D
330
20
100
AcDbEntity
  8
_0-0_
  6
Continuous
 62
     4
100
AcDbLine
 10
2570.0
 20
2530.0
 30
0.0
 11
2570.0
 21
2350.0
 31
0.0
  0
LINE
  5
10E
330
20
100
AcDbEntity
  8
_0-0_
  6
Continuous
 62
     4
100
AcDbLine
 10
1230.0
 20
2550.0
 30
0.0
 11
1230.0
 21
2450.0
 31
0.0
  0
LINE
  5
10F
330
20
100
AcDbEntity
  8
_0-0_
  6
Continuous
 62
     4
100
AcDbLine
 10
1230.0
 20
2610.0
 30
0.0
 11
1230.0
 21
2710.0
 31
0.0
  0
LINE
  5
110
330
20
100
AcDbEntity
  8
_0-0_
  6
Continuous
 62
     4
100
AcDbLine
 10
1230.0
 20
2550.0
 30
0.0
 11
1236.945927106677
 21
2510.607689879512
 31
0.0
  0
LINE
  5
111
330
20
100
AcDbEntity
  8
_0-0_
  6
Continuous
 62
     4
100
AcDbLine
 10
1230.0
 20
2550.0
 30
0.0
 11
1223.054072893323
 21
2510.607689879512
 31
0.0
  0
LINE
  5
112
330
20
100
AcDbEntity
  8
_0-0_
  6
Continuous
 62
     4
100
AcDbLine
 10
1230.0
 20
2610.0
 30
0.0
 11
1236.945927106677
 21
2649.392310120488
 31
0.0
  0
LINE
  5
113
330
20
100
AcDbEntity
  8
_0-0_
  6
Continuous
 62
     4
100
AcDbLine
 10
1230.0
 20
2610.0
 30
0.0
 11
1223.054072893323
 21
2649.392310120488
 31
0.0
  0
LINE
  5
114
330
20
100
AcDbEntity
  8
_0-0_
  6
Continuous
 62
     4
100
AcDbLine
 10
1210.0
 20
2550.0
 30
0.0
 11
1410.0
 21
2550.0
 31
0.0
  0
LINE
  5
115
330
20
100
AcDbEntity
  8
_0-0_
  6
Continuous
 62
     4
100
AcDbLine
 10
1210.0
 20
2610.0
 30
0.0
 11
1410.0
 21
2610.0
 31
0.0
  0
LINE
  5
116
330
20
100
AcDbEntity
  8
_0-0_
  6
Continuous
 62
     4
100
AcDbLine
 10
1230.0
 20
2610.0
 30
0.0
 11
1223.054072893323
 21
2649.392310120488
 31
0.0
  0
LINE
  5
117
330
20
100
AcDbEntity
  8
_0-0_
  6
Continuous
 62
     4
100
AcDbLine
 10
1230.0
 20
2610.0
 30
0.0
 11
1236.945927106677
 21
2649.392310120488
 31
0.0
  0
LINE
  5
118
330
20
100
AcDbEntity
  8
_0-0_
  6
Continuous
 62
     4
100
AcDbLine
 10
1230.0
 20
3090.0
 30
0.0
 11
1223.054072893323
 21
3050.607689879512
 31
0.0
  0
LINE
  5
119
330
20
100
AcDbEntity
  8
_0-0_
  6
Continuous
 62
     4
100
AcDbLine
 10
1230.0
 20
3090.0
 30
0.0
 11
1236.945927106677
 21
3050.607689879512
 31
0.0
  0
LINE
  5
11A
330
20
100
AcDbEntity
  8
_0-0_
  6
Continuous
 62
     4
100
AcDbLine
 10
1210.0
 20
3090.0
 30
0.0
 11
1410.0
 21
3090.0
 31
0.0
  0
LINE
  5
11B
330
20
100
AcDbEntity
  8
_0-0_
  6
Continuous
 62
     4
100
AcDbLine
 10
1230.0
 20
2610.0
 30
0.0
 11
1230.0
 21
3090.0
 31
0.0
  0
TEXT
  5
11C
330
20
100
AcDbEntity
  8
_0-0_
 62
     7
100
AcDbText
 10
1230.0
 20
2797.5
 30
0.0
 40
100.0
  1
480
 50
90.0
 41
0.5999999999999999
100
AcDbText
  0
LINE
  5
11D
330
20
100
AcDbEntity
  8
_0-0_
  6
Continuous
 62
     4
100
AcDbLine
 10
1230.0
 20
2550.0
 30
0.0
 11
1230.0
 21
2610.0
 31
0.0
  0
TEXT
  5
11E
330
20
100
AcDbEntity
  8
_0-0_
 62
     7
100
AcDbText
 10
1230.0
 20
2450.0
 30
0.0
 40
100.0
  1
60
 50
90.0
 41
0.5999999999999999
100
AcDbText
  0
LINE
  5
11F
330
20
100
AcDbEntity
  8
_0-0_
  6
Continuous
 62
     4
100
AcDbLine
 10
1110.0
 20
2550.0
 30
0.0
 11
1103.054072893322
 21
2589.392310120488
 31
0.0
  0
LINE
  5
120
330
20
100
AcDbEntity
  8
_0-0_
  6
Continuous
 62
     4
100
AcDbLine
 10
1110.0
 20
2550.0
 30
0.0
 11
1116.945927106677
 21
2589.392310120488
 31
0.0
  0
LINE
  5
121
330
20
100
AcDbEntity
  8
_0-0_
  6
Continuous
 62
     4
100
AcDbLine
 10
1110.0
 20
3090.0
 30
0.0
 11
1103.054072893322
 21
3050.607689879512
 31
0.0
  0
LINE
  5
122
330
20
100
AcDbEntity
  8
_0-0_
  6
Continuous
 62
     4
100
AcDbLine
 10
1110.0
 20
3090.0
 30
0.0
 11
1116.945927106677
 21
3050.607689879512
 31
0.0
  0
LINE
  5
123
330
20
100
AcDbEntity
  8
_0-0_
  6
Continuous
 62
     4
100
AcDbLine
 10
1090.0
 20
2550.0
 30
0.0
 11
1230.0
 21
2550.0
 31
0.0
  0
LINE
  5
124
330
20
100
AcDbEntity
  8
_0-0_
  6
Continuous
 62
     4
100
AcDbLine
 10
1090.0
 20
3090.0
 30
0.0
 11
1230.0
 21
3090.0
 31
0.0
  0
LINE
  5
125
330
20
100
AcDbEntity
  8
_0-0_
  6
Continuous
 62
     4
100
AcDbLine
 10
1110.0
 20
2550.0
 30
0.0
 11
1110.0
 21
3090.0
 31
0.0
  0
TEXT
  5
126
330
20
100
AcDbEntity
  8
_0-0_
 62
     7
100
AcDbText
 10
1110.0
 20
2767.5
 30
0.0
 40
100.0
  1
540
 50
90.0
 41
0.5999999999999999
100
AcDbText
  0
LINE
  5
127
330
20
100
AcDbEntity
  8
_0-0_
  6
Continuous
 62
     4
100
AcDbLine
 10
1430.0
 20
429.0
 30
0.0
 11
1469.392310120488
 21
435.9459271066774
 31
0.0
  0
LINE
  5
128
330
20
100
AcDbEntity
  8
_0-0_
  6
Continuous
 62
     4
100
AcDbLine
 10
1430.0
 20
429.0
 30
0.0
 11
1469.392310120488
 21
422.0540728933228
 31
0.0
  0
LINE
  5
129
330
20
100
AcDbEntity
  8
_0-0_
  6
Continuous
 62
     4
100
AcDbLine
 10
1570.0
 20
429.0
 30
0.0
 11
1530.607689879512
 21
435.9459271066774
 31
0.0
  0
LINE
  5
12A
330
20
100
AcDbEntity
  8
_0-0_
  6
Continuous
 62
     4
100
AcDbLine
 10
1570.0
 20
429.0
 30
0.0
 11
1530.607689879512
 21
422.0540728933228
 31
0.0
  0
LINE
  5
12B
330
20
100
AcDbEntity
  8
_0-0_
  6
Continuous
 62
     4
100
AcDbLine
 10
1430.0
 20
409.0
 30
0.0
 11
1430.0
 21
609.0
 31
0.0
  0
LINE
  5
12C
330
20
100
AcDbEntity
  8
_0-0_
  6
Continuous
 62
     4
100
AcDbLine
 10
1570.0
 20
409.0
 30
0.0
 11
1570.0
 21
609.0
 31
0.0
  0
LINE
  5
12D
330
20
100
AcDbEntity
  8
_0-0_
  6
Continuous
 62
     4
100
AcDbLine
 10
1430.0
 20
429.0
 30
0.0
 11
1570.0
 21
429.0
 31
0.0
  0
TEXT
  5
12E
330
20
100
AcDbEntity
  8
_0-0_
 62
     7
100
AcDbText
 10
1447.5
 20
429.0
 30
0.0
 40
100.0
  1
140
 41
0.5999999999999999
100
AcDbText
  0
LINE
  5
12F
330
20
100
AcDbEntity
  8
_0-0_
  6
Continuous
 62
     4
100
AcDbLine
 10
1570.0
 20
429.0
 30
0.0
 11
1609.392310120488
 21
435.9459271066774
 31
0.0
  0
LINE
  5
130
330
20
100
AcDbEntity
  8
_0-0_
  6
Continuous
 62
     4
100
AcDbLine
 10
1570.0
 20
429.0
 30
0.0
 11
1609.392310120488
 21
422.0540728933228
 31
0.0
  0
LINE
  5
131
330
20
100
AcDbEntity
  8
_0-0_
  6
Continuous
 62
     4
100
AcDbLine
 10
2430.0
 20
429.0
 30
0.0
 11
2390.607689879512
 21
435.9459271066774
 31
0.0
  0
LINE
  5
132
330
20
100
AcDbEntity
  8
_0-0_
  6
Continuous
 62
     4
100
AcDbLine
 10
2430.0
 20
429.0
 30
0.0
 11
2390.607689879512
 21
422.0540728933228
 31
0.0
  0
LINE
  5
133
330
20
100
AcDbEntity
  8
_0-0_
  6
Continuous
 62
     4
100
AcDbLine
 10
2430.0
 20
409.0
 30
0.0
 11
2430.0
 21
609.0
 31
0.0
  0
LINE
  5
134
330
20
100
AcDbEntity
  8
_0-0_
  6
Continuous
 62
     4
100
AcDbLine
 10
1570.0
 20
429.0
 30
0.0
 11
2430.0
 21
429.0
 31
0.0
  0
TEXT
  5
135
330
20
100
AcDbEntity
  8
_0-0_
 62
     7
100
AcDbText
 10
1947.5
 20
429.0
 30
0.0
 40
100.0
  1
860
 41
0.5999999999999999
100
AcDbText
  0
LINE
  5
136
330
20
100
AcDbEntity
  8
_0-0_
  6
Continuous
 62
     4
100
AcDbLine
 10
2430.0
 20
429.0
 30
0.0
 11
2469.392310120488
 21
435.9459271066774
 31
0.0
  0
LINE
  5
137
330
20
100
AcDbEntity
  8
_0-0_
  6
Continuous
 62
     4
100
AcDbLine
 10
2430.0
 20
429.0
 30
0.0
 11
2469.392310120488
 21
422.0540728933228
 31
0.0
  0
LINE
  5
138
330
20
100
AcDbEntity
  8
_0-0_
  6
Continuous
 62
     4
100
AcDbLine
 10
2570.0
 20
429.0
 30
0.0
 11
2530.607689879512
 21
435.9459271066774
 31
0.0
  0
LINE
  5
139
330
20
100
AcDbEntity
  8
_0-0_
  6
Continuous
 62
     4
100
AcDbLine
 10
2570.0
 20
429.0
 30
0.0
 11
2530.607689879512
 21
422.0540728933228
 31
0.0
  0
LINE
  5
13A
330
20
100
AcDbEntity
  8
_0-0_
  6
Continuous
 62
     4
100
AcDbLine
 10
2570.0
 20
409.0
 30
0.0
 11
2570.0
 21
609.0
 31
0.0
  0
LINE
  5
13B
330
20
100
AcDbEntity
  8
_0-0_
  6
Continuous
 62
     4
100
AcDbLine
 10
2430.0
 20
429.0
 30
0.0
 11
2570.0
 21
429.0
 31
0.0
  0
TEXT
  5
13C
330
20
100
AcDbEntity
  8
_0-0_
 62
     7
100
AcDbText
 10
2447.5
 20
429.0
 30
0.0
 40
100.0
  1
140
 41
0.5999999999999999
100
AcDbText
  0
LINE
  5
13D
330
20
100
AcDbEntity
  8
_0-0_
  6
Continuous
 62
     4
100
AcDbLine
 10
1430.0
 20
309.0000000000001
 30
0.0
 11
1469.392310120488
 21
315.9459271066773
 31
0.0
  0
LINE
  5
13E
330
20
100
AcDbEntity
  8
_0-0_
  6
Continuous
 62
     4
100
AcDbLine
 10
1430.0
 20
309.0000000000001
 30
0.0
 11
1469.392310120488
 21
302.0540728933228
 31
0.0
  0
LINE
  5
13F
330
20
100
AcDbEntity
  8
_0-0_
  6
Continuous
 62
     4
100
AcDbLine
 10
2570.0
 20
309.0000000000001
 30
0.0
 11
2530.607689879512
 21
315.9459271066773
 31
0.0
  0
LINE
  5
140
330
20
100
AcDbEntity
  8
_0-0_
  6
Continuous
 62
     4
100
AcDbLine
 10
2570.0
 20
309.0000000000001
 30
0.0
 11
2530.607689879512
 21
302.0540728933228
 31
0.0
  0
LINE
  5
141
330
20
100
AcDbEntity
  8
_0-0_
  6
Continuous
 62
     4
100
AcDbLine
 10
1430.0
 20
289.0
 30
0.0
 11
1430.0
 21
429.0
 31
0.0
  0
LINE
  5
142
330
20
100
AcDbEntity
  8
_0-0_
  6
Continuous
 62
     4
100
AcDbLine
 10
2570.0
 20
289.0
 30
0.0
 11
2570.0
 21
429.0
 31
0.0
  0
LINE
  5
143
330
20
100
AcDbEntity
  8
_0-0_
  6
Continuous
 62
     4
100
AcDbLine
 10
1430.0
 20
309.0000000000001
 30
0.0
 11
2570.0
 21
309.0000000000001
 31
0.0
  0
TEXT
  5
144
330
20
100
AcDbEntity
  8
_0-0_
 62
     7
100
AcDbText
 10
1928.75
 20
309.0000000000001
 30
0.0
 40
100.0
  1
1140
 41
0.5999999999999999
100
AcDbText
  0
LINE
  5
145
330
20
100
AcDbEntity
  8
_0-0_
  6
Continuous
 62
     4
100
AcDbLine
 10
3870.0
 20
429.0
 30
0.0
 11
3909.392310120489
 21
435.9459271066774
 31
0.0
  0
LINE
  5
146
330
20
100
AcDbEntity
  8
_0-0_
  6
Continuous
 62
     4
100
AcDbLine
 10
3870.0
 20
429.0
 30
0.0
 11
3909.392310120489
 21
422.0540728933228
 31
0.0
  0
LINE
  5
147
330
20
100
AcDbEntity
  8
_0-0_
  6
Continuous
 62
     4
100
AcDbLine
 10
4010.0
 20
429.0
 30
0.0
 11
3970.607689879512
 21
435.9459271066774
 31
0.0
  0
LINE
  5
148
330
20
100
AcDbEntity
  8
_0-0_
  6
Continuous
 62
     4
100
AcDbLine
 10
4010.0
 20
429.0
 30
0.0
 11
3970.607689879512
 21
422.0540728933228
 31
0.0
  0
LINE
  5
149
330
20
100
AcDbEntity
  8
_0-0_
  6
Continuous
 62
     4
100
AcDbLine
 10
3870.0
 20
409.0
 30
0.0
 11
3870.0
 21
609.0
 31
0.0
  0
LINE
  5
14A
330
20
100
AcDbEntity
  8
_0-0_
  6
Continuous
 62
     4
100
AcDbLine
 10
4010.0
 20
409.0
 30
0.0
 11
4010.0
 21
609.0
 31
0.0
  0
LINE
  5
14B
330
20
100
AcDbEntity
  8
_0-0_
  6
Continuous
 62
     4
100
AcDbLine
 10
3870.0
 20
429.0
 30
0.0
 11
4010.0
 21
429.0
 31
0.0
  0
TEXT
  5
14C
330
20
100
AcDbEntity
  8
_0-0_
 62
     7
100
AcDbText
 10
3887.5
 20
429.0
 30
0.0
 40
100.0
  1
140
 41
0.5999999999999999
100
AcDbText
  0
LINE
  5
14D
330
20
100
AcDbEntity
  8
_0-0_
  6
Continuous
 62
     4
100
AcDbLine
 10
4010.0
 20
429.0
 30
0.0
 11
4049.392310120488
 21
435.9459271066774
 31
0.0
  0
LINE
  5
14E
330
20
100
AcDbEntity
  8
_0-0_
  6
Continuous
 62
     4
100
AcDbLine
 10
4010.0
 20
429.0
 30
0.0
 11
4049.392310120488
 21
422.0540728933228
 31
0.0
  0
LINE
  5
14F
330
20
100
AcDbEntity
  8
_0-0_
  6
Continuous
 62
     4
100
AcDbLine
 10
4270.0
 20
429.0
 30
0.0
 11
4230.607689879511
 21
435.9459271066774
 31
0.0
  0
LINE
  5
150
330
20
100
AcDbEntity
  8
_0-0_
  6
Continuous
 62
     4
100
AcDbLine
 10
4270.0
 20
429.0
 30
0.0
 11
4230.607689879511
 21
422.0540728933228
 31
0.0
  0
LINE
  5
151
330
20
100
AcDbEntity
  8
_0-0_
  6
Continuous
 62
     4
100
AcDbLine
 10
4270.0
 20
409.0
 30
0.0
 11
4270.0
 21
609.0
 31
0.0
  0
LINE
  5
152
330
20
100
AcDbEntity
  8
_0-0_
  6
Continuous
 62
     4
100
AcDbLine
 10
4010.0
 20
429.0
 30
0.0
 11
4270.0
 21
429.0
 31
0.0
  0
TEXT
  5
153
330
20
100
AcDbEntity
  8
_0-0_
 62
     7
100
AcDbText
 10
4087.5
 20
429.0
 30
0.0
 40
100.0
  1
260
 41
0.5999999999999999
100
AcDbText
  0
LINE
  5
154
330
20
100
AcDbEntity
  8
_0-0_
  6
Continuous
 62
     4
100
AcDbLine
 10
4270.0
 20
429.0
 30
0.0
 11
4309.392310120489
 21
435.9459271066774
 31
0.0
  0
LINE
  5
155
330
20
100
AcDbEntity
  8
_0-0_
  6
Continuous
 62
     4
100
AcDbLine
 10
4270.0
 20
429.0
 30
0.0
 11
4309.392310120489
 21
422.0540728933228
 31
0.0
  0
LINE
  5
156
330
20
100
AcDbEntity
  8
_0-0_
  6
Continuous
 62
     4
100
AcDbLine
 10
4410.0
 20
429.0
 30
0.0
 11
4370.607689879512
 21
435.9459271066774
 31
0.0
  0
LINE
  5
157
330
20
100
AcDbEntity
  8
_0-0_
  6
Continuous
 62
     4
100
AcDbLine
 10
4410.0
 20
429.0
 30
0.0
 11
4370.607689879512
 21
422.0540728933228
 31
0.0
  0
LINE
  5
158
330
20
100
AcDbEntity
  8
_0-0_
  6
Continuous
 62
     4
100
AcDbLine
 10
4410.0
 20
409.0
 30
0.0
 11
4410.0
 21
609.0
 31
0.0
  0
LINE
  5
159
330
20
100
AcDbEntity
  8
_0-0_
  6
Continuous
 62
     4
100
AcDbLine
 10
4270.0
 20
429.0
 30
0.0
 11
4410.0
 21
429.0
 31
0.0
  0
TEXT
  5
15A
330
20
100
AcDbEntity
  8
_0-0_
 62
     7
100
AcDbText
 10
4287.5
 20
429.0
 30
0.0
 40
100.0
  1
140
 41
0.5999999999999999
100
AcDbText
  0
LINE
  5
15B
330
20
100
AcDbEntity
  8
_0-0_
  6
Continuous
 62
     4
100
AcDbLine
 10
3870.0
 20
309.0000000000001
 30
0.0
 11
3909.392310120489
 21
315.9459271066773
 31
0.0
  0
LINE
  5
15C
330
20
100
AcDbEntity
  8
_0-0_
  6
Continuous
 62
     4
100
AcDbLine
 10
3870.0
 20
309.0000000000001
 30
0.0
 11
3909.392310120489
 21
302.0540728933228
 31
0.0
  0
LINE
  5
15D
330
20
100
AcDbEntity
  8
_0-0_
  6
Continuous
 62
     4
100
AcDbLine
 10
4410.0
 20
309.0000000000001
 30
0.0
 11
4370.607689879512
 21
315.9459271066773
 31
0.0
  0
LINE
  5
15E
330
20
100
AcDbEntity
  8
_0-0_
  6
Continuous
 62
     4
100
AcDbLine
 10
4410.0
 20
309.0000000000001
 30
0.0
 11
4370.607689879512
 21
302.0540728933228
 31
0.0
  0
LINE
  5
15F
330
20
100
AcDbEntity
  8
_0-0_
  6
Continuous
 62
     4
100
AcDbLine
 10
3870.0
 20
289.0
 30
0.0
 11
3870.0
 21
429.0
 31
0.0
  0
LINE
  5
160
330
20
100
AcDbEntity
  8
_0-0_
  6
Continuous
 62
     4
100
AcDbLine
 10
4410.0
 20
289.0
 30
0.0
 11
4410.0
 21
429.0
 31
0.0
  0
LINE
  5
161
330
20
100
AcDbEntity
  8
_0-0_
  6
Continuous
 62
     4
100
AcDbLine
 10
3870.0
 20
309.0000000000001
 30
0.0
 11
4410.0
 21
309.0000000000001
 31
0.0
  0
TEXT
  5
162
330
20
100
AcDbEntity
  8
_0-0_
 62
     7
100
AcDbText
 10
4087.5
 20
309.0000000000001
 30
0.0
 40
100.0
  1
540
 41
0.5999999999999999
100
AcDbText
  0
LINE
  5
163
330
20
100
AcDbEntity
  8
_0-0_
  6
Continuous
 62
     4
100
AcDbLine
 10
1430.0
 20
1900.0
 30
0.0
 11
1469.392310120488
 21
1906.945927106677
 31
0.0
  0
LINE
  5
164
330
20
100
AcDbEntity
  8
_0-0_
  6
Continuous
 62
     4
100
AcDbLine
 10
1430.0
 20
1900.0
 30
0.0
 11
1469.392310120488
 21
1893.054072893322
 31
0.0
  0
LINE
  5
165
330
20
100
AcDbEntity
  8
_0-0_
  6
Continuous
 62
     4
100
AcDbLine
 10
1550.0
 20
1900.0
 30
0.0
 11
1510.607689879512
 21
1906.945927106677
 31
0.0
  0
LINE
  5
166
330
20
100
AcDbEntity
  8
_0-0_
  6
Continuous
 62
     4
100
AcDbLine
 10
1550.0
 20
1900.0
 30
0.0
 11
1510.607689879512
 21
1893.054072893322
 31
0.0
  0
LINE
  5
167
330
20
100
AcDbEntity
  8
_0-0_
  6
Continuous
 62
     4
100
AcDbLine
 10
1430.0
 20
1920.0
 30
0.0
 11
1430.0
 21
1720.0
 31
0.0
  0
LINE
  5
168
330
20
100
AcDbEntity
  8
_0-0_
  6
Continuous
 62
     4
100
AcDbLine
 10
1550.0
 20
1920.0
 30
0.0
 11
1550.0
 21
1720.0
 31
0.0
  0
LINE
  5
169
330
20
100
AcDbEntity
  8
_0-0_
  6
Continuous
 62
     4
100
AcDbLine
 10
1430.0
 20
1900.0
 30
0.0
 11
1550.0
 21
1900.0
 31
0.0
  0
TEXT
  5
16A
330
20
100
AcDbEntity
  8
_0-0_
 62
     7
100
AcDbText
 10
1437.5
 20
1900.0
 30
0.0
 40
100.0
  1
120
 41
0.5999999999999999
100
AcDbText
  0
LINE
  5
16B
330
20
100
AcDbEntity
  8
_0-0_
  6
Continuous
 62
     4
100
AcDbLine
 10
1550.0
 20
1900.0
 30
0.0
 11
1589.392310120488
 21
1906.945927106677
 31
0.0
  0
LINE
  5
16C
330
20
100
AcDbEntity
  8
_0-0_
  6
Continuous
 62
     4
100
AcDbLine
 10
1550.0
 20
1900.0
 30
0.0
 11
1589.392310120488
 21
1893.054072893322
 31
0.0
  0
LINE
  5
16D
330
20
100
AcDbEntity
  8
_0-0_
  6
Continuous
 62
     4
100
AcDbLine
 10
2450.0
 20
1900.0
 30
0.0
 11
2410.607689879512
 21
1906.945927106677
 31
0.0
  0
LINE
  5
16E
330
20
100
AcDbEntity
  8
_0-0_
  6
Continuous
 62
     4
100
AcDbLine
 10
2450.0
 20
1900.0
 30
0.0
 11
2410.607689879512
 21
1893.054072893322
 31
0.0
  0
LINE
  5
16F
330
20
100
AcDbEntity
  8
_0-0_
  6
Continuous
 62
     4
100
AcDbLine
 10
2450.0
 20
1920.0
 30
0.0
 11
2450.0
 21
1720.0
 31
0.0
  0
LINE
  5
170
330
20
100
AcDbEntity
  8
_0-0_
  6
Continuous
 62
     4
100
AcDbLine
 10
1550.0
 20
1900.0
 30
0.0
 11
2450.0
 21
1900.0
 31
0.0
  0
TEXT
  5
171
330
20
100
AcDbEntity
  8
_0-0_
 62
     7
100
AcDbText
 10
1947.5
 20
1900.0
 30
0.0
 40
100.0
  1
900
 41
0.5999999999999999
100
AcDbText
  0
LINE
  5
172
330
20
100
AcDbEntity
  8
_0-0_
  6
Continuous
 62
     4
100
AcDbLine
 10
2450.0
 20
1900.0
 30
0.0
 11
2489.392310120488
 21
1906.945927106677
 31
0.0
  0
LINE
  5
173
330
20
100
AcDbEntity
  8
_0-0_
  6
Continuous
 62
     4
100
AcDbLine
 10
2450.0
 20
1900.0
 30
0.0
 11
2489.392310120488
 21
1893.054072893322
 31
0.0
  0
LINE
  5
174
330
20
100
AcDbEntity
  8
_0-0_
  6
Continuous
 62
     4
100
AcDbLine
 10
2570.0
 20
1900.0
 30
0.0
 11
2530.607689879512
 21
1906.945927106677
 31
0.0
  0
LINE
  5
175
330
20
100
AcDbEntity
  8
_0-0_
  6
Continuous
 62
     4
100
AcDbLine
 10
2570.0
 20
1900.0
 30
0.0
 11
2530.607689879512
 21
1893.054072893322
 31
0.0
  0
LINE
  5
176
330
20
100
AcDbEntity
  8
_0-0_
  6
Continuous
 62
     4
100
AcDbLine
 10
2570.0
 20
1920.0
 30
0.0
 11
2570.0
 21
1720.0
 31
0.0
  0
LINE
  5
177
330
20
100
AcDbEntity
  8
_0-0_
  6
Continuous
 62
     4
100
AcDbLine
 10
2450.0
 20
1900.0
 30
0.0
 11
2570.0
 21
1900.0
 31
0.0
  0
TEXT
  5
178
330
20
100
AcDbEntity
  8
_0-0_
 62
     7
100
AcDbText
 10
2457.5
 20
1900.0
 30
0.0
 40
100.0
  1
120
 41
0.5999999999999999
100
AcDbText
  0
LINE
  5
179
330
20
100
AcDbEntity
  8
_0-0_
  6
CENTER1
 62
     4
100
AcDbLine
 10
2000.0
 20
2210.0
 30
0.0
 11
2000.0
 21
2350.0
 31
0.0
  0
LINE
  5
17A
330
20
100
AcDbEntity
  8
_0-0_
  6
Continuous
 62
     4
100
AcDbLine
 10
1230.0
 20
629.0
 30
0.0
 11
1223.054072893323
 21
668.392310120488
 31
0.0
  0
LINE
  5
17B
330
20
100
AcDbEntity
  8
_0-0_
  6
Continuous
 62
     4
100
AcDbLine
 10
1230.0
 20
629.0
 30
0.0
 11
1236.945927106677
 21
668.392310120488
 31
0.0
  0
LINE
  5
17C
330
20
100
AcDbEntity
  8
_0-0_
  6
Continuous
 62
     4
100
AcDbLine
 10
1230.0
 20
749.0
 30
0.0
 11
1223.054072893323
 21
709.6076898795116
 31
0.0
  0
LINE
  5
17D
330
20
100
AcDbEntity
  8
_0-0_
  6
Continuous
 62
     4
100
AcDbLine
 10
1230.0
 20
749.0
 30
0.0
 11
1236.945927106677
 21
709.6076898795116
 31
0.0
  0
LINE
  5
17E
330
20
100
AcDbEntity
  8
_0-0_
  6
Continuous
 62
     4
100
AcDbLine
 10
1210.0
 20
629.0
 30
0.0
 11
1410.0
 21
629.0
 31
0.0
  0
LINE
  5
17F
330
20
100
AcDbEntity
  8
_0-0_
  6
Continuous
 62
     4
100
AcDbLine
 10
1210.0
 20
749.0
 30
0.0
 11
1410.0
 21
749.0
 31
0.0
  0
LINE
  5
180
330
20
100
AcDbEntity
  8
_0-0_
  6
Continuous
 62
     4
100
AcDbLine
 10
1230.0
 20
629.0
 30
0.0
 11
1230.0
 21
749.0
 31
0.0
  0
TEXT
  5
181
330
20
100
AcDbEntity
  8
_0-0_
 62
     7
100
AcDbText
 10
1230.0
 20
636.5
 30
0.0
 40
100.0
  1
120
 50
90.0
 41
0.5999999999999999
100
AcDbText
  0
LINE
  5
182
330
20
100
AcDbEntity
  8
_0-0_
  6
Continuous
 62
     4
100
AcDbLine
 10
1230.0
 20
749.0
 30
0.0
 11
1223.054072893323
 21
788.3923101204881
 31
0.0
  0
LINE
  5
183
330
20
100
AcDbEntity
  8
_0-0_
  6
Continuous
 62
     4
100
AcDbLine
 10
1230.0
 20
749.0
 30
0.0
 11
1236.945927106677
 21
788.3923101204881
 31
0.0
  0
LINE
  5
184
330
20
100
AcDbEntity
  8
_0-0_
  6
Continuous
 62
     4
100
AcDbLine
 10
1230.0
 20
1615.0
 30
0.0
 11
1223.054072893323
 21
1575.607689879512
 31
0.0
  0
LINE
  5
185
330
20
100
AcDbEntity
  8
_0-0_
  6
Continuous
 62
     4
100
AcDbLine
 10
1230.0
 20
1615.0
 30
0.0
 11
1236.945927106677
 21
1575.607689879512
 31
0.0
  0
LINE
  5
186
330
20
100
AcDbEntity
  8
_0-0_
  6
Continuous
 62
     4
100
AcDbLine
 10
1210.0
 20
749.0
 30
0.0
 11
1410.0
 21
749.0
 31
0.0
  0
LINE
  5
187
330
20
100
AcDbEntity
  8
_0-0_
  6
Continuous
 62
     4
100
AcDbLine
 10
1210.0
 20
1615.0
 30
0.0
 11
1410.0
 21
1615.0
 31
0.0
  0
LINE
  5
188
330
20
100
AcDbEntity
  8
_0-0_
  6
Continuous
 62
     4
100
AcDbLine
 10
1230.0
 20
749.0
 30
0.0
 11
1230.0
 21
1615.0
 31
0.0
  0
TEXT
  5
189
330
20
100
AcDbEntity
  8
_0-0_
 62
     7
100
AcDbText
 10
1230.0
 20
1129.5
 30
0.0
 40
100.0
  1
866
 50
90.0
 41
0.5999999999999999
100
AcDbText
  0
LINE
  5
18A
330
20
100
AcDbEntity
  8
_0-0_
  6
Continuous
 62
     4
100
AcDbLine
 10
1110.0
 20
629.0000152587889
 30
0.0
 11
1103.054072893322
 21
668.3923253792772
 31
0.0
  0
LINE
  5
18B
330
20
100
AcDbEntity
  8
_0-0_
  6
Continuous
 62
     4
100
AcDbLine
 10
1110.0
 20
629.0000152587889
 30
0.0
 11
1116.945927106677
 21
668.3923253792772
 31
0.0
  0
LINE
  5
18C
330
20
100
AcDbEntity
  8
_0-0_
  6
Continuous
 62
     4
100
AcDbLine
 10
1110.0
 20
1615.0
 30
0.0
 11
1103.054072893322
 21
1575.607689879512
 31
0.0
  0
LINE
  5
18D
330
20
100
AcDbEntity
  8
_0-0_
  6
Continuous
 62
     4
100
AcDbLine
 10
1110.0
 20
1615.0
 30
0.0
 11
1116.945927106677
 21
1575.607689879512
 31
0.0
  0
LINE
  5
18E
330
20
100
AcDbEntity
  8
_0-0_
  6
Continuous
 62
     4
100
AcDbLine
 10
1090.0
 20
629.0000152587889
 30
0.0
 11
1230.0
 21
629.0000152587889
 31
0.0
  0
LINE
  5
18F
330
20
100
AcDbEntity
  8
_0-0_
  6
Continuous
 62
     4
100
AcDbLine
 10
1090.0
 20
1615.0
 30
0.0
 11
1230.0
 21
1615.0
 31
0.0
  0
LINE
  5
190
330
20
100
AcDbEntity
  8
_0-0_
  6
Continuous
 62
     4
100
AcDbLine
 10
1110.0
 20
629.0000152587889
 30
0.0
 11
1110.0
 21
1615.0
 31
0.0
  0
TEXT
  5
191
330
20
100
AcDbEntity
  8
_0-0_
 62
     7
100
AcDbText
 10
1110.0
 20
1069.500007629394
 30
0.0
 40
100.0
  1
986
 50
90.0
 41
0.5999999999999999
100
AcDbText
  0
LINE
  5
192
330
20
100
AcDbEntity
  8
_0-0_
  6
Continuous
 62
     4
100
AcDbLine
 10
1110.0
 20
1615.0
 30
0.0
 11
1110.0
 21
1515.0
 31
0.0
  0
LINE
  5
193
330
20
100
AcDbEntity
  8
_0-0_
  6
Continuous
 62
     4
100
AcDbLine
 10
1110.0
 20
1674.0
 30
0.0
 11
1110.0
 21
1774.0
 31
0.0
  0
LINE
  5
194
330
20
100
AcDbEntity
  8
_0-0_
  6
Continuous
 62
     4
100
AcDbLine
 10
1110.0
 20
1615.0
 30
0.0
 11
1116.945927106677
 21
1575.607689879512
 31
0.0
  0
LINE
  5
195
330
20
100
AcDbEntity
  8
_0-0_
  6
Continuous
 62
     4
100
AcDbLine
 10
1110.0
 20
1615.0
 30
0.0
 11
1103.054072893322
 21
1575.607689879512
 31
0.0
  0
LINE
  5
196
330
20
100
AcDbEntity
  8
_0-0_
  6
Continuous
 62
     4
100
AcDbLine
 10
1110.0
 20
1674.0
 30
0.0
 11
1116.945927106677
 21
1713.392310120488
 31
0.0
  0
LINE
  5
197
330
20
100
AcDbEntity
  8
_0-0_
  6
Continuous
 62
     4
100
AcDbLine
 10
1110.0
 20
1674.0
 30
0.0
 11
1103.054072893322
 21
1713.392310120488
 31
0.0
  0
LINE
  5
198
330
20
100
AcDbEntity
  8
_0-0_
  6
Continuous
 62
     4
100
AcDbLine
 10
1090.0
 20
1615.0
 30
0.0
 11
1230.0
 21
1615.0
 31
0.0
  0
LINE
  5
199
330
20
100
AcDbEntity
  8
_0-0_
  6
Continuous
 62
     4
100
AcDbLine
 10
1090.0
 20
1674.0
 30
0.0
 11
1230.0
 21
1674.0
 31
0.0
  0
LINE
  5
19A
330
20
100
AcDbEntity
  8
_0-0_
  6
Continuous
 62
     4
100
AcDbLine
 10
1110.0
 20
1615.0
 30
0.0
 11
1110.0
 21
1674.0
 31
0.0
  0
TEXT
  5
19B
330
20
100
AcDbEntity
  8
_0-0_
 62
     7
100
AcDbText
 10
1110.0
 20
1706.5
 30
0.0
 40
100.0
  1
59
 50
90.0
 41
0.5999999999999999
100
AcDbText
  0
LINE
  5
19C
330
20
100
AcDbEntity
  8
_0-0_
  6
Continuous
 62
     4
100
AcDbLine
 10
990.0
 20
629.0
 30
0.0
 11
983.0540728933224
 21
668.392310120488
 31
0.0
  0
LINE
  5
19D
330
20
100
AcDbEntity
  8
_0-0_
  6
Continuous
 62
     4
100
AcDbLine
 10
990.0
 20
629.0
 30
0.0
 11
996.9459271066771
 21
668.392310120488
 31
0.0
  0
LINE
  5
19E
330
20
100
AcDbEntity
  8
_0-0_
  6
Continuous
 62
     4
100
AcDbLine
 10
990.0
 20
1674.0
 30
0.0
 11
983.0540728933224
 21
1634.607689879511
 31
0.0
  0
LINE
  5
19F
330
20
100
AcDbEntity
  8
_0-0_
  6
Continuous
 62
     4
100
AcDbLine
 10
990.0
 20
1674.0
 30
0.0
 11
996.9459271066771
 21
1634.607689879511
 31
0.0
  0
LINE
  5
1A0
330
20
100
AcDbEntity
  8
_0-0_
  6
Continuous
 62
     4
100
AcDbLine
 10
970.0
 20
629.0
 30
0.0
 11
1110.0
 21
629.0
 31
0.0
  0
LINE
  5
1A1
330
20
100
AcDbEntity
  8
_0-0_
  6
Continuous
 62
     4
100
AcDbLine
 10
970.0
 20
1674.0
 30
0.0
 11
1110.0
 21
1674.0
 31
0.0
  0
LINE
  5
1A2
330
20
100
AcDbEntity
  8
_0-0_
  6
Continuous
 62
     4
100
AcDbLine
 10
990.0
 20
629.0
 30
0.0
 11
990.0
 21
1674.0
 31
0.0
  0
TEXT
  5
1A3
330
20
100
AcDbEntity
  8
_0-0_
 62
     7
100
AcDbText
 10
990.0
 20
1080.25
 30
0.0
 40
100.0
  1
1045
 50
90.0
 41
0.5999999999999999
100
AcDbText
  0
LINE
  5
1A4
330
20
100
AcDbEntity
  8
_0-0_
  6
Continuous
 62
     4
100
AcDbLine
 10
1230.0
 20
1674.0
 30
0.0
 11
1410.0
 21
1674.0
 31
0.0
  0
LINE
  5
1A5
330
20
100
AcDbEntity
  8
_0-0_
  6
Continuous
 62
     4
100
AcDbLine
 10
2770.0
 20
629.0
 30
0.0
 11
2763.054072893323
 21
668.392310120488
 31
0.0
  0
LINE
  5
1A6
330
20
100
AcDbEntity
  8
_0-0_
  6
Continuous
 62
     4
100
AcDbLine
 10
2770.0
 20
629.0
 30
0.0
 11
2776.945927106677
 21
668.392310120488
 31
0.0
  0
LINE
  5
1A7
330
20
100
AcDbEntity
  8
_0-0_
  6
Continuous
 62
     4
100
AcDbLine
 10
2770.0
 20
1064.0
 30
0.0
 11
2763.054072893323
 21
1024.607689879512
 31
0.0
  0
LINE
  5
1A8
330
20
100
AcDbEntity
  8
_0-0_
  6
Continuous
 62
     4
100
AcDbLine
 10
2770.0
 20
1064.0
 30
0.0
 11
2776.945927106677
 21
1024.607689879512
 31
0.0
  0
LINE
  5
1A9
330
20
100
AcDbEntity
  8
_0-0_
  6
Continuous
 62
     4
100
AcDbLine
 10
2790.0
 20
629.0
 30
0.0
 11
2590.0
 21
629.0
 31
0.0
  0
LINE
  5
1AA
330
20
100
AcDbEntity
  8
_0-0_
  6
Continuous
 62
     4
100
AcDbLine
 10
2770.0
 20
629.0
 30
0.0
 11
2770.0
 21
1064.0
 31
0.0
  0
TEXT
  5
1AB
330
20
100
AcDbEntity
  8
_0-0_
 62
     7
100
AcDbText
 10
2770.0
 20
794.0
 30
0.0
 40
100.0
  1
435
 50
90.0
 41
0.5999999999999999
100
AcDbText
  0
LINE
  5
1AC
330
20
100
AcDbEntity
  8
_0-0_
  6
Continuous
 62
     4
100
AcDbLine
 10
2770.0
 20
1615.0
 30
0.0
 11
2763.054072893323
 21
1654.392310120488
 31
0.0
  0
LINE
  5
1AD
330
20
100
AcDbEntity
  8
_0-0_
  6
Continuous
 62
     4
100
AcDbLine
 10
2770.0
 20
1615.0
 30
0.0
 11
2776.945927106677
 21
1654.392310120488
 31
0.0
  0
LINE
  5
1AE
330
20
100
AcDbEntity
  8
_0-0_
  6
Continuous
 62
     4
100
AcDbLine
 10
2770.0
 20
1700.0
 30
0.0
 11
2763.054072893323
 21
1660.607689879511
 31
0.0
  0
LINE
  5
1AF
330
20
100
AcDbEntity
  8
_0-0_
  6
Continuous
 62
     4
100
AcDbLine
 10
2770.0
 20
1700.0
 30
0.0
 11
2776.945927106677
 21
1660.607689879511
 31
0.0
  0
LINE
  5
1B0
330
20
100
AcDbEntity
  8
_0-0_
  6
Continuous
 62
     4
100
AcDbLine
 10
2790.0
 20
1615.0
 30
0.0
 11
2590.0
 21
1615.0
 31
0.0
  0
LINE
  5
1B1
330
20
100
AcDbEntity
  8
_0-0_
  6
Continuous
 62
     4
100
AcDbLine
 10
2790.0
 20
1700.0
 30
0.0
 11
2590.0
 21
1700.0
 31
0.0
  0
LINE
  5
1B2
330
20
100
AcDbEntity
  8
_0-0_
  6
Continuous
 62
     4
100
AcDbLine
 10
2770.0
 20
1615.0
 30
0.0
 11
2770.0
 21
1700.0
 31
0.0
  0
TEXT
  5
1B3
330
20
100
AcDbEntity
  8
_0-0_
 62
     7
100
AcDbText
 10
2770.0
 20
1623.75
 30
0.0
 40
100.0
  1
85
 50
90.0
 41
0.5999999999999999
100
AcDbText
  0
LINE
  5
1B4
330
20
100
AcDbEntity
  8
_0-0_
  6
Continuous
 62
     4
100
AcDbLine
 10
2890.0
 20
629.0
 30
0.0
 11
2883.054072893323
 21
668.392310120488
 31
0.0
  0
LINE
  5
1B5
330
20
100
AcDbEntity
  8
_0-0_
  6
Continuous
 62
     4
100
AcDbLine
 10
2890.0
 20
629.0
 30
0.0
 11
2896.945927106677
 21
668.392310120488
 31
0.0
  0
LINE
  5
1B6
330
20
100
AcDbEntity
  8
_0-0_
  6
Continuous
 62
     4
100
AcDbLine
 10
2890.0
 20
1700.0
 30
0.0
 11
2883.054072893323
 21
1660.607689879511
 31
0.0
  0
LINE
  5
1B7
330
20
100
AcDbEntity
  8
_0-0_
  6
Continuous
 62
     4
100
AcDbLine
 10
2890.0
 20
1700.0
 30
0.0
 11
2896.945927106677
 21
1660.607689879511
 31
0.0
  0
LINE
  5
1B8
330
20
100
AcDbEntity
  8
_0-0_
  6
Continuous
 62
     4
100
AcDbLine
 10
2910.0
 20
629.0
 30
0.0
 11
2770.0
 21
629.0
 31
0.0
  0
LINE
  5
1B9
330
20
100
AcDbEntity
  8
_0-0_
  6
Continuous
 62
     4
100
AcDbLine
 10
2910.0
 20
1700.0
 30
0.0
 11
2770.0
 21
1700.0
 31
0.0
  0
LINE
  5
1BA
330
20
100
AcDbEntity
  8
_0-0_
  6
Continuous
 62
     4
100
AcDbLine
 10
2890.0
 20
629.0
 30
0.0
 11
2890.0
 21
1700.0
 31
0.0
  0
TEXT
  5
1BB
330
20
100
AcDbEntity
  8
_0-0_
 62
     7
100
AcDbText
 10
2890.0
 20
1093.25
 30
0.0
 40
100.0
  1
1071
 50
90.0
 41
0.5999999999999999
100
AcDbText
  0
LINE
  5
1BC
330
20
100
AcDbEntity
  8
_0-0_
  6
Continuous
 62
     4
100
AcDbLine
 10
1858.57864376269
 20
922.5786437626904
 30
0.0
 11
1881.521701216732
 21
955.3447255342502
 31
0.0
  0
LINE
  5
1BD
330
20
100
AcDbEntity
  8
_0-0_
  6
Continuous
 62
     4
100
AcDbLine
 10
1858.57864376269
 20
922.5786437626904
 30
0.0
 11
1891.34472553425
 21
945.5217012167324
 31
0.0
  0
LINE
  5
1BE
330
20
100
AcDbEntity
  8
_0-0_
  6
Continuous
 62
     4
100
AcDbLine
 10
2141.421356201172
 20
1205.421356201172
 30
0.0
 11
2108.655274429612
 21
1182.47829874713
 31
0.0
  0
LINE
  5
1BF
330
20
100
AcDbEntity
  8
_0-0_
  6
Continuous
 62
     4
100
AcDbLine
 10
2141.421356201172
 20
1205.421356201172
 30
0.0
 11
2118.478298747129
 21
1172.655274429612
 31
0.0
  0
LINE
  5
1C0
330
20
100
AcDbEntity
  8
_0-0_
  6
Continuous
 62
     4
100
AcDbLine
 10
1858.57864376269
 20
922.5786437626904
 30
0.0
 11
2141.421356201172
 21
1205.421356201172
 31
0.0
  0
TEXT
  5
1C1
330
20
100
AcDbEntity
  8
_0-0_
 62
     7
100
AcDbText
 10
1936.360389675142
 20
1000.360389675142
 30
0.0
 40
100.0
  1
φ400
 50
45.0
 41
0.5999999999999999
100
AcDbText
  0
LINE
  5
1C2
330
20
100
AcDbEntity
  8
_0-0_
  6
CENTER1
 62
     4
100
AcDbLine
 10
2000.0
 20
1064.0
 30
0.0
 11
2590.0
 21
1064.0
 31
0.0
  0
LINE
  5
1C3
330
20
100
AcDbEntity
  8
_0-0_
  6
CENTER1
 62
     4
100
AcDbLine
 10
2790.0
 20
1064.0
 30
0.0
 11
2590.0
 21
1064.0
 31
0.0
  0
LINE
  5
1C4
330
20
100
AcDbEntity
  8
_0-0_
  6
Continuous
 62
     4
100
AcDbLine
 10
1800.0
 20
3290.0
 30
0.0
 11
2200.0
 21
3290.0
 31
0.0
  0
TEXT
  5
1C5
330
20
100
AcDbEntity
  8
_0-0_
 62
     7
100
AcDbText
 10
1910.0
 20
3290.0
 30
0.0
 40
100.0
  1
φ400
 41
0.5999999999999999
100
AcDbText
  0
LINE
  5
1C6
330
20
100
AcDbEntity
  8
_0-0_
  6
Continuous
 62
     4
100
AcDbLine
 10
1800.0
 20
2350.0
 30
0.0
 11
2200.0
 21
2350.0
 31
0.0
  0
TEXT
  5
1C7
330
20
100
AcDbEntity
  8
_0-0_
 62
     7
100
AcDbText
 10
1910.0
 20
2350.0
 30
0.0
 40
100.0
  1
φ400
 41
0.5999999999999999
100
AcDbText
  0
LINE
  5
1C8
330
20
100
AcDbEntity
  8
_0-0_
  6
Continuous
 62
     4
100
AcDbLine
 10
3870.0
 20
714.0
 30
0.0
 11
3770.0
 21
714.0
 31
0.0
  0
LINE
  5
1C9
330
20
100
AcDbEntity
  8
_0-0_
  6
Continuous
 62
     4
100
AcDbLine
 10
3950.0
 20
714.0
 30
0.0
 11
4050.0
 21
714.0
 31
0.0
  0
LINE
  5
1CA
330
20
100
AcDbEntity
  8
_0-0_
  6
Continuous
 62
     4
100
AcDbLine
 10
3870.0
 20
714.0
 30
0.0
 11
3830.607689879512
 21
707.0540728933226
 31
0.0
  0
LINE
  5
1CB
330
20
100
AcDbEntity
  8
_0-0_
  6
Continuous
 62
     4
100
AcDbLine
 10
3870.0
 20
714.0
 30
0.0
 11
3830.607689879512
 21
720.9459271066772
 31
0.0
  0
LINE
  5
1CC
330
20
100
AcDbEntity
  8
_0-0_
  6
Continuous
 62
     4
100
AcDbLine
 10
3950.0
 20
714.0
 30
0.0
 11
3989.392310120488
 21
707.0540728933226
 31
0.0
  0
LINE
  5
1CD
330
20
100
AcDbEntity
  8
_0-0_
  6
Continuous
 62
     4
100
AcDbLine
 10
3950.0
 20
714.0
 30
0.0
 11
3989.392310120488
 21
720.9459271066772
 31
0.0
  0
LINE
  5
1CE
330
20
100
AcDbEntity
  8
_0-0_
  6
Continuous
 62
     4
100
AcDbLine
 10
3870.0
 20
694.0
 30
0.0
 11
3870.0
 21
844.0
 31
0.0
  0
LINE
  5
1CF
330
20
100
AcDbEntity
  8
_0-0_
  6
Continuous
 62
     4
100
AcDbLine
 10
3950.0
 20
694.0
 30
0.0
 11
3950.0
 21
844.0
 31
0.0
  0
LINE
  5
1D0
330
20
100
AcDbEntity
  8
_0-0_
  6
Continuous
 62
     4
100
AcDbLine
 10
3870.0
 20
714.0
 30
0.0
 11
3950.0
 21
714.0
 31
0.0
  0
TEXT
  5
1D1
330
20
100
AcDbEntity
  8
_0-0_
 62
     7
100
AcDbText
 10
3876.25
 20
714.0
 30
0.0
 40
100.0
  1
80
 41
0.5999999999999999
100
AcDbText
  0
LINE
  5
1D2
330
20
100
AcDbEntity
  8
_0-0_
  6
Continuous
 62
     4
100
AcDbLine
 10
4330.0
 20
714.0
 30
0.0
 11
4230.0
 21
714.0
 31
0.0
  0
LINE
  5
1D3
330
20
100
AcDbEntity
  8
_0-0_
  6
Continuous
 62
     4
100
AcDbLine
 10
4410.0
 20
714.0
 30
0.0
 11
4510.0
 21
714.0
 31
0.0
  0
LINE
  5
1D4
330
20
100
AcDbEntity
  8
_0-0_
  6
Continuous
 62
     4
100
AcDbLine
 10
4330.0
 20
714.0
 30
0.0
 11
4290.607689879512
 21
707.0540728933226
 31
0.0
  0
LINE
  5
1D5
330
20
100
AcDbEntity
  8
_0-0_
  6
Continuous
 62
     4
100
AcDbLine
 10
4330.0
 20
714.0
 30
0.0
 11
4290.607689879512
 21
720.9459271066772
 31
0.0
  0
LINE
  5
1D6
330
20
100
AcDbEntity
  8
_0-0_
  6
Continuous
 62
     4
100
AcDbLine
 10
4410.0
 20
714.0
 30
0.0
 11
4449.392310120488
 21
707.0540728933226
 31
0.0
  0
LINE
  5
1D7
330
20
100
AcDbEntity
  8
_0-0_
  6
Continuous
 62
     4
100
AcDbLine
 10
4410.0
 20
714.0
 30
0.0
 11
4449.392310120488
 21
720.9459271066772
 31
0.0
  0
LINE
  5
1D8
330
20
100
AcDbEntity
  8
_0-0_
  6
Continuous
 62
     4
100
AcDbLine
 10
4330.0
 20
694.0
 30
0.0
 11
4330.0
 21
844.0
 31
0.0
  0
LINE
  5
1D9
330
20
100
AcDbEntity
  8
_0-0_
  6
Continuous
 62
     4
100
AcDbLine
 10
4410.0
 20
694.0
 30
0.0
 11
4410.0
 21
844.0
 31
0.0
  0
LINE
  5
1DA
330
20
100
AcDbEntity
  8
_0-0_
  6
Continuous
 62
     4
100
AcDbLine
 10
4330.0
 20
714.0
 30
0.0
 11
4410.0
 21
714.0
 31
0.0
  0
TEXT
  5
1DB
330
20
100
AcDbEntity
  8
_0-0_
 62
     7
100
AcDbText
 10
4336.25
 20
714.0
 30
0.0
 40
100.0
  1
80
 41
0.5999999999999999
100
AcDbText
  0
LINE
  5
1DC
330
20
100
AcDbEntity
  8
_0-0_
  6
CENTER1
 62
     4
100
AcDbLine
 10
2000.0
 20
3170.0
 30
0.0
 11
2000.0
 21
2930.0
 31
0.0
  0
LINE
  5
1DD
330
20
100
AcDbEntity
  8
_0-0_
  6
CENTER1
 62
     4
100
AcDbLine
 10
2000.0
 20
2710.0
 30
0.0
 11
2000.0
 21
2470.0
 31
0.0
  0
LINE
  5
1DE
330
20
100
AcDbEntity
  8
_0-0_
  6
CENTER1
 62
     4
100
AcDbLine
 10
3790.0
 20
1064.0
 30
0.0
 11
4030.0
 21
1064.0
 31
0.0
  0
LINE
  5
1DF
330
20
100
AcDbEntity
  8
_0-0_
  6
CENTER1
 62
     4
100
AcDbLine
 10
4250.0
 20
1064.0
 30
0.0
 11
4490.0
 21
1064.0
 31
0.0
  0
LINE
  5
1E0
330
20
100
AcDbEntity
  8
_0-0_
  6
CENTER1
 62
     4
100
AcDbLine
 10
1708.0
 20
1064.0
 30
0.0
 11
1895.717206381658
 21
1064.0
 31
0.0
  0
LINE
  5
1E1
330
20
100
AcDbEntity
  8
_0-0_
  6
CENTER1
 62
     4
100
AcDbLine
 10
2000.0
 20
1356.0
 30
0.0
 11
2000.0
 21
1193.389069402358
 31
0.0
  0
LINE
  5
1E2
330
20
100
AcDbEntity
  8
_0-0_
  6
CENTER1
 62
     4
100
AcDbLine
 10
2000.0
 20
1064.0
 30
0.0
 11
2000.0
 21
772.0
 31
0.0
  0
LINE
  5
1E3
330
20
100
AcDbEntity
  8
_0-0_
  6
Continuous
 62
     4
100
AcDbLine
 10
3670.0
 20
864.0
 30
0.0
 11
3663.054072893323
 21
903.3923101204884
 31
0.0
  0
LINE
  5
1E4
330
20
100
AcDbEntity
  8
_0-0_
  6
Continuous
 62
     4
100
AcDbLine
 10
3670.0
 20
864.0
 30
0.0
 11
3676.945927106678
 21
903.3923101204884
 31
0.0
  0
LINE
  5
1E5
330
20
100
AcDbEntity
  8
_0-0_
  6
Continuous
 62
     4
100
AcDbLine
 10
3670.0
 20
1264.0
 30
0.0
 11
3663.054072893323
 21
1224.607689879512
 31
0.0
  0
LINE
  5
1E6
330
20
100
AcDbEntity
  8
_0-0_
  6
Continuous
 62
     4
100
AcDbLine
 10
3670.0
 20
1264.0
 30
0.0
 11
3676.945927106678
 21
1224.607689879512
 31
0.0
  0
LINE
  5
1E7
330
20
100
AcDbEntity
  8
_0-0_
  6
Continuous
 62
     4
100
AcDbLine
 10
3650.0
 20
864.0
 30
0.0
 11
3850.0
 21
864.0
 31
0.0
  0
LINE
  5
1E8
330
20
100
AcDbEntity
  8
_0-0_
  6
Continuous
 62
     4
100
AcDbLine
 10
3650.0
 20
1264.0
 30
0.0
 11
3850.0
 21
1264.0
 31
0.0
  0
LINE
  5
1E9
330
20
100
AcDbEntity
  8
_0-0_
  6
Continuous
 62
     4
100
AcDbLine
 10
4610.0
 20
864.0
 30
0.0
 11
4603.054072893321
 21
903.3923101204884
 31
0.0
  0
LINE
  5
1EA
330
20
100
AcDbEntity
  8
_0-0_
  6
Continuous
 62
     4
100
AcDbLine
 10
4610.0
 20
864.0
 30
0.0
 11
4616.945927106677
 21
903.3923101204884
 31
0.0
  0
LINE
  5
1EB
330
20
100
AcDbEntity
  8
_0-0_
  6
Continuous
 62
     4
100
AcDbLine
 10
4610.0
 20
1264.0
 30
0.0
 11
4603.054072893321
 21
1224.607689879512
 31
0.0
  0
LINE
  5
1EC
330
20
100
AcDbEntity
  8
_0-0_
  6
Continuous
 62
     4
100
AcDbLine
 10
4610.0
 20
1264.0
 30
0.0
 11
4616.945927106677
 21
1224.607689879512
 31
0.0
  0
LINE
  5
1ED
330
20
100
AcDbEntity
  8
_0-0_
  6
Continuous
 62
     4
100
AcDbLine
 10
4630.0
 20
864.0
 30
0.0
 11
4430.0
 21
864.0
 31
0.0
  0
LINE
  5
1EE
330
20
100
AcDbEntity
  8
_0-0_
  6
Continuous
 62
     4
100
AcDbLine
 10
4630.0
 20
1264.0
 30
0.0
 11
4430.0
 21
1264.0
 31
0.0
  0
LINE
  5
1EF
330
20
100
AcDbEntity
  8
_0-0_
  6
Continuous
 62
     4
100
AcDbLine
 10
3670.0
 20
864.0
 30
0.0
 11
3670.0
 21
1264.0
 31
0.0
  0
TEXT
  5
1F0
330
20
100
AcDbEntity
  8
_0-0_
 62
     7
100
AcDbText
 10
3670.0
 20
974.0
 30
0.0
 40
100.0
  1
φ400
 50
90.0
 41
0.5999999999999999
100
AcDbText
  0
LINE
  5
1F1
330
20
100
AcDbEntity
  8
_0-0_
  6
Continuous
 62
     4
100
AcDbLine
 10
4610.0
 20
864.0
 30
0.0
 11
4610.0
 21
1264.0
 31
0.0
  0
TEXT
  5
1F2
330
20
100
AcDbEntity
  8
_0-0_
 62
     7
100
AcDbText
 10
4610.0
 20
974.0
 30
0.0
 40
100.0
  1
φ400
 50
90.0
 41
0.5999999999999999
100
AcDbText
  0
LINE
  5
1F3
330
20
100
AcDbEntity
  8
_0-0_
  6
Continuous
 62
     4
100
AcDbLine
 10
3550.0
 20
629.0000152587889
 30
0.0
 11
3543.054072893323
 21
668.3923253792772
 31
0.0
  0
LINE
  5
1F4
330
20
100
AcDbEntity
  8
_0-0_
  6
Continuous
 62
     4
100
AcDbLine
 10
3550.0
 20
629.0000152587889
 30
0.0
 11
3556.945927106677
 21
668.3923253792772
 31
0.0
  0
LINE
  5
1F5
330
20
100
AcDbEntity
  8
_0-0_
  6
Continuous
 62
     4
100
AcDbLine
 10
3550.0
 20
1615.0
 30
0.0
 11
3543.054072893323
 21
1575.607689879512
 31
0.0
  0
LINE
  5
1F6
330
20
100
AcDbEntity
  8
_0-0_
  6
Continuous
 62
     4
100
AcDbLine
 10
3550.0
 20
1615.0
 30
0.0
 11
3556.945927106677
 21
1575.607689879512
 31
0.0
  0
LINE
  5
1F7
330
20
100
AcDbEntity
  8
_0-0_
  6
Continuous
 62
     4
100
AcDbLine
 10
3530.0
 20
629.0000152587889
 30
0.0
 11
3670.0
 21
629.0000152587889
 31
0.0
  0
LINE
  5
1F8
330
20
100
AcDbEntity
  8
_0-0_
  6
Continuous
 62
     4
100
AcDbLine
 10
3530.0
 20
1615.0
 30
0.0
 11
3670.0
 21
1615.0
 31
0.0
  0
LINE
  5
1F9
330
20
100
AcDbEntity
  8
_0-0_
  6
Continuous
 62
     4
100
AcDbLine
 10
3550.0
 20
629.0000152587889
 30
0.0
 11
3550.0
 21
1615.0
 31
0.0
  0
TEXT
  5
1FA
330
20
100
AcDbEntity
  8
_0-0_
 62
     7
100
AcDbText
 10
3550.0
 20
1069.500007629394
 30
0.0
 40
100.0
  1
986
 50
90.0
 41
0.5999999999999999
100
AcDbText
  0
LINE
  5
1FB
330
20
100
AcDbEntity
  8
_0-0_
  6
Continuous
 62
     4
100
AcDbLine
 10
3550.0
 20
1615.0
 30
0.0
 11
3543.054072893323
 21
1654.392310120488
 31
0.0
  0
LINE
  5
1FC
330
20
100
AcDbEntity
  8
_0-0_
  6
Continuous
 62
     4
100
AcDbLine
 10
3550.0
 20
1615.0
 30
0.0
 11
3556.945927106677
 21
1654.392310120488
 31
0.0
  0
LINE
  5
1FD
330
20
100
AcDbEntity
  8
_0-0_
  6
Continuous
 62
     4
100
AcDbLine
 10
3550.0
 20
1700.0
 30
0.0
 11
3543.054072893323
 21
1660.607689879511
 31
0.0
  0
LINE
  5
1FE
330
20
100
AcDbEntity
  8
_0-0_
  6
Continuous
 62
     4
100
AcDbLine
 10
3550.0
 20
1700.0
 30
0.0
 11
3556.945927106677
 21
1660.607689879511
 31
0.0
  0
LINE
  5
1FF
330
20
100
AcDbEntity
  8
_0-0_
  6
Continuous
 62
     4
100
AcDbLine
 10
3530.0
 20
1700.0
 30
0.0
 11
3670.0
 21
1700.0
 31
0.0
  0
LINE
  5
200
330
20
100
AcDbEntity
  8
_0-0_
  6
Continuous
 62
     4
100
AcDbLine
 10
3550.0
 20
1615.0
 30
0.0
 11
3550.0
 21
1700.0
 31
0.0
  0
TEXT
  5
201
330
20
100
AcDbEntity
  8
_0-0_
 62
     7
100
AcDbText
 10
3550.0
 20
1623.75
 30
0.0
 40
100.0
  1
85
 50
90.0
 41
0.5999999999999999
100
AcDbText
  0
LINE
  5
202
330
20
100
AcDbEntity
  8
_0-0_
  6
Continuous
 62
     4
100
AcDbLine
 10
3430.0
 20
629.0
 30
0.0
 11
3423.054072893323
 21
668.392310120488
 31
0.0
  0
LINE
  5
203
330
20
100
AcDbEntity
  8
_0-0_
  6
Continuous
 62
     4
100
AcDbLine
 10
3430.0
 20
629.0
 30
0.0
 11
3436.945927106677
 21
668.392310120488
 31
0.0
  0
LINE
  5
204
330
20
100
AcDbEntity
  8
_0-0_
  6
Continuous
 62
     4
100
AcDbLine
 10
3430.0
 20
1700.0
 30
0.0
 11
3423.054072893323
 21
1660.607689879511
 31
0.0
  0
LINE
  5
205
330
20
100
AcDbEntity
  8
_0-0_
  6
Continuous
 62
     4
100
AcDbLine
 10
3430.0
 20
1700.0
 30
0.0
 11
3436.945927106677
 21
1660.607689879511
 31
0.0
  0
LINE
  5
206
330
20
100
AcDbEntity
  8
_0-0_
  6
Continuous
 62
     4
100
AcDbLine
 10
3410.0
 20
629.0
 30
0.0
 11
3550.0
 21
629.0
 31
0.0
  0
LINE
  5
207
330
20
100
AcDbEntity
  8
_0-0_
  6
Continuous
 62
     4
100
AcDbLine
 10
3410.0
 20
1700.0
 30
0.0
 11
3550.0
 21
1700.0
 31
0.0
  0
LINE
  5
208
330
20
100
AcDbEntity
  8
_0-0_
  6
Continuous
 62
     4
100
AcDbLine
 10
3430.0
 20
629.0
 30
0.0
 11
3430.0
 21
1700.0
 31
0.0
  0
TEXT
  5
209
330
20
100
AcDbEntity
  8
_0-0_
 62
     7
100
AcDbText
 10
3430.0
 20
1093.25
 30
0.0
 40
100.0
  1
1071
 50
90.0
 41
0.5999999999999999
100
AcDbText
  0
LINE
  5
20A
330
20
100
AcDbEntity
  8
_0-0_
  6
Continuous
 62
     4
100
AcDbLine
 10
3670.0
 20
1700.0
 30
0.0
 11
3850.0
 21
1700.0
 31
0.0
  0
LINE
  5
20B
330
20
100
AcDbEntity
  8
_0-0_
  6
Continuous
 62
     4
100
AcDbLine
 10
3670.0
 20
1615.0
 30
0.0
 11
3850.0
 21
1615.0
 31
0.0
  0
LINE
  5
20C
330
20
100
AcDbEntity
  8
_0-0_
  6
Continuous
 62
     4
100
AcDbLine
 10
3670.0
 20
629.0000152587889
 30
0.0
 11
3850.0
 21
629.0000152587889
 31
0.0
  0
LINE
  5
20D
330
20
100
AcDbEntity
  8
_0-0_
  6
Continuous
 62
     4
100
AcDbLine
 10
3850.0
 20
1264.0
 30
0.0
 11
3910.0
 21
1264.0
 31
0.0
  0
LINE
  5
20E
330
20
100
AcDbEntity
  8
_0-0_
  6
Continuous
 62
     4
100
AcDbLine
 10
3850.0
 20
864.0
 30
0.0
 11
3910.0
 21
864.0
 31
0.0
  0
LINE
  5
20F
330
20
100
AcDbEntity
  8
_0-0_
  6
Continuous
 62
     4
100
AcDbLine
 10
4370.0
 20
1264.0
 30
0.0
 11
4430.0
 21
1264.0
 31
0.0
  0
LINE
  5
210
330
20
100
AcDbEntity
  8
_0-0_
  6
Continuous
 62
     4
100
AcDbLine
 10
4370.0
 20
864.0
 30
0.0
 11
4430.0
 21
864.0
 31
0.0
  0
LINE
  5
211
330
20
100
AcDbEntity
  8
_0-0_
  6
Continuous
 62
     4
100
AcDbLine
 10
3924.142135623731
 20
1694.142135623731
 30
0.0
 11
3901.199078169689
 21
1661.376053852171
 31
0.0
  0
LINE
  5
212
330
20
100
AcDbEntity
  8
_0-0_
  6
Continuous
 62
     4
100
AcDbLine
 10
3924.142135623731
 20
1694.142135623731
 30
0.0
 11
3891.376053852172
 21
1671.199078169689
 31
0.0
  0
TEXT
  5
213
330
20
100
AcDbEntity
  8
_0-0_
 62
     7
100
AcDbText
 10
3717.282231897746
 20
1487.282231897746
 30
0.0
 40
100.0
  1
20r
 50
45.0
 41
0.5999999999999999
100
AcDbText
  0
LINE
  5
214
330
20
100
AcDbEntity
  8
_0-0_
  6
Continuous
 62
     4
100
AcDbLine
 10
3924.142135623731
 20
1694.142135623731
 30
0.0
 11
3712.549194991056
 21
1482.549194991056
 31
0.0
  0
LINE
  5
215
330
20
100
AcDbEntity
  8
_0-0_
  6
Continuous
 62
     4
100
AcDbLine
 10
4730.0
 20
629.0
 30
0.0
 11
4723.054072893321
 21
668.392310120488
 31
0.0
  0
LINE
  5
216
330
20
100
AcDbEntity
  8
_0-0_
  6
Continuous
 62
     4
100
AcDbLine
 10
4730.0
 20
629.0
 30
0.0
 11
4736.945927106677
 21
668.392310120488
 31
0.0
  0
LINE
  5
217
330
20
100
AcDbEntity
  8
_0-0_
  6
Continuous
 62
     4
100
AcDbLine
 10
4730.0
 20
749.0
 30
0.0
 11
4723.054072893321
 21
709.6076898795116
 31
0.0
  0
LINE
  5
218
330
20
100
AcDbEntity
  8
_0-0_
  6
Continuous
 62
     4
100
AcDbLine
 10
4730.0
 20
749.0
 30
0.0
 11
4736.945927106677
 21
709.6076898795116
 31
0.0
  0
LINE
  5
219
330
20
100
AcDbEntity
  8
_0-0_
  6
Continuous
 62
     4
100
AcDbLine
 10
4750.0
 20
629.0
 30
0.0
 11
4610.0
 21
629.0
 31
0.0
  0
LINE
  5
21A
330
20
100
AcDbEntity
  8
_0-0_
  6
Continuous
 62
     4
100
AcDbLine
 10
4750.0
 20
749.0
 30
0.0
 11
4610.0
 21
749.0
 31
0.0
  0
LINE
  5
21B
330
20
100
AcDbEntity
  8
_0-0_
  6
Continuous
 62
     4
100
AcDbLine
 10
4730.0
 20
629.0
 30
0.0
 11
4730.0
 21
749.0
 31
0.0
  0
TEXT
  5
21C
330
20
100
AcDbEntity
  8
_0-0_
 62
     7
100
AcDbText
 10
4730.0
 20
636.5
 30
0.0
 40
100.0
  1
120
 50
90.0
 41
0.5999999999999999
100
AcDbText
  0
LINE
  5
21D
330
20
100
AcDbEntity
  8
_0-0_
  6
Continuous
 62
     4
100
AcDbLine
 10
4730.0
 20
749.000015258789
 30
0.0
 11
4723.054072893321
 21
788.3923253792771
 31
0.0
  0
LINE
  5
21E
330
20
100
AcDbEntity
  8
_0-0_
  6
Continuous
 62
     4
100
AcDbLine
 10
4730.0
 20
749.000015258789
 30
0.0
 11
4736.945927106677
 21
788.3923253792771
 31
0.0
  0
LINE
  5
21F
330
20
100
AcDbEntity
  8
_0-0_
  6
Continuous
 62
     4
100
AcDbLine
 10
4730.0
 20
1674.0
 30
0.0
 11
4723.054072893321
 21
1634.607689879511
 31
0.0
  0
LINE
  5
220
330
20
100
AcDbEntity
  8
_0-0_
  6
Continuous
 62
     4
100
AcDbLine
 10
4730.0
 20
1674.0
 30
0.0
 11
4736.945927106677
 21
1634.607689879511
 31
0.0
  0
LINE
  5
221
330
20
100
AcDbEntity
  8
_0-0_
  6
Continuous
 62
     4
100
AcDbLine
 10
4750.0
 20
749.000015258789
 30
0.0
 11
4610.0
 21
749.000015258789
 31
0.0
  0
LINE
  5
222
330
20
100
AcDbEntity
  8
_0-0_
  6
Continuous
 62
     4
100
AcDbLine
 10
4750.0
 20
1674.0
 30
0.0
 11
4610.0
 21
1674.0
 31
0.0
  0
LINE
  5
223
330
20
100
AcDbEntity
  8
_0-0_
  6
Continuous
 62
     4
100
AcDbLine
 10
4730.0
 20
749.000015258789
 30
0.0
 11
4730.0
 21
1674.0
 31
0.0
  0
TEXT
  5
224
330
20
100
AcDbEntity
  8
_0-0_
 62
     7
100
AcDbText
 10
4730.0
 20
1159.000007629394
 30
0.0
 40
100.0
  1
925
 50
90.0
 41
0.5999999999999999
100
AcDbText
  0
LINE
  5
225
330
20
100
AcDbEntity
  8
_0-0_
  6
Continuous
 62
     4
100
AcDbLine
 10
4850.0
 20
629.0
 30
0.0
 11
4843.054072893322
 21
668.392310120488
 31
0.0
  0
LINE
  5
226
330
20
100
AcDbEntity
  8
_0-0_
  6
Continuous
 62
     4
100
AcDbLine
 10
4850.0
 20
629.0
 30
0.0
 11
4856.945927106677
 21
668.392310120488
 31
0.0
  0
LINE
  5
227
330
20
100
AcDbEntity
  8
_0-0_
  6
Continuous
 62
     4
100
AcDbLine
 10
4850.0
 20
1674.0
 30
0.0
 11
4843.054072893322
 21
1634.607689879511
 31
0.0
  0
LINE
  5
228
330
20
100
AcDbEntity
  8
_0-0_
  6
Continuous
 62
     4
100
AcDbLine
 10
4850.0
 20
1674.0
 30
0.0
 11
4856.945927106677
 21
1634.607689879511
 31
0.0
  0
LINE
  5
229
330
20
100
AcDbEntity
  8
_0-0_
  6
Continuous
 62
     4
100
AcDbLine
 10
4870.0
 20
629.0
 30
0.0
 11
4730.0
 21
629.0
 31
0.0
  0
LINE
  5
22A
330
20
100
AcDbEntity
  8
_0-0_
  6
Continuous
 62
     4
100
AcDbLine
 10
4870.0
 20
1674.0
 30
0.0
 11
4730.0
 21
1674.0
 31
0.0
  0
LINE
  5
22B
330
20
100
AcDbEntity
  8
_0-0_
  6
Continuous
 62
     4
100
AcDbLine
 10
4850.0
 20
629.0
 30
0.0
 11
4850.0
 21
1674.0
 31
0.0
  0
TEXT
  5
22C
330
20
100
AcDbEntity
  8
_0-0_
 62
     7
100
AcDbText
 10
4850.0
 20
1080.25
 30
0.0
 40
100.0
  1
1045
 50
90.0
 41
0.5999999999999999
100
AcDbText
  0
LINE
  5
22D
330
20
100
AcDbEntity
  8
_0-0_
  6
Continuous
 62
     4
100
AcDbLine
 10
4430.0
 20
1674.0
 30
0.0
 11
4610.0
 21
1674.0
 31
0.0
  0
LINE
  5
22E
330
20
100
AcDbEntity
  8
_0-0_
  6
Continuous
 62
     4
100
AcDbLine
 10
4430.0
 20
749.0
 30
0.0
 11
4610.0
 21
749.0
 31
0.0
  0
LINE
  5
22F
330
20
100
AcDbEntity
  8
_0-0_
  6
Continuous
 62
     4
100
AcDbLine
 10
4430.0
 20
629.0
 30
0.0
 11
4610.0
 21
629.0
 31
0.0
  0
LINE
  5
230
330
20
100
AcDbEntity
  8
_0-0_
  6
Continuous
 62
     4
100
AcDbLine
 10
3870.0
 20
1780.0
 30
0.0
 11
3770.0
 21
1780.0
 31
0.0
  0
LINE
  5
231
330
20
100
AcDbEntity
  8
_0-0_
  6
Continuous
 62
     4
100
AcDbLine
 10
3930.0
 20
1780.0
 30
0.0
 11
4030.0
 21
1780.0
 31
0.0
  0
LINE
  5
232
330
20
100
AcDbEntity
  8
_0-0_
  6
Continuous
 62
     4
100
AcDbLine
 10
3870.0
 20
1780.0
 30
0.0
 11
3830.607689879512
 21
1773.054072893323
 31
0.0
  0
LINE
  5
233
330
20
100
AcDbEntity
  8
_0-0_
  6
Continuous
 62
     4
100
AcDbLine
 10
3870.0
 20
1780.0
 30
0.0
 11
3830.607689879512
 21
1786.945927106677
 31
0.0
  0
LINE
  5
234
330
20
100
AcDbEntity
  8
_0-0_
  6
Continuous
 62
     4
100
AcDbLine
 10
3930.0
 20
1780.0
 30
0.0
 11
3969.392310120488
 21
1773.054072893323
 31
0.0
  0
LINE
  5
235
330
20
100
AcDbEntity
  8
_0-0_
  6
Continuous
 62
     4
100
AcDbLine
 10
3930.0
 20
1780.0
 30
0.0
 11
3969.392310120488
 21
1786.945927106677
 31
0.0
  0
LINE
  5
236
330
20
100
AcDbEntity
  8
_0-0_
  6
Continuous
 62
     4
100
AcDbLine
 10
3870.0
 20
1800.0
 30
0.0
 11
3870.0
 21
1720.0
 31
0.0
  0
LINE
  5
237
330
20
100
AcDbEntity
  8
_0-0_
  6
Continuous
 62
     4
100
AcDbLine
 10
3930.0
 20
1800.0
 30
0.0
 11
3930.0
 21
1720.0
 31
0.0
  0
LINE
  5
238
330
20
100
AcDbEntity
  8
_0-0_
  6
Continuous
 62
     4
100
AcDbLine
 10
3870.0
 20
1780.0
 30
0.0
 11
3930.0
 21
1780.0
 31
0.0
  0
TEXT
  5
239
330
20
100
AcDbEntity
  8
_0-0_
 62
     7
100
AcDbText
 10
3770.0
 20
1780.0
 30
0.0
 40
100.0
  1
60
 41
0.5999999999999999
100
AcDbText
  0
LINE
  5
23A
330
20
100
AcDbEntity
  8
_0-0_
  6
Continuous
 62
     4
100
AcDbLine
 10
3870.0
 20
1900.0
 30
0.0
 11
3909.392310120489
 21
1906.945927106677
 31
0.0
  0
LINE
  5
23B
330
20
100
AcDbEntity
  8
_0-0_
  6
Continuous
 62
     4
100
AcDbLine
 10
3870.0
 20
1900.0
 30
0.0
 11
3909.392310120489
 21
1893.054072893322
 31
0.0
  0
LINE
  5
23C
330
20
100
AcDbEntity
  8
_0-0_
  6
Continuous
 62
     4
100
AcDbLine
 10
3990.0
 20
1900.0
 30
0.0
 11
3950.607689879512
 21
1906.945927106677
 31
0.0
  0
LINE
  5
23D
330
20
100
AcDbEntity
  8
_0-0_
  6
Continuous
 62
     4
100
AcDbLine
 10
3990.0
 20
1900.0
 30
0.0
 11
3950.607689879512
 21
1893.054072893322
 31
0.0
  0
LINE
  5
23E
330
20
100
AcDbEntity
  8
_0-0_
  6
Continuous
 62
     4
100
AcDbLine
 10
3870.0
 20
1920.0
 30
0.0
 11
3870.0
 21
1780.0
 31
0.0
  0
LINE
  5
23F
330
20
100
AcDbEntity
  8
_0-0_
  6
Continuous
 62
     4
100
AcDbLine
 10
3990.0
 20
1920.0
 30
0.0
 11
3990.0
 21
1780.0
 31
0.0
  0
LINE
  5
240
330
20
100
AcDbEntity
  8
_0-0_
  6
Continuous
 62
     4
100
AcDbLine
 10
3870.0
 20
1900.0
 30
0.0
 11
3990.0
 21
1900.0
 31
0.0
  0
TEXT
  5
241
330
20
100
AcDbEntity
  8
_0-0_
 62
     7
100
AcDbText
 10
3877.5
 20
1900.0
 30
0.0
 40
100.0
  1
120
 41
0.5999999999999999
100
AcDbText
  0
LINE
  5
242
330
20
100
AcDbEntity
  8
_0-0_
  6
Continuous
 62
     4
100
AcDbLine
 10
3990.0
 20
1900.0
 30
0.0
 11
4029.392310120488
 21
1906.945927106677
 31
0.0
  0
LINE
  5
243
330
20
100
AcDbEntity
  8
_0-0_
  6
Continuous
 62
     4
100
AcDbLine
 10
3990.0
 20
1900.0
 30
0.0
 11
4029.392310120488
 21
1893.054072893322
 31
0.0
  0
LINE
  5
244
330
20
100
AcDbEntity
  8
_0-0_
  6
Continuous
 62
     4
100
AcDbLine
 10
4290.0
 20
1900.0
 30
0.0
 11
4250.607689879512
 21
1906.945927106677
 31
0.0
  0
LINE
  5
245
330
20
100
AcDbEntity
  8
_0-0_
  6
Continuous
 62
     4
100
AcDbLine
 10
4290.0
 20
1900.0
 30
0.0
 11
4250.607689879512
 21
1893.054072893322
 31
0.0
  0
LINE
  5
246
330
20
100
AcDbEntity
  8
_0-0_
  6
Continuous
 62
     4
100
AcDbLine
 10
4290.0
 20
1920.0
 30
0.0
 11
4290.0
 21
1780.0
 31
0.0
  0
LINE
  5
247
330
20
100
AcDbEntity
  8
_0-0_
  6
Continuous
 62
     4
100
AcDbLine
 10
3990.0
 20
1900.0
 30
0.0
 11
4290.0
 21
1900.0
 31
0.0
  0
TEXT
  5
248
330
20
100
AcDbEntity
  8
_0-0_
 62
     7
100
AcDbText
 10
4087.5
 20
1900.0
 30
0.0
 40
100.0
  1
300
 41
0.5999999999999999
100
AcDbText
  0
LINE
  5
249
330
20
100
AcDbEntity
  8
_0-0_
  6
Continuous
 62
     4
100
AcDbLine
 10
4290.0
 20
1900.0
 30
0.0
 11
4329.392310120488
 21
1906.945927106677
 31
0.0
  0
LINE
  5
24A
330
20
100
AcDbEntity
  8
_0-0_
  6
Continuous
 62
     4
100
AcDbLine
 10
4290.0
 20
1900.0
 30
0.0
 11
4329.392310120488
 21
1893.054072893322
 31
0.0
  0
LINE
  5
24B
330
20
100
AcDbEntity
  8
_0-0_
  6
Continuous
 62
     4
100
AcDbLine
 10
4410.0
 20
1900.0
 30
0.0
 11
4370.607689879512
 21
1906.945927106677
 31
0.0
  0
LINE
  5
24C
330
20
100
AcDbEntity
  8
_0-0_
  6
Continuous
 62
     4
100
AcDbLine
 10
4410.0
 20
1900.0
 30
0.0
 11
4370.607689879512
 21
1893.054072893322
 31
0.0
  0
LINE
  5
24D
330
20
100
AcDbEntity
  8
_0-0_
  6
Continuous
 62
     4
100
AcDbLine
 10
4410.0
 20
1920.0
 30
0.0
 11
4410.0
 21
1780.0
 31
0.0
  0
LINE
  5
24E
330
20
100
AcDbEntity
  8
_0-0_
  6
Continuous
 62
     4
100
AcDbLine
 10
4290.0
 20
1900.0
 30
0.0
 11
4410.0
 21
1900.0
 31
0.0
  0
TEXT
  5
24F
330
20
100
AcDbEntity
  8
_0-0_
 62
     7
100
AcDbText
 10
4297.5
 20
1900.0
 30
0.0
 40
100.0
  1
120
 41
0.5999999999999999
100
AcDbText
  0
LINE
  5
250
330
20
100
AcDbEntity
  8
_0-0_
  6
Continuous
 62
     4
100
AcDbLine
 10
3870.0
 20
2020.0
 30
0.0
 11
3909.392310120489
 21
2026.945927106678
 31
0.0
  0
LINE
  5
251
330
20
100
AcDbEntity
  8
_0-0_
  6
Continuous
 62
     4
100
AcDbLine
 10
3870.0
 20
2020.0
 30
0.0
 11
3909.392310120489
 21
2013.054072893323
 31
0.0
  0
LINE
  5
252
330
20
100
AcDbEntity
  8
_0-0_
  6
Continuous
 62
     4
100
AcDbLine
 10
4410.0
 20
2020.0
 30
0.0
 11
4370.607689879512
 21
2026.945927106678
 31
0.0
  0
LINE
  5
253
330
20
100
AcDbEntity
  8
_0-0_
  6
Continuous
 62
     4
100
AcDbLine
 10
4410.0
 20
2020.0
 30
0.0
 11
4370.607689879512
 21
2013.054072893323
 31
0.0
  0
LINE
  5
254
330
20
100
AcDbEntity
  8
_0-0_
  6
Continuous
 62
     4
100
AcDbLine
 10
3870.0
 20
2040.0
 30
0.0
 11
3870.0
 21
1900.0
 31
0.0
  0
LINE
  5
255
330
20
100
AcDbEntity
  8
_0-0_
  6
Continuous
 62
     4
100
AcDbLine
 10
4410.0
 20
2040.0
 30
0.0
 11
4410.0
 21
1900.0
 31
0.0
  0
LINE
  5
256
330
20
100
AcDbEntity
  8
_0-0_
  6
Continuous
 62
     4
100
AcDbLine
 10
3870.0
 20
2020.0
 30
0.0
 11
4410.0
 21
2020.0
 31
0.0
  0
TEXT
  5
257
330
20
100
AcDbEntity
  8
_0-0_
 62
     7
100
AcDbText
 10
4087.5
 20
2020.0
 30
0.0
 40
100.0
  1
540
 41
0.5999999999999999
100
AcDbText
  0
LINE
  5
258
330
20
100
AcDbEntity
  8
_0-0_
  6
Continuous
 62
     4
100
AcDbLine
 10
3990.0
 20
1780.0
 30
0.0
 11
3990.0
 21
1643.722959587186
 31
0.0
  0
LINE
  5
259
330
20
100
AcDbEntity
  8
_0-0_
  6
Continuous
 62
     4
100
AcDbLine
 10
4290.0
 20
1780.0
 30
0.0
 11
4290.0
 21
1685.666087549272
 31
0.0
  0
LINE
  5
25A
330
20
100
AcDbEntity
  8
_0-0_
  6
Continuous
 62
     4
100
AcDbLine
 10
4410.0
 20
1780.0
 30
0.0
 11
4410.0
 21
1694.0
 31
0.0
  0
LINE
  5
25B
330
20
100
AcDbEntity
  8
_0-0_
  6
DASHED1
 62
     7
100
AcDbLine
 10
2177.5
 20
3000.0
 30
0.0
 11
2202.5
 21
3000.0
 31
0.0
  0
LINE
  5
25C
330
20
100
AcDbEntity
  8
_0-0_
  6
DASHED1
 62
     7
100
AcDbLine
 10
2182.5
 20
3000.0
 30
0.0
 11
2182.5
 21
2970.0
 31
0.0
  0
LINE
  5
25D
330
20
100
AcDbEntity
  8
_0-0_
  6
DASHED1
 62
     7
100
AcDbLine
 10
2197.5
 20
3000.0
 30
0.0
 11
2197.5
 21
2970.0
 31
0.0
  0
LINE
  5
25E
330
20
100
AcDbEntity
  8
_0-0_
  6
CENTER1
 62
     4
100
AcDbLine
 10
2190.0
 20
3060.0
 30
0.0
 11
2190.0
 21
2910.0
 31
0.0
  0
CIRCLE
  5
25F
330
20
100
AcDbEntity
  8
_0-0_
  6
DASHED1
 62
     7
100
AcDbCircle
 10
2190.0
 20
1524.0
 30
0.0
 40
7.5
  0
CIRCLE
  5
260
330
20
100
AcDbEntity
  8
_0-0_
  6
DASHED1
 62
     7
100
AcDbCircle
 10
2190.0
 20
1524.0
 30
0.0
 40
12.5
  0
LINE
  5
261
330
20
100
AcDbEntity
  8
_0-0_
  6
CENTER1
 62
     4
100
AcDbLine
 10
2130.0
 20
1524.0
 30
0.0
 11
2250.0
 21
1524.0
 31
0.0
  0
LINE
  5
262
330
20
100
AcDbEntity
  8
_0-0_
  6
CENTER1
 62
     4
100
AcDbLine
 10
2190.0
 20
1584.0
 30
0.0
 11
2190.0
 21
1464.0
 31
0.0
  0
LINE
  5
263
330
20
100
AcDbEntity
  8
_0-0_
  6
DASHED1
 62
     7
100
AcDbLine
 10
4288.199221394957
 20
1531.5
 30
0.0
 11
4318.032900738682
 21
1531.5
 31
0.0
  0
LINE
  5
264
330
20
100
AcDbEntity
  8
_0-0_
  6
DASHED1
 62
     7
100
AcDbLine
 10
4287.850354531157
 20
1516.5
 30
0.0
 11
4318.032900738682
 21
1516.5
 31
0.0
  0
LINE
  5
265
330
20
100
AcDbEntity
  8
_0-0_
  6
DASHED1
 62
     7
100
AcDbLine
 10
4318.032900738682
 20
1536.5
 30
0.0
 11
4318.032900738682
 21
1511.5
 31
0.0
  0
LINE
  5
266
330
20
100
AcDbEntity
  8
_0-0_
  6
CENTER1
 62
     4
100
AcDbLine
 10
4228.008562411808
 20
1524.0
 30
0.0
 11
4378.032900738682
 21
1524.0
 31
0.0
  0
TEXT
  5
267
330
20
100
AcDbEntity
  8
_0-0_
 62
     7
100
AcDbText
 10
4671.532900738685
 20
1910.0
 30
0.0
 40
100.0
  1
インサート(W3/8)
 41
0.5999999999999999
100
AcDbText
  0
LINE
  5
268
330
20
100
AcDbEntity
  8
_0-0_
  6
Continuous
 62
     4
100
AcDbLine
 10
4671.532900738685
 20
1900.0
 30
0.0
 11
5307.341085042853
 21
1900.0
 31
0.0
  0
LINE
  5
269
330
20
100
AcDbEntity
  8
_0-0_
  6
Continuous
 62
     4
100
AcDbLine
 10
4303.032900738682
 20
1531.5
 30
0.0
 11
4671.532900738685
 21
1900.0
 31
0.0
  0
LINE
  5
26A
330
20
100
AcDbEntity
  8
_0-0_
  6
Continuous
 62
     4
100
AcDbLine
 10
4303.032900738682
 20
1531.5
 30
0.0
 11
4325.975958192725
 21
1564.266081771559
 31
0.0
  0
LINE
  5
26B
330
20
100
AcDbEntity
  8
_0-0_
  6
Continuous
 62
     4
100
AcDbLine
 10
4303.032900738682
 20
1531.5
 30
0.0
 11
4335.798982510241
 21
1554.443057454042
 31
0.0
  0
LINE
  5
26C
330
20
100
AcDbEntity
  8
_0-0_
  6
Continuous
 62
     7
100
AcDbLine
 10
760.0
 20
3290.0
 30
0.0
 11
1169.209601049276
 21
3290.0
 31
0.0
  0
TEXT
  5
26D
330
20
100
AcDbEntity
  8
_0-0_
 62
     7
100
AcDbText
 10
760.0
 20
3300.0
 30
0.0
 40
100.0
  1
平　面　図
 41
0.5999999999999999
100
AcDbText
  0
LINE
  5
26E
330
20
100
AcDbEntity
  8
_0-0_
  6
Continuous
 62
     7
100
AcDbLine
 10
760.0
 20
1900.0
 30
0.0
 11
1170.986016577405
 21
1900.0
 31
0.0
  0
TEXT
  5
26F
330
20
100
AcDbEntity
  8
_0-0_
 62
     7
100
AcDbText
 10
760.0
 20
1910.0
 30
0.0
 40
100.0
  1
側　面　図
 41
0.5999999999999999
100
AcDbText
  0
LINE
  5
270
330
20
100
AcDbEntity
  8
_0-0_
  6
Continuous
 62
     7
100
AcDbLine
 10
3200.0
 20
1900.0
 30
0.0
 11
3609.970921989904
 21
1900.0
 31
0.0
  0
TEXT
  5
271
330
20
100
AcDbEntity
  8
_0-0_
 62
     7
100
AcDbText
 10
3200.0
 20
1910.0
 30
0.0
 40
100.0
  1
断　面　図
 41
0.5999999999999999
100
AcDbText
  0
TEXT
  5
272
330
20
100
AcDbEntity
  8
_0-0_
 62
     7
100
AcDbText
 10
1876.003330459458
 20
3600.0
 30
0.0
 40
200.0
  1
特殊桝(Ｌ形側溝Ｃ用)(浸透用)
 41
0.5999999999999999
100
AcDbText
  0
TEXT
  5
273
330
20
100
AcDbEntity
  8
_0-0_
 62
     7
100
AcDbText
 10
4277.978081980794
 20
3600.0
 30
0.0
 40
100.0
  1
Ｓ＝１／２０，単位 ｍｍ
 41
0.5999999999999999
100
AcDbText
  0
LINE
  5
274
330
20
100
AcDbEntity
  8
_0-0_
  6
Continuous
 62
     7
100
AcDbLine
 10
1857.253330459458
 20
3570.0
 30
0.0
 11
4082.746669540541
 21
3570.0
 31
0.0
  0
LINE
  5
275
330
20
100
AcDbEntity
  8
_0-0_
  6
CENTER1
 62
     4
100
AcDbLine
 10
1350.0
 20
2820.0
 30
0.0
 11
2650.0
 21
2820.0
 31
0.0
  0
LINE
  5
276
330
20
100
AcDbEntity
  8
_0-0_
  6
Continuous
 62
     4
100
AcDbLine
 10
2770.0
 20
2550.0
 30
0.0
 11
2763.054072893323
 21
2589.392310120488
 31
0.0
  0
LINE
  5
277
330
20
100
AcDbEntity
  8
_0-0_
  6
Continuous
 62
     4
100
AcDbLine
 10
2770.0
 20
2550.0
 30
0.0
 11
2776.945927106677
 21
2589.392310120488
 31
0.0
  0
LINE
  5
278
330
20
100
AcDbEntity
  8
_0-0_
  6
Continuous
 62
     4
100
AcDbLine
 10
2770.0
 20
2820.0
 30
0.0
 11
2763.054072893323
 21
2780.607689879512
 31
0.0
  0
LINE
  5
279
330
20
100
AcDbEntity
  8
_0-0_
  6
Continuous
 62
     4
100
AcDbLine
 10
2770.0
 20
2820.0
 30
0.0
 11
2776.945927106677
 21
2780.607689879512
 31
0.0
  0
LINE
  5
27A
330
20
100
AcDbEntity
  8
_0-0_
  6
Continuous
 62
     4
100
AcDbLine
 10
2790.0
 20
2550.0
 30
0.0
 11
2590.0
 21
2550.0
 31
0.0
  0
LINE
  5
27B
330
20
100
AcDbEntity
  8
_0-0_
  6
Continuous
 62
     4
100
AcDbLine
 10
2770.0
 20
2550.0
 30
0.0
 11
2770.0
 21
2820.0
 31
0.0
  0
TEXT
  5
27C
330
20
100
AcDbEntity
  8
_0-0_
 62
     7
100
AcDbText
 10
2770.0
 20
2632.5
 30
0.0
 40
100.0
  1
270
 50
90.0
 41
0.5999999999999999
100
AcDbText
  0
LINE
  5
27D
330
20
100
AcDbEntity
  8
_0-0_
  6
Continuous
 62
     4
100
AcDbLine
 10
2770.0
 20
2820.0
 30
0.0
 11
2763.054072893323
 21
2859.392310120489
 31
0.0
  0
LINE
  5
27E
330
20
100
AcDbEntity
  8
_0-0_
  6
Continuous
 62
     4
100
AcDbLine
 10
2770.0
 20
2820.0
 30
0.0
 11
2776.945927106677
 21
2859.392310120489
 31
0.0
  0
LINE
  5
27F
330
20
100
AcDbEntity
  8
_0-0_
  6
Continuous
 62
     4
100
AcDbLine
 10
2770.0
 20
3090.0
 30
0.0
 11
2763.054072893323
 21
3050.607689879512
 31
0.0
  0
LINE
  5
280
330
20
100
AcDbEntity
  8
_0-0_
  6
Continuous
 62
     4
100
AcDbLine
 10
2770.0
 20
3090.0
 30
0.0
 11
2776.945927106677
 21
3050.607689879512
 31
0.0
  0
LINE
  5
281
330
20
100
AcDbEntity
  8
_0-0_
  6
Continuous
 62
     4
100
AcDbLine
 10
2790.0
 20
3090.0
 30
0.0
 11
2590.0
 21
3090.0
 31
0.0
  0
LINE
  5
282
330
20
100
AcDbEntity
  8
_0-0_
  6
Continuous
 62
     4
100
AcDbLine
 10
2770.0
 20
2820.0
 30
0.0
 11
2770.0
 21
3090.0
 31
0.0
  0
TEXT
  5
283
330
20
100
AcDbEntity
  8
_0-0_
 62
     7
100
AcDbText
 10
2770.0
 20
2902.5
 30
0.0
 40
100.0
  1
270
 50
90.0
 41
0.5999999999999999
100
AcDbText
  0
TEXT
  5
284
330
20
100
AcDbEntity
  8
_0-0_
 62
     7
100
AcDbText
 10
4313.724747523171
 20
3000.0
 30
0.0
 40
100.0
  1
参考質量： ８１３ｋｇ
 41
0.5999999999999999
100
AcDbText
  0
LINE
  5
285
330
20
100
AcDbEntity
  8
_0-0_
  6
Continuous
 62
     4
100
AcDbLine
 10
2370.65
 20
2920.0
 30
0.0
 11
3011.508798800485
 21
3290.0
 31
0.0
  0
LINE
  5
286
330
20
100
AcDbEntity
  8
_0-0_
  6
Continuous
 62
     4
100
AcDbLine
 10
2370.65
 20
2920.0
 30
0.0
 11
2401.29177772476
 21
2945.711504387461
 31
0.0
  0
LINE
  5
287
330
20
100
AcDbEntity
  8
_0-0_
  6
Continuous
 62
     4
100
AcDbLine
 10
2370.65
 20
2920.0
 30
0.0
 11
2408.237704831437
 21
2933.680805733027
 31
0.0
  0
TEXT
  5
288
330
20
100
AcDbEntity
  8
_0-0_
 62
     7
100
AcDbText
 10
3011.508798800485
 20
3300.0
 30
0.0
 40
100.0
  1
グレーチング蓋(T-20)
 41
0.5999999999999999
100
AcDbText
  0
LINE
  5
289
330
20
100
AcDbEntity
  8
_0-0_
  6
Continuous
 62
     4
100
AcDbLine
 10
3011.508798800485
 20
3290.0
 30
0.0
 11
3803.382956222508
 21
3290.0
 31
0.0
  0
CIRCLE
  5
28A
330
20
100
AcDbEntity
  8
_0-0_
  6
Continuous
 62
     7
100
AcDbCircle
 10
1780.0
 20
2820.0
 30
0.0
 40
75.0
  0
CIRCLE
  5
28B
330
20
100
AcDbEntity
  8
_0-0_
  6
DASHED1
 62
     7
100
AcDbCircle
 10
2220.0
 20
2820.0
 30
0.0
 40
90.0
  0
CIRCLE
  5
28C
330
20
100
AcDbEntity
  8
_0-0_
  6
DASHED1
 62
     7
100
AcDbCircle
 10
2220.0
 20
2820.0
 30
0.0
 40
75.0
  0
LINE
  5
28D
330
20
100
AcDbEntity
  8
_0-0_
  6
Continuous
 62
     4
100
AcDbLine
 10
1430.0
 20
2350.0
 30
0.0
 11
1469.392310120488
 21
2356.945927106677
 31
0.0
  0
LINE
  5
28E
330
20
100
AcDbEntity
  8
_0-0_
  6
Continuous
 62
     4
100
AcDbLine
 10
1430.0
 20
2350.0
 30
0.0
 11
1469.392310120488
 21
2343.054072893323
 31
0.0
  0
LINE
  5
28F
330
20
100
AcDbEntity
  8
_0-0_
  6
Continuous
 62
     4
100
AcDbLine
 10
1780.0
 20
2350.0
 30
0.0
 11
1740.607689879511
 21
2356.945927106677
 31
0.0
  0
LINE
  5
290
330
20
100
AcDbEntity
  8
_0-0_
  6
Continuous
 62
     4
100
AcDbLine
 10
1780.0
 20
2350.0
 30
0.0
 11
1740.607689879511
 21
2343.054072893323
 31
0.0
  0
LINE
  5
291
330
20
100
AcDbEntity
  8
_0-0_
  6
Continuous
 62
     4
100
AcDbLine
 10
1430.0
 20
2330.0
 30
0.0
 11
1430.0
 21
2530.0
 31
0.0
  0
LINE
  5
292
330
20
100
AcDbEntity
  8
_0-0_
  6
Continuous
 62
     4
100
AcDbLine
 10
1430.0
 20
2350.0
 30
0.0
 11
1780.0
 21
2350.0
 31
0.0
  0
TEXT
  5
293
330
20
100
AcDbEntity
  8
_0-0_
 62
     7
100
AcDbText
 10
1552.5
 20
2350.0
 30
0.0
 40
100.0
  1
350
 41
0.5999999999999999
100
AcDbText
  0
LINE
  5
294
330
20
100
AcDbEntity
  8
_0-0_
  6
Continuous
 62
     4
100
AcDbLine
 10
2220.0
 20
2350.0
 30
0.0
 11
2259.392310120488
 21
2356.945927106677
 31
0.0
  0
LINE
  5
295
330
20
100
AcDbEntity
  8
_0-0_
  6
Continuous
 62
     4
100
AcDbLine
 10
2220.0
 20
2350.0
 30
0.0
 11
2259.392310120488
 21
2343.054072893323
 31
0.0
  0
LINE
  5
296
330
20
100
AcDbEntity
  8
_0-0_
  6
Continuous
 62
     4
100
AcDbLine
 10
2570.0
 20
2350.0
 30
0.0
 11
2530.607689879512
 21
2356.945927106677
 31
0.0
  0
LINE
  5
297
330
20
100
AcDbEntity
  8
_0-0_
  6
Continuous
 62
     4
100
AcDbLine
 10
2570.0
 20
2350.0
 30
0.0
 11
2530.607689879512
 21
2343.054072893323
 31
0.0
  0
LINE
  5
298
330
20
100
AcDbEntity
  8
_0-0_
  6
Continuous
 62
     4
100
AcDbLine
 10
2570.0
 20
2330.0
 30
0.0
 11
2570.0
 21
2530.0
 31
0.0
  0
LINE
  5
299
330
20
100
AcDbEntity
  8
_0-0_
  6
Continuous
 62
     4
100
AcDbLine
 10
2220.0
 20
2350.0
 30
0.0
 11
2570.0
 21
2350.0
 31
0.0
  0
TEXT
  5
29A
330
20
100
AcDbEntity
  8
_0-0_
 62
     7
100
AcDbText
 10
2342.5
 20
2350.0
 30
0.0
 40
100.0
  1
350
 41
0.5999999999999999
100
AcDbText
  0
LINE
  5
29B
330
20
100
AcDbEntity
  8
_0-0_
  6
CENTER1
 62
     4
100
AcDbLine
 10
1780.0
 20
2970.0
 30
0.0
 11
1780.0
 21
2530.0
 31
0.0
  0
LINE
  5
29C
330
20
100
AcDbEntity
  8
_0-0_
  6
CENTER1
 62
     4
100
AcDbLine
 10
2220.0
 20
2970.0
 30
0.0
 11
2220.0
 21
2530.0
 31
0.0
  0
LINE
  5
29D
330
20
100
AcDbEntity
  8
_0-0_
  6
CENTER1
 62
     4
100
AcDbLine
 10
1780.0
 20
2330.0
 30
0.0
 11
1780.0
 21
2530.0
 31
0.0
  0
LINE
  5
29E
330
20
100
AcDbEntity
  8
_0-0_
  6
CENTER1
 62
     4
100
AcDbLine
 10
2220.0
 20
2330.0
 30
0.0
 11
2220.0
 21
2530.0
 31
0.0
  0
LINE
  5
29F
330
20
100
AcDbEntity
  8
_0-0_
  6
CENTER1
 62
     4
100
AcDbLine
 10
2790.0
 20
2820.0
 30
0.0
 11
2590.0
 21
2820.0
 31
0.0
  0
LINE
  5
2A0
330
20
100
AcDbEntity
  8
_0-0_
  6
Continuous
 62
     4
100
AcDbLine
 10
2157.42476340006
 20
2861.34416239884
 30
0.0
 11
1508.645373480876
 21
3290.0
 31
0.0
  0
LINE
  5
2A1
330
20
100
AcDbEntity
  8
_0-0_
  6
Continuous
 62
     4
100
AcDbLine
 10
2157.42476340006
 20
2861.34416239884
 30
0.0
 11
2120.729288937727
 21
2877.264029043515
 31
0.0
  0
LINE
  5
2A2
330
20
100
AcDbEntity
  8
_0-0_
  6
Continuous
 62
     4
100
AcDbLine
 10
2157.42476340006
 20
2861.34416239884
 30
0.0
 11
2128.387211903105
 21
2888.854535043747
 31
0.0
  0
LINE
  5
2A3
330
20
100
AcDbEntity
  8
_0-0_
  6
Continuous
 62
     4
100
AcDbLine
 10
1742.5
 20
2884.951905283833
 30
0.0
 11
1716.788495612538
 21
2915.593683008592
 31
0.0
  0
LINE
  5
2A4
330
20
100
AcDbEntity
  8
_0-0_
  6
Continuous
 62
     4
100
AcDbLine
 10
1742.5
 20
2884.951905283833
 30
0.0
 11
1728.819194266973
 21
2922.539610115269
 31
0.0
  0
LINE
  5
2A5
330
20
100
AcDbEntity
  8
_0-0_
  6
Continuous
 62
     4
100
AcDbLine
 10
1742.5
 20
2884.951905283833
 30
0.0
 11
1508.645373480876
 21
3290.0
 31
0.0
  0
TEXT
  5
2A6
330
20
100
AcDbEntity
  8
_0-0_
 62
     7
100
AcDbText
 10
1508.645373480876
 20
3290.0
 30
0.0
 40
100.0
  1
φ150
 41
0.5999999999999999
100
AcDbText
  0
LINE
  5
2A7
330
20
100
AcDbEntity
  8
_0-0_
  6
Continuous
 62
     4
100
AcDbLine
 10
1508.645373480876
 20
3290.0
 30
0.0
 11
1698.645373480876
 21
3290.0
 31
0.0
  0
LINE
  5
2A8
330
20
100
AcDbEntity
  8
_0-0_
  6
DASHED1
 62
     7
100
AcDbLine
 10
4065.0
 20
749.0
 30
0.0
 11
4050.0
 21
629.0
 31
0.0
  0
LINE
  5
2A9
330
20
100
AcDbEntity
  8
_0-0_
  6
DASHED1
 62
     7
100
AcDbLine
 10
4215.0
 20
749.0
 30
0.0
 11
4230.0
 21
629.0
 31
0.0
  0
LINE
  5
2AA
330
20
100
AcDbEntity
  8
_0-0_
  6
Continuous
 62
     4
100
AcDbLine
 10
4065.0
 20
529.0
 30
0.0
 11
4104.392310120488
 21
535.9459271066773
 31
0.0
  0
LINE
  5
2AB
330
20
100
AcDbEntity
  8
_0-0_
  6
Continuous
 62
     4
100
AcDbLine
 10
4065.0
 20
529.0
 30
0.0
 11
4104.392310120488
 21
522.0540728933226
 31
0.0
  0
LINE
  5
2AC
330
20
100
AcDbEntity
  8
_0-0_
  6
Continuous
 62
     4
100
AcDbLine
 10
4215.0
 20
529.0
 30
0.0
 11
4175.607689879512
 21
535.9459271066773
 31
0.0
  0
LINE
  5
2AD
330
20
100
AcDbEntity
  8
_0-0_
  6
Continuous
 62
     4
100
AcDbLine
 10
4215.0
 20
529.0
 30
0.0
 11
4175.607689879512
 21
522.0540728933226
 31
0.0
  0
LINE
  5
2AE
330
20
100
AcDbEntity
  8
_0-0_
  6
Continuous
 62
     4
100
AcDbLine
 10
4065.0
 20
509.0
 30
0.0
 11
4065.0
 21
609.0
 31
0.0
  0
LINE
  5
2AF
330
20
100
AcDbEntity
  8
_0-0_
  6
Continuous
 62
     4
100
AcDbLine
 10
4215.0
 20
509.0
 30
0.0
 11
4215.0
 21
609.0
 31
0.0
  0
LINE
  5
2B0
330
20
100
AcDbEntity
  8
_0-0_
  6
Continuous
 62
     4
100
AcDbLine
 10
4065.0
 20
689.0
 30
0.0
 11
4065.0
 21
609.0
 31
0.0
  0
LINE
  5
2B1
330
20
100
AcDbEntity
  8
_0-0_
  6
Continuous
 62
     4
100
AcDbLine
 10
4215.0
 20
689.0
 30
0.0
 11
4215.0
 21
609.0
 31
0.0
  0
LINE
  5
2B2
330
20
100
AcDbEntity
  8
_0-0_
  6
Continuous
 62
     4
100
AcDbLine
 10
4065.0
 20
529.0
 30
0.0
 11
4215.0
 21
529.0
 31
0.0
  0
TEXT
  5
2B4
330
20
100
AcDbEntity
  8
_0-0_
 62
     7
100
AcDbText
 10
4028.768039825114
 20
529.0
 30
0.0
 40
100.0
  1
φ150
 41
0.5999999999999999
100
AcDbText
  0
LINE
  5
2B5
330
20
100
AcDbEntity
  8
_0-0_
  6
DASHED1
 62
     7
100
AcDbLine
 10
1705.0
 20
749.0
 30
0.0
 11
1690.0
 21
629.0
 31
0.0
  0
LINE
  5
2B6
330
20
100
AcDbEntity
  8
_0-0_
  6
DASHED1
 62
     7
100
AcDbLine
 10
1855.0
 20
749.0
 30
0.0
 11
1870.0
 21
629.0
 31
0.0
  0
LINE
  5
2B7
330
20
100
AcDbEntity
  8
_0-0_
  6
DASHED1
 62
     7
100
AcDbLine
 10
2145.0
 20
749.0
 30
0.0
 11
2130.0
 21
629.0
 31
0.0
  0
LINE
  5
2B8
330
20
100
AcDbEntity
  8
_0-0_
  6
DASHED1
 62
     7
100
AcDbLine
 10
2295.0
 20
749.0
 30
0.0
 11
2310.0
 21
629.0
 31
0.0
  0
LINE
  5
2B9
330
20
100
AcDbEntity
  8
_0-0_
  6
Continuous
 62
     4
100
AcDbLine
 10
1705.0
 20
529.0
 30
0.0
 11
1744.392310120488
 21
535.9459271066773
 31
0.0
  0
LINE
  5
2BA
330
20
100
AcDbEntity
  8
_0-0_
  6
Continuous
 62
     4
100
AcDbLine
 10
1705.0
 20
529.0
 30
0.0
 11
1744.392310120488
 21
522.0540728933226
 31
0.0
  0
LINE
  5
2BB
330
20
100
AcDbEntity
  8
_0-0_
  6
Continuous
 62
     4
100
AcDbLine
 10
1855.0
 20
529.0
 30
0.0
 11
1815.607689879512
 21
535.9459271066773
 31
0.0
  0
LINE
  5
2BC
330
20
100
AcDbEntity
  8
_0-0_
  6
Continuous
 62
     4
100
AcDbLine
 10
1855.0
 20
529.0
 30
0.0
 11
1815.607689879512
 21
522.0540728933226
 31
0.0
  0
LINE
  5
2BD
330
20
100
AcDbEntity
  8
_0-0_
  6
Continuous
 62
     4
100
AcDbLine
 10
1705.0
 20
509.0
 30
0.0
 11
1705.0
 21
609.0
 31
0.0
  0
LINE
  5
2BE
330
20
100
AcDbEntity
  8
_0-0_
  6
Continuous
 62
     4
100
AcDbLine
 10
1855.0
 20
509.0
 30
0.0
 11
1855.0
 21
609.0
 31
0.0
  0
LINE
  5
2BF
330
20
100
AcDbEntity
  8
_0-0_
  6
Continuous
 62
     4
100
AcDbLine
 10
2145.0
 20
529.0
 30
0.0
 11
2184.392310120488
 21
535.9459271066773
 31
0.0
  0
LINE
  5
2C0
330
20
100
AcDbEntity
  8
_0-0_
  6
Continuous
 62
     4
100
AcDbLine
 10
2145.0
 20
529.0
 30
0.0
 11
2184.392310120488
 21
522.0540728933226
 31
0.0
  0
LINE
  5
2C1
330
20
100
AcDbEntity
  8
_0-0_
  6
Continuous
 62
     4
100
AcDbLine
 10
2295.0
 20
529.0
 30
0.0
 11
2255.607689879512
 21
535.9459271066773
 31
0.0
  0
LINE
  5
2C2
330
20
100
AcDbEntity
  8
_0-0_
  6
Continuous
 62
     4
100
AcDbLine
 10
2295.0
 20
529.0
 30
0.0
 11
2255.607689879512
 21
522.0540728933226
 31
0.0
  0
LINE
  5
2C3
330
20
100
AcDbEntity
  8
_0-0_
  6
Continuous
 62
     4
100
AcDbLine
 10
2145.0
 20
509.0
 30
0.0
 11
2145.0
 21
609.0
 31
0.0
  0
LINE
  5
2C4
330
20
100
AcDbEntity
  8
_0-0_
  6
Continuous
 62
     4
100
AcDbLine
 10
2295.0
 20
509.0
 30
0.0
 11
2295.0
 21
609.0
 31
0.0
  0
LINE
  5
2C5
330
20
100
AcDbEntity
  8
_0-0_
  6
Continuous
 62
     4
100
AcDbLine
 10
1705.0
 20
529.0
 30
0.0
 11
1855.0
 21
529.0
 31
0.0
  0
LINE
  5
2C7
330
20
100
AcDbEntity
  8
_0-0_
  6
Continuous
 62
     4
100
AcDbLine
 10
2145.0
 20
529.0
 30
0.0
 11
2295.0
 21
529.0
 31
0.0
  0
TEXT
  5
2C9
330
20
100
AcDbEntity
  8
_0-0_
 62
     7
100
AcDbText
 10
1679.181443667094
 20
529.0
 30
0.0
 40
100.0
  1
φ150
 41
0.5999999999999999
100
AcDbText
  0
CIRCLE
  5
2CB
330
20
100
AcDbEntity
  8
_0-0_
  6
DASHED1
 62
     7
100
AcDbCircle
 10
1780.0
 20
2820.0
 30
0.0
 40
90.0
  0
LINE
  5
2CC
330
20
100
AcDbEntity
  8
_0-0_
  6
Continuous
 62
     4
100
AcDbLine
 10
1705.0
 20
689.0
 30
0.0
 11
1705.0
 21
609.0
 31
0.0
  0
LINE
  5
2CD
330
20
100
AcDbEntity
  8
_0-0_
  6
Continuous
 62
     4
100
AcDbLine
 10
1855.0
 20
689.0
 30
0.0
 11
1855.0
 21
609.0
 31
0.0
  0
LINE
  5
2CE
330
20
100
AcDbEntity
  8
_0-0_
  6
Continuous
 62
     4
100
AcDbLine
 10
2145.0
 20
689.0
 30
0.0
 11
2145.0
 21
609.0
 31
0.0
  0
LINE
  5
2CF
330
20
100
AcDbEntity
  8
_0-0_
  6
Continuous
 62
     4
100
AcDbLine
 10
2295.0
 20
689.0
 30
0.0
 11
2295.0
 21
609.0
 31
0.0
  0
LINE
  5
2D0
330
20
100
AcDbEntity
  8
_0-0_
  6
CENTER1
 62
     4
100
AcDbLine
 10
1780.0
 20
609.0
 30
0.0
 11
1780.0
 21
829.0
 31
0.0
  0
LINE
  5
2D1
330
20
100
AcDbEntity
  8
_0-0_
  6
CENTER1
 62
     4
100
AcDbLine
 10
2220.0
 20
609.0
 30
0.0
 11
2220.0
 21
829.0
 31
0.0
  0
LINE
  5
2D2
330
20
100
AcDbEntity
  8
_0-0_
  6
CENTER1
 62
     4
100
AcDbLine
 10
4140.0
 20
609.0
 30
0.0
 11
4140.0
 21
829.0
 31
0.0
  0
TEXT
  5
2E2
330
20
100
AcDbEntity
  8
_0-0_
 62
     7
100
AcDbText
 10
2119.181443667094
 20
529.0
 30
0.0
 40
100.0
  1
φ150
 41
0.5999999999999999
100
AcDbText
  0
ENDSEC
  0
SECTION
  2
OBJECTS
  0
DICTIONARY
  5
C
330
0
100
AcDbDictionary
281
     1
  3
ACAD_COLOR
350
1B
  3
ACAD_GROUP
350
D
  3
ACAD_LAYOUT
350
19
  3
ACAD_MATERIAL
350
1A
  3
ACAD_MLINESTYLE
350
16
  3
ACAD_PLOTSETTINGS
350
18
  3
ACAD_PLOTSTYLENAME
350
E
  3
ACDBHEADERROUNDTRIPXREC
350
305
  3
AcDbVariableDictionary
350
2F9
  0
DICTIONARY
  5
1B
102
{ACAD_REACTORS
330
C
102
}
330
C
100
AcDbDictionary
281
     1
  0
DICTIONARY
  5
D
102
{ACAD_REACTORS
330
C
102
}
330
C
100
AcDbDictionary
281
     1
  0
DICTIONARY
  5
19
102
{ACAD_REACTORS
330
C
102
}
330
C
100
AcDbDictionary
281
     1
  3
Model
350
23
  3
レイアウト1
350
1F
  0
DICTIONARY
  5
1A
102
{ACAD_REACTORS
330
C
102
}
330
C
100
AcDbDictionary
281
     1
  0
DICTIONARY
  5
16
102
{ACAD_REACTORS
330
C
102
}
330
C
100
AcDbDictionary
281
     1
  3
Standard
350
17
  0
DICTIONARY
  5
18
102
{ACAD_REACTORS
330
C
102
}
330
C
100
AcDbDictionary
281
     1
  0
ACDBDICTIONARYWDFLT
  5
E
102
{ACAD_REACTORS
330
C
102
}
330
C
100
AcDbDictionary
281
     1
  3
Normal
350
F
100
AcDbDictionaryWithDefault
340
F
  0
DICTIONARY
  5
305
102
{ACAD_REACTORS
330
C
102
}
330
C
100
AcDbDictionary
281
     1
  3
COLORDICT
350
307
  3
MATERIALDICT
350
306
  0
DICTIONARY
  5
2F9
102
{ACAD_REACTORS
330
C
102
}
330
C
100
AcDbDictionary
281
     1
  3
DIMASSOC
350
2FA
  3
PROJECTNAME
350
2FB
  0
LAYOUT
  5
23
102
{ACAD_XDICTIONARY
360
30A
102
}
102
{ACAD_REACTORS
330
19
102
}
330
19
100
AcDbPlotSettings
  1

  2
EPSON LP-S5000
  4

  6

 40
0.0
 41
0.0
 42
0.0
 43
0.0
 44
0.0
 45
0.0
 46
0.0
 47
0.0
 48
0.0
 49
0.0
140
0.0
141
0.0
142
1.0
143
1.0
 70
  1712
 72
     0
 73
     0
 74
     0
  7

 75
     0
147
1.0
148
0.0
149
0.0
100
AcDbLayout
  1
Model
 70
     1
 71
     0
 10
0.0
 20
0.0
 11
12.0
 21
9.0
 12
0.0
 22
0.0
 32
0.0
 14
0.0
 24
0.0
 34
0.0
 15
0.0
 25
0.0
 35
0.0
146
0.0
 13
0.0
 23
0.0
 33
0.0
 16
1.0
 26
0.0
 36
0.0
 17
0.0
 27
1.0
 37
0.0
 76
     0
330
20
  0
LAYOUT
  5
1F
102
{ACAD_XDICTIONARY
360
308
102
}
102
{ACAD_REACTORS
330
19
102
}
330
19
100
AcDbPlotSettings
  1

  2
EPSON LP-S5000
  4

  6

 40
0.0
 41
0.0
 42
0.0
 43
0.0
 44
0.0
 45
0.0
 46
0.0
 47
0.0
 48
0.0
 49
0.0
140
0.0
141
0.0
142
1.0
143
1.0
 70
   688
 72
     0
 73
     0
 74
     5
  7

 75
    16
147
1.0
148
0.0
149
0.0
100
AcDbLayout
  1
レイアウト1
 70
     1
 71
     1
 10
0.0
 20
0.0
 11
12.0
 21
9.0
 12
0.0
 22
0.0
 32
0.0
 14
1.000000000000000E+20
 24
1.000000000000000E+20
 34
1.000000000000000E+20
 15
-1.000000000000000E+20
 25
-1.000000000000000E+20
 35
-1.000000000000000E+20
146
0.0
 13
0.0
 23
0.0
 33
0.0
 16
1.0
 26
0.0
 36
0.0
 17
0.0
 27
1.0
 37
0.0
 76
     0
330
1C
  0
MLINESTYLE
  5
17
102
{ACAD_REACTORS
330
16
102
}
330
16
100
AcDbMlineStyle
  2
STANDARD
 70
     0
  3

 62
   256
 51
90.0
 52
90.0
 71
     2
 49
0.5
 62
   256
  6
BYLAYER
 49
-0.5
 62
   256
  6
BYLAYER
  0
ACDBPLACEHOLDER
  5
F
102
{ACAD_REACTORS
330
E
102
}
330
E
  0
XRECORD
  5
307
102
{ACAD_REACTORS
330
305
102
}
330
305
100
AcDbXrecord
280
     1
340
1B
  0
XRECORD
  5
306
102
{ACAD_REACTORS
330
305
102
}
330
305
100
AcDbXrecord
280
     1
340
1A
  0
DICTIONARYVAR
  5
2FA
102
{ACAD_REACTORS
330
2F9
102
}
330
2F9
100
DictionaryVariables
280
     0
  1
1
  0
DICTIONARYVAR
  5
2FB
102
{ACAD_REACTORS
330
2F9
102
}
330
2F9
100
DictionaryVariables
280
     0
  1

  0
DICTIONARY
  5
30A
330
23
100
AcDbDictionary
280
     1
281
     1
  3
ACAD_XREC_ROUNDTRIP
360
30B
  0
DICTIONARY
  5
308
330
1F
100
AcDbDictionary
280
     1
281
     1
  3
ACAD_XREC_ROUNDTRIP
360
309
  0
XRECORD
  5
30B
102
{ACAD_REACTORS
330
30A
102
}
330
30A
100
AcDbXrecord
280
     1
102
SHADEPLOT
 70
     0
102
SHADEPLOTRESLEVEL
 70
     2
102
SHADEPLOTCUSTOMDPI
 70
   300
  0
XRECORD
  5
309
102
{ACAD_REACTORS
330
308
102
}
330
308
100
AcDbXrecord
280
     1
102
SHADEPLOT
 70
     0
102
SHADEPLOTRESLEVEL
 70
     2
102
SHADEPLOTCUSTOMDPI
 70
   300
  0
ENDSEC
  0
EOF
