 0
SECTION
 2
HEADER
 9
$EXTMIN
 10
0.0
 20
0.0
 9
$EXTMAX
 10
8410.0
 20
5940.0
 9
$LIMMIN
 10
0.0
 20
0.0
 9
$LIMMAX
 10
420.0
 20
297.0
 9
$DIMSTYLE
 2
STANDARD
 9
$DIMBLK
 1

 9
$DIMBLK1
 1

 9
$DIMBLK2
 1

 9
$DIMSCALE
 40
1.0
 9
$DIMASZ
 40
10.0
 9
$DIMEXO
 40
10.0
 9
$DIMDLI
 40
0.0
 9
$DIMEXE
 40
10.0
 9
$DIMDLE
 40
0.0
 9
$DIMTIH
 70
0
 9
$DIMTOH
 70
0
 9
$DIMSD1
 70
0
 9
$DIMSD2
 70
0
 9
$DIMTAD
 70
1
 9
$DIMZIN
 70
12
 9
$DIMTXT
 40
35.0
 9
$DIMGAP
 40
10.0
 9
$DIMSAH
 70
1
 9
$DIMSOXD
 70
0
 9
$LTSCALE
 40
1.0
 0
ENDSEC
 0
SECTION
 2
TABLES
 0
TABLE
 2
APPID
 70
1
 0
ENDTAB
 0
TABLE
 2
LTYPE
 70
5
 0
LTYPE
 2
BYBLOCK
 70
64
 3

 72
65
 73
0
 40
0.0
 0
LTYPE
 2
BYLAYER
 70
64
 3

 72
65
 73
0
 40
0.0
 0
LTYPE
 2
CONTINUOUS
 70
64
 3
Solid_line
 72
65
 73
0
 40
0.0
 0
LTYPE
 2
CENTER
 70
64
 3
______________________________________________
 72
65
 73
4
 40
17.5
 49
13.0
 49
-1.5
 49
1.5
 49
-1.5
 0
LTYPE
 2
DASHED
 70
64
 3
____________________________________________
 72
65
 73
2
 40
3.5
 49
2.0
 49
-1.5
 0
ENDTAB
 0
TABLE
 2
STYLE
 70
2
 0
STYLE
 2
STANDARD
 70
64
 40
0.0
 41
1.0
 50
0.0
 71
0
 42
0.0
 3
simplex.shx
 4
bigfont.shx
 0
STYLE
 2
明朝
 70
64
 40
0.0
 41
1.0
 50
0.0
 71
0
 42
0.0
 3
MS_PMincho.ttf
 4

 0
ENDTAB
 0
TABLE
 2
DIMSTYLE
 70
2
 0
DIMSTYLE
 2
10
 70
64
 3

 4

 5

 6

 7

 40
1.0
 41
10.0
 42
10.0
 43
0.0
 44
10.0
 45
0.0
 46
0.0
 47
0.0
 48
0.0
 140
35.0
 141
0.09
 142
0.0
 143
25.4
 144
1.0
 145
0.0
 146
1.0
 147
10.0
 71
0
 72
0
 73
0
 74
0
 75
0
 76
0
 77
1
 78
12
 170
0
 171
2
 172
0
 173
0
 174
0
 175
0
 176
0
 177
0
 178
0
 0
DIMSTYLE
 2
10-5
 70
64
 3

 4

 5

 6

 7

 40
1.0
 41
10.0
 42
10.0
 43
0.0
 44
10.0
 45
0.0
 46
0.0
 47
0.0
 48
0.0
 140
35.0
 141
0.09
 142
0.0
 143
25.4
 144
1.0
 145
0.0
 146
1.0
 147
10.0
 71
0
 72
0
 73
0
 74
0
 75
0
 76
0
 77
1
 78
12
 170
0
 171
2
 172
0
 173
0
 174
0
 175
0
 176
0
 177
0
 178
0
 0
ENDTAB
 0
TABLE
 2
LAYER
 70
13
 0
LAYER
 2
0
 70
64
 62
6
 6
CONTINUOUS
 0
LAYER
 2
D-STR-DIM
 70
64
 62
7
 6
CONTINUOUS
 0
LAYER
 2
D-TTL-TXT
 70
64
 62
7
 6
CONTINUOUS
 0
LAYER
 2
DEFPOINTS
 70
64
 62
7
 6
CONTINUOUS
 0
LAYER
 2
D-TTL-LINE
 70
64
 62
7
 6
CONTINUOUS
 0
LAYER
 2
D-STR-DIM2
 70
64
 62
7
 6
CONTINUOUS
 0
LAYER
 2
D-STR
 70
64
 62
1
 6
CONTINUOUS
 0
LAYER
 2
D-TTL
 70
64
 62
2
 6
CONTINUOUS
 0
LAYER
 2
D-TTL-FRAM
 70
64
 62
2
 6
CONTINUOUS
 0
LAYER
 2
D-BGD
 70
64
 62
7
 6
CONTINUOUS
 0
LAYER
 2
D-BMK
 70
64
 62
2
 6
CENTER
 0
LAYER
 2
D-STR-HTXT
 70
64
 62
7
 6
CONTINUOUS
 0
LAYER
 2
D-STR-STR2
 70
64
 62
1
 6
CONTINUOUS
 0
ENDTAB
 0
TABLE
 2
UCS
 70
0
 0
ENDTAB
 0
TABLE
 2
VIEW
 70
0
 0
ENDTAB
 0
TABLE
 2
VPORT
 70
0
 0
ENDTAB
 0
ENDSEC
 0
SECTION
 2
ENTITIES
 0
TEXT
 8
D-TTL-TXT
 10
3275.073
 20
5467.909
 30
0.0
 40
100.0
 1
嵩上げブロック構造図　Ｓ　＝　１／１０
 72
1
 11
4225.073
 21
5467.909
 31
0.0
 73
0
 0
TEXT
 8
D-TTL-TXT
 10
1140.264
 20
5208.952
 30
0.0
 40
70.0
 1
ステップ無し
 72
1
 11
1350.264
 21
5208.952
 31
0.0
 73
0
 0
CIRCLE
 8
D-STR
 10
1350.264
 20
4258.236
 30
0.0
 40
405.0
 0
CIRCLE
 8
D-BMK
 10
1350.264
 20
4258.236
 30
0.0
 40
500.0
 0
CIRCLE
 8
D-STR
 10
1350.264
 20
4258.236
 30
0.0
 40
555.0
 0
LINE
 8
D-BMK
 10
745.264
 20
4258.236
 30
0.0
 11
1955.264
 21
4258.236
 31
0.0
 0
LINE
 8
D-BMK
 10
1350.264
 20
4863.236
 30
0.0
 11
1350.264
 21
3653.236
 31
0.0
 0
CIRCLE
 8
D-STR-STR2
 10
850.264
 20
4258.236
 30
0.0
 40
15.0
 0
CIRCLE
 8
D-STR-STR2
 10
1350.264
 20
4758.236
 30
0.0
 40
15.0
 0
CIRCLE
 8
D-STR-STR2
 10
1850.264
 20
4258.236
 30
0.0
 40
15.0
 0
CIRCLE
 8
D-STR-STR2
 10
1350.264
 20
3758.236
 30
0.0
 40
15.0
 0
CIRCLE
 8
D-STR-DIM
 6
CONTINUOUS
 62
7
 10
945.264
 20
3343.236
 30
0.0
 40
5.0
 0
LINE
 8
D-STR-DIM
 6
CONTINUOUS
 62
7
 10
945.264
 20
3343.236
 30
0.0
 11
955.264
 21
3343.236
 31
0.0
 0
CIRCLE
 8
D-STR-DIM
 6
CONTINUOUS
 62
7
 10
1755.264
 20
3343.236
 30
0.0
 40
5.0
 0
LINE
 8
D-STR-DIM
 6
CONTINUOUS
 62
7
 10
1755.264
 20
3343.236
 30
0.0
 11
1745.264
 21
3343.236
 31
0.0
 0
LINE
 8
D-STR-DIM
 6
CONTINUOUS
 62
7
 10
945.264
 20
4248.236
 30
0.0
 11
945.264
 21
3333.236
 31
0.0
 0
LINE
 8
D-STR-DIM
 6
CONTINUOUS
 62
7
 10
1755.264
 20
4248.236
 30
0.0
 11
1755.264
 21
3333.236
 31
0.0
 0
LINE
 8
D-STR-DIM
 6
CONTINUOUS
 62
7
 10
955.264
 20
3343.236
 30
0.0
 11
1745.264
 21
3343.236
 31
0.0
 0
TEXT
 8
D-STR-DIM
 62
7
 10
1297.764
 20
3353.236
 30
0.0
 40
35.0
 1
φ810
 72
1
 11
1350.264
 21
3370.736
 31
0.0
 73
2
 0
POINT
 8
D-STR-DIM
 10
945.264
 20
4258.236
 0
POINT
 8
D-STR-DIM
 10
1755.264
 20
4258.236
 0
POINT
 8
D-STR-DIM
 10
1755.264
 20
3343.236
 0
CIRCLE
 8
D-STR-DIM2
 6
CONTINUOUS
 62
7
 10
850.264
 20
3168.236
 30
0.0
 40
5.0
 0
LINE
 8
D-STR-DIM2
 6
CONTINUOUS
 62
7
 10
850.264
 20
3168.236
 30
0.0
 11
860.264
 21
3168.236
 31
0.0
 0
CIRCLE
 8
D-STR-DIM2
 6
CONTINUOUS
 62
7
 10
1850.264
 20
3168.236
 30
0.0
 40
5.0
 0
LINE
 8
D-STR-DIM2
 6
CONTINUOUS
 62
7
 10
1850.264
 20
3168.236
 30
0.0
 11
1840.264
 21
3168.236
 31
0.0
 0
LINE
 8
D-STR-DIM2
 6
CONTINUOUS
 62
7
 10
850.264
 20
4248.236
 30
0.0
 11
850.264
 21
3158.236
 31
0.0
 0
LINE
 8
D-STR-DIM2
 6
CONTINUOUS
 62
7
 10
1850.264
 20
4248.236
 30
0.0
 11
1850.264
 21
3158.236
 31
0.0
 0
LINE
 8
D-STR-DIM2
 6
CONTINUOUS
 62
7
 10
860.264
 20
3168.236
 30
0.0
 11
1840.264
 21
3168.236
 31
0.0
 0
TEXT
 8
D-STR-DIM2
 62
7
 10
1289.014
 20
3178.236
 30
0.0
 40
35.0
 1
φ1000
 72
1
 11
1350.264
 21
3195.736
 31
0.0
 73
2
 0
POINT
 8
D-STR-DIM2
 10
850.264
 20
4258.236
 0
POINT
 8
D-STR-DIM2
 10
1850.264
 20
4258.236
 0
POINT
 8
D-STR-DIM2
 10
1850.264
 20
3168.236
 0
CIRCLE
 8
D-STR-DIM
 6
CONTINUOUS
 62
7
 10
795.264
 20
3003.236
 30
0.0
 40
5.0
 0
LINE
 8
D-STR-DIM
 6
CONTINUOUS
 62
7
 10
795.264
 20
3003.236
 30
0.0
 11
805.264
 21
3003.236
 31
0.0
 0
CIRCLE
 8
D-STR-DIM
 6
CONTINUOUS
 62
7
 10
1905.264
 20
3003.236
 30
0.0
 40
5.0
 0
LINE
 8
D-STR-DIM
 6
CONTINUOUS
 62
7
 10
1905.264
 20
3003.236
 30
0.0
 11
1895.264
 21
3003.236
 31
0.0
 0
LINE
 8
D-STR-DIM
 6
CONTINUOUS
 62
7
 10
795.264
 20
4248.236
 30
0.0
 11
795.264
 21
2993.236
 31
0.0
 0
LINE
 8
D-STR-DIM
 6
CONTINUOUS
 62
7
 10
1905.264
 20
4248.236
 30
0.0
 11
1905.264
 21
2993.236
 31
0.0
 0
LINE
 8
D-STR-DIM
 6
CONTINUOUS
 62
7
 10
805.264
 20
3003.236
 30
0.0
 11
1895.264
 21
3003.236
 31
0.0
 0
TEXT
 8
D-STR-DIM
 62
7
 10
1289.014
 20
3013.236
 30
0.0
 40
35.0
 1
φ1110
 72
1
 11
1350.264
 21
3030.736
 31
0.0
 73
2
 0
POINT
 8
D-STR-DIM
 10
795.264
 20
4258.236
 0
POINT
 8
D-STR-DIM
 10
1905.264
 20
4258.236
 0
POINT
 8
D-STR-DIM
 10
1905.264
 20
3003.236
 0
TEXT
 8
D-STR-HTXT
 10
1485.119
 20
3586.647
 30
0.0
 40
35.0
 1
蓋取付用穴
 72
0
 11
1485.119
 21
3604.147
 31
0.0
 73
2
 0
TEXT
 8
D-STR-HTXT
 10
1485.119
 20
3528.314
 30
0.0
 40
35.0
 1
　 φ30
 72
0
 11
1485.119
 21
3545.814
 31
0.0
 73
2
 0
CIRCLE
 8
D-STR-DIM2
 6
CONTINUOUS
 62
7
 10
1755.264
 20
4390.944
 30
0.0
 40
5.0
 0
LINE
 8
D-STR-DIM2
 6
CONTINUOUS
 62
7
 10
1755.264
 20
4390.944
 30
0.0
 11
1765.264
 21
4390.944
 31
0.0
 0
CIRCLE
 8
D-STR-DIM2
 6
CONTINUOUS
 62
7
 10
1850.264
 20
4390.944
 30
0.0
 40
5.0
 0
LINE
 8
D-STR-DIM2
 6
CONTINUOUS
 62
7
 10
1850.264
 20
4390.944
 30
0.0
 11
1840.264
 21
4390.944
 31
0.0
 0
LINE
 8
D-STR-DIM2
 6
CONTINUOUS
 62
7
 10
1755.264
 20
4268.236
 30
0.0
 11
1755.264
 21
4400.944
 31
0.0
 0
LINE
 8
D-STR-DIM2
 6
CONTINUOUS
 62
7
 10
1850.264
 20
4268.236
 30
0.0
 11
1850.264
 21
4400.944
 31
0.0
 0
LINE
 8
D-STR-DIM2
 6
CONTINUOUS
 62
7
 10
1765.264
 20
4390.944
 30
0.0
 11
1840.264
 21
4390.944
 31
0.0
 0
TEXT
 8
D-STR-DIM2
 62
7
 10
1890.267
 20
4427.588
 30
0.0
 40
35.0
 1
95
 72
1
 11
1907.767
 21
4445.088
 31
0.0
 73
2
 0
POINT
 8
D-STR-DIM2
 10
1755.264
 20
4258.236
 0
POINT
 8
D-STR-DIM2
 10
1850.264
 20
4258.236
 0
POINT
 8
D-STR-DIM2
 10
1850.264
 20
4390.944
 0
CIRCLE
 8
D-STR-DIM2
 6
CONTINUOUS
 62
7
 10
1943.187
 20
4390.944
 30
0.0
 40
5.0
 0
LINE
 8
D-STR-DIM2
 6
CONTINUOUS
 62
7
 10
1943.187
 20
4390.944
 30
0.0
 11
1933.187
 21
4390.944
 31
0.0
 0
CIRCLE
 8
D-STR-DIM2
 6
CONTINUOUS
 62
7
 10
1998.187
 20
4390.944
 30
0.0
 40
5.0
 0
LINE
 8
D-STR-DIM2
 6
CONTINUOUS
 62
7
 10
1998.187
 20
4390.944
 30
0.0
 11
2008.187
 21
4390.944
 31
0.0
 0
LINE
 8
D-STR-DIM2
 6
CONTINUOUS
 62
7
 10
1857.266
 20
4268.236
 30
0.0
 11
1950.189
 21
4400.944
 31
0.0
 0
LINE
 8
D-STR-DIM2
 6
CONTINUOUS
 62
7
 10
1912.266
 20
4268.236
 30
0.0
 11
2005.189
 21
4400.944
 31
0.0
 0
LINE
 8
D-STR-DIM2
 6
CONTINUOUS
 62
7
 10
1933.187
 20
4390.944
 30
0.0
 11
1923.187
 21
4390.944
 31
0.0
 0
LINE
 8
D-STR-DIM2
 6
CONTINUOUS
 62
7
 10
2008.187
 20
4390.944
 30
0.0
 11
2018.187
 21
4390.944
 31
0.0
 0
LINE
 8
D-STR-DIM2
 6
CONTINUOUS
 62
7
 10
1943.187
 20
4390.944
 30
0.0
 11
1998.187
 21
4390.944
 31
0.0
 0
TEXT
 8
D-STR-DIM2
 62
7
 10
1953.187
 20
4400.944
 30
0.0
 40
35.0
 1
55
 72
1
 11
1970.687
 21
4418.444
 31
0.0
 73
2
 0
POINT
 8
D-STR-DIM2
 10
1850.264
 20
4258.236
 0
POINT
 8
D-STR-DIM2
 10
1905.264
 20
4258.236
 0
POINT
 8
D-STR-DIM2
 10
1998.187
 20
4390.944
 0
CIRCLE
 8
D-STR-DIM2
 6
CONTINUOUS
 62
7
 10
3655.264
 20
4390.944
 30
0.0
 40
5.0
 0
LINE
 8
D-STR-DIM2
 6
CONTINUOUS
 62
7
 10
3655.264
 20
4390.944
 30
0.0
 11
3665.264
 21
4390.944
 31
0.0
 0
CIRCLE
 8
D-STR-DIM2
 6
CONTINUOUS
 62
7
 10
3750.264
 20
4390.944
 30
0.0
 40
5.0
 0
LINE
 8
D-STR-DIM2
 6
CONTINUOUS
 62
7
 10
3750.264
 20
4390.944
 30
0.0
 11
3740.264
 21
4390.944
 31
0.0
 0
LINE
 8
D-STR-DIM2
 6
CONTINUOUS
 62
7
 10
3655.264
 20
4268.236
 30
0.0
 11
3655.264
 21
4400.944
 31
0.0
 0
LINE
 8
D-STR-DIM2
 6
CONTINUOUS
 62
7
 10
3750.264
 20
4268.236
 30
0.0
 11
3750.264
 21
4400.944
 31
0.0
 0
LINE
 8
D-STR-DIM2
 6
CONTINUOUS
 62
7
 10
3665.264
 20
4390.944
 30
0.0
 11
3740.264
 21
4390.944
 31
0.0
 0
TEXT
 8
D-STR-DIM2
 62
7
 10
3790.267
 20
4427.588
 30
0.0
 40
35.0
 1
95
 72
1
 11
3807.767
 21
4445.088
 31
0.0
 73
2
 0
POINT
 8
D-STR-DIM2
 10
3655.264
 20
4258.236
 0
POINT
 8
D-STR-DIM2
 10
3750.264
 20
4258.236
 0
POINT
 8
D-STR-DIM2
 10
3750.264
 20
4390.944
 0
CIRCLE
 8
D-STR-DIM2
 6
CONTINUOUS
 62
7
 10
3843.187
 20
4390.944
 30
0.0
 40
5.0
 0
LINE
 8
D-STR-DIM2
 6
CONTINUOUS
 62
7
 10
3843.187
 20
4390.944
 30
0.0
 11
3833.187
 21
4390.944
 31
0.0
 0
CIRCLE
 8
D-STR-DIM2
 6
CONTINUOUS
 62
7
 10
3898.187
 20
4390.944
 30
0.0
 40
5.0
 0
LINE
 8
D-STR-DIM2
 6
CONTINUOUS
 62
7
 10
3898.187
 20
4390.944
 30
0.0
 11
3908.187
 21
4390.944
 31
0.0
 0
LINE
 8
D-STR-DIM2
 6
CONTINUOUS
 62
7
 10
3757.266
 20
4268.236
 30
0.0
 11
3850.189
 21
4400.944
 31
0.0
 0
LINE
 8
D-STR-DIM2
 6
CONTINUOUS
 62
7
 10
3812.266
 20
4268.236
 30
0.0
 11
3905.189
 21
4400.944
 31
0.0
 0
LINE
 8
D-STR-DIM2
 6
CONTINUOUS
 62
7
 10
3833.187
 20
4390.944
 30
0.0
 11
3823.187
 21
4390.944
 31
0.0
 0
LINE
 8
D-STR-DIM2
 6
CONTINUOUS
 62
7
 10
3908.187
 20
4390.944
 30
0.0
 11
3918.187
 21
4390.944
 31
0.0
 0
LINE
 8
D-STR-DIM2
 6
CONTINUOUS
 62
7
 10
3843.187
 20
4390.944
 30
0.0
 11
3898.187
 21
4390.944
 31
0.0
 0
TEXT
 8
D-STR-DIM2
 62
7
 10
3853.187
 20
4400.944
 30
0.0
 40
35.0
 1
55
 72
1
 11
3870.687
 21
4418.444
 31
0.0
 73
2
 0
POINT
 8
D-STR-DIM2
 10
3750.264
 20
4258.236
 0
POINT
 8
D-STR-DIM2
 10
3805.264
 20
4258.236
 0
POINT
 8
D-STR-DIM2
 10
3898.187
 20
4390.944
 0
LINE
 8
D-BMK
 10
3250.264
 20
4863.236
 30
0.0
 11
3250.264
 21
3653.236
 31
0.0
 0
CIRCLE
 8
D-BMK
 10
3250.264
 20
4258.236
 30
0.0
 40
500.0
 0
CIRCLE
 8
D-STR
 10
3250.264
 20
4258.236
 30
0.0
 40
555.0
 0
CIRCLE
 8
D-STR
 10
3250.264
 20
4258.236
 30
0.0
 40
405.0
 0
CIRCLE
 8
D-STR-DIM
 6
CONTINUOUS
 62
7
 10
2695.264
 20
3003.236
 30
0.0
 40
5.0
 0
LINE
 8
D-STR-DIM
 6
CONTINUOUS
 62
7
 10
2695.264
 20
3003.236
 30
0.0
 11
2705.264
 21
3003.236
 31
0.0
 0
CIRCLE
 8
D-STR-DIM
 6
CONTINUOUS
 62
7
 10
3805.264
 20
3003.236
 30
0.0
 40
5.0
 0
LINE
 8
D-STR-DIM
 6
CONTINUOUS
 62
7
 10
3805.264
 20
3003.236
 30
0.0
 11
3795.264
 21
3003.236
 31
0.0
 0
LINE
 8
D-STR-DIM
 6
CONTINUOUS
 62
7
 10
2695.264
 20
4248.236
 30
0.0
 11
2695.264
 21
2993.236
 31
0.0
 0
LINE
 8
D-STR-DIM
 6
CONTINUOUS
 62
7
 10
3805.264
 20
4248.236
 30
0.0
 11
3805.264
 21
2993.236
 31
0.0
 0
LINE
 8
D-STR-DIM
 6
CONTINUOUS
 62
7
 10
2705.264
 20
3003.236
 30
0.0
 11
3795.264
 21
3003.236
 31
0.0
 0
TEXT
 8
D-STR-DIM
 62
7
 10
3189.014
 20
3013.236
 30
0.0
 40
35.0
 1
φ1110
 72
1
 11
3250.264
 21
3030.736
 31
0.0
 73
2
 0
POINT
 8
D-STR-DIM
 10
2695.264
 20
4258.236
 0
POINT
 8
D-STR-DIM
 10
3805.264
 20
4258.236
 0
POINT
 8
D-STR-DIM
 10
3805.264
 20
3003.236
 0
CIRCLE
 8
D-STR-DIM2
 6
CONTINUOUS
 62
7
 10
2750.264
 20
3168.236
 30
0.0
 40
5.0
 0
LINE
 8
D-STR-DIM2
 6
CONTINUOUS
 62
7
 10
2750.264
 20
3168.236
 30
0.0
 11
2760.264
 21
3168.236
 31
0.0
 0
CIRCLE
 8
D-STR-DIM2
 6
CONTINUOUS
 62
7
 10
3750.264
 20
3168.236
 30
0.0
 40
5.0
 0
LINE
 8
D-STR-DIM2
 6
CONTINUOUS
 62
7
 10
3750.264
 20
3168.236
 30
0.0
 11
3740.264
 21
3168.236
 31
0.0
 0
LINE
 8
D-STR-DIM2
 6
CONTINUOUS
 62
7
 10
2750.264
 20
4248.236
 30
0.0
 11
2750.264
 21
3158.236
 31
0.0
 0
LINE
 8
D-STR-DIM2
 6
CONTINUOUS
 62
7
 10
3750.264
 20
4248.236
 30
0.0
 11
3750.264
 21
3158.236
 31
0.0
 0
LINE
 8
D-STR-DIM2
 6
CONTINUOUS
 62
7
 10
2760.264
 20
3168.236
 30
0.0
 11
3740.264
 21
3168.236
 31
0.0
 0
TEXT
 8
D-STR-DIM2
 62
7
 10
3189.014
 20
3178.236
 30
0.0
 40
35.0
 1
φ1000
 72
1
 11
3250.264
 21
3195.736
 31
0.0
 73
2
 0
POINT
 8
D-STR-DIM2
 10
2750.264
 20
4258.236
 0
POINT
 8
D-STR-DIM2
 10
3750.264
 20
4258.236
 0
POINT
 8
D-STR-DIM2
 10
3750.264
 20
3168.236
 0
CIRCLE
 8
D-STR-DIM
 6
CONTINUOUS
 62
7
 10
2845.264
 20
3343.236
 30
0.0
 40
5.0
 0
LINE
 8
D-STR-DIM
 6
CONTINUOUS
 62
7
 10
2845.264
 20
3343.236
 30
0.0
 11
2855.264
 21
3343.236
 31
0.0
 0
CIRCLE
 8
D-STR-DIM
 6
CONTINUOUS
 62
7
 10
3655.264
 20
3343.236
 30
0.0
 40
5.0
 0
LINE
 8
D-STR-DIM
 6
CONTINUOUS
 62
7
 10
3655.264
 20
3343.236
 30
0.0
 11
3645.264
 21
3343.236
 31
0.0
 0
LINE
 8
D-STR-DIM
 6
CONTINUOUS
 62
7
 10
2845.264
 20
4248.236
 30
0.0
 11
2845.264
 21
3333.236
 31
0.0
 0
LINE
 8
D-STR-DIM
 6
CONTINUOUS
 62
7
 10
3655.264
 20
4248.236
 30
0.0
 11
3655.264
 21
3333.236
 31
0.0
 0
LINE
 8
D-STR-DIM
 6
CONTINUOUS
 62
7
 10
2855.264
 20
3343.236
 30
0.0
 11
3645.264
 21
3343.236
 31
0.0
 0
TEXT
 8
D-STR-DIM
 62
7
 10
3197.764
 20
3353.236
 30
0.0
 40
35.0
 1
φ810
 72
1
 11
3250.264
 21
3370.736
 31
0.0
 73
2
 0
POINT
 8
D-STR-DIM
 10
2845.264
 20
4258.236
 0
POINT
 8
D-STR-DIM
 10
3655.264
 20
4258.236
 0
POINT
 8
D-STR-DIM
 10
3655.264
 20
3343.236
 0
CIRCLE
 8
D-STR-STR2
 10
3250.264
 20
3758.236
 30
0.0
 40
15.0
 0
CIRCLE
 8
D-STR-STR2
 10
3750.264
 20
4258.236
 30
0.0
 40
15.0
 0
CIRCLE
 8
D-STR-STR2
 10
2750.264
 20
4258.236
 30
0.0
 40
15.0
 0
LINE
 8
D-BMK
 10
2645.264
 20
4258.236
 30
0.0
 11
3855.264
 21
4258.236
 31
0.0
 0
CIRCLE
 8
D-STR-STR2
 10
3250.264
 20
4758.236
 30
0.0
 40
15.0
 0
LINE
 8
D-BMK
 10
3130.264
 20
4645.05
 30
0.0
 11
3130.264
 21
4595.05
 31
0.0
 0
ARC
 8
D-BMK
 10
3160.264
 20
4595.05
 30
0.0
 40
30.0
 50
180.0000000001
 51
270.0
 0
LINE
 8
D-BMK
 10
3160.264
 20
4565.05
 30
0.0
 11
3340.264
 21
4565.05
 31
0.0
 0
ARC
 8
D-BMK
 10
3340.264
 20
4595.05
 30
0.0
 40
30.0
 50
270.0
 51
0.0000000002
 0
LINE
 8
D-BMK
 10
3370.264
 20
4595.05
 30
0.0
 11
3370.264
 21
4645.05
 31
0.0
 0
CIRCLE
 8
D-STR-DIM2
 6
CONTINUOUS
 62
7
 10
3543.902
 20
4645.05
 30
0.0
 40
5.0
 0
LINE
 8
D-STR-DIM2
 6
CONTINUOUS
 62
7
 10
3543.902
 20
4645.05
 30
0.0
 11
3543.902
 21
4635.05
 31
0.0
 0
CIRCLE
 8
D-STR-DIM2
 6
CONTINUOUS
 62
7
 10
3543.902
 20
4565.05
 30
0.0
 40
5.0
 0
LINE
 8
D-STR-DIM2
 6
CONTINUOUS
 62
7
 10
3543.902
 20
4565.05
 30
0.0
 11
3543.902
 21
4575.05
 31
0.0
 0
LINE
 8
D-STR-DIM2
 6
CONTINUOUS
 62
7
 10
3380.264
 20
4645.05
 30
0.0
 11
3553.902
 21
4645.05
 31
0.0
 0
LINE
 8
D-STR-DIM2
 6
CONTINUOUS
 62
7
 10
3380.264
 20
4565.05
 30
0.0
 11
3553.902
 21
4565.05
 31
0.0
 0
LINE
 8
D-STR-DIM2
 6
CONTINUOUS
 62
7
 10
3543.902
 20
4635.05
 30
0.0
 11
3543.902
 21
4575.05
 31
0.0
 0
TEXT
 8
D-STR-DIM2
 62
7
 10
3533.902
 20
4587.55
 30
0.0
 40
35.0
 1
80
 50
90.0
 72
1
 11
3516.402
 21
4605.05
 31
0.0
 73
2
 0
POINT
 8
D-STR-DIM2
 10
3370.264
 20
4645.05
 0
POINT
 8
D-STR-DIM2
 10
3370.264
 20
4565.05
 0
POINT
 8
D-STR-DIM2
 10
3543.902
 20
4565.05
 0
CIRCLE
 8
D-STR-DIM2
 6
CONTINUOUS
 62
7
 10
3130.264
 20
4472.559
 30
0.0
 40
5.0
 0
LINE
 8
D-STR-DIM2
 6
CONTINUOUS
 62
7
 10
3130.264
 20
4472.559
 30
0.0
 11
3140.264
 21
4472.559
 31
0.0
 0
CIRCLE
 8
D-STR-DIM2
 6
CONTINUOUS
 62
7
 10
3370.264
 20
4472.559
 30
0.0
 40
5.0
 0
LINE
 8
D-STR-DIM2
 6
CONTINUOUS
 62
7
 10
3370.264
 20
4472.559
 30
0.0
 11
3360.264
 21
4472.559
 31
0.0
 0
LINE
 8
D-STR-DIM2
 6
CONTINUOUS
 62
7
 10
3130.264
 20
4555.05
 30
0.0
 11
3130.264
 21
4462.559
 31
0.0
 0
LINE
 8
D-STR-DIM2
 6
CONTINUOUS
 62
7
 10
3370.264
 20
4555.05
 30
0.0
 11
3370.264
 21
4462.559
 31
0.0
 0
LINE
 8
D-STR-DIM2
 6
CONTINUOUS
 62
7
 10
3140.264
 20
4472.559
 30
0.0
 11
3360.264
 21
4472.559
 31
0.0
 0
TEXT
 8
D-STR-DIM2
 62
7
 10
3224.014
 20
4482.559
 30
0.0
 40
35.0
 1
240
 72
1
 11
3250.264
 21
4500.059
 31
0.0
 73
2
 0
POINT
 8
D-STR-DIM2
 10
3130.264
 20
4565.05
 0
POINT
 8
D-STR-DIM2
 10
3370.264
 20
4565.05
 0
POINT
 8
D-STR-DIM2
 10
3370.264
 20
4472.559
 0
CIRCLE
 8
D-STR-DIM
 6
CONTINUOUS
 62
7
 10
4595.264
 20
3003.236
 30
0.0
 40
5.0
 0
LINE
 8
D-STR-DIM
 6
CONTINUOUS
 62
7
 10
4595.264
 20
3003.236
 30
0.0
 11
4605.264
 21
3003.236
 31
0.0
 0
CIRCLE
 8
D-STR-DIM
 6
CONTINUOUS
 62
7
 10
5705.264
 20
3003.236
 30
0.0
 40
5.0
 0
LINE
 8
D-STR-DIM
 6
CONTINUOUS
 62
7
 10
5705.264
 20
3003.236
 30
0.0
 11
5695.264
 21
3003.236
 31
0.0
 0
LINE
 8
D-STR-DIM
 6
CONTINUOUS
 62
7
 10
4595.264
 20
4248.236
 30
0.0
 11
4595.264
 21
2993.236
 31
0.0
 0
LINE
 8
D-STR-DIM
 6
CONTINUOUS
 62
7
 10
5705.264
 20
4248.236
 30
0.0
 11
5705.264
 21
2993.236
 31
0.0
 0
LINE
 8
D-STR-DIM
 6
CONTINUOUS
 62
7
 10
4605.264
 20
3003.236
 30
0.0
 11
5695.264
 21
3003.236
 31
0.0
 0
TEXT
 8
D-STR-DIM
 62
7
 10
5089.014
 20
3013.236
 30
0.0
 40
35.0
 1
φ1110
 72
1
 11
5150.264
 21
3030.736
 31
0.0
 73
2
 0
POINT
 8
D-STR-DIM
 10
4595.264
 20
4258.236
 0
POINT
 8
D-STR-DIM
 10
5705.264
 20
4258.236
 0
POINT
 8
D-STR-DIM
 10
5705.264
 20
3003.236
 0
ARC
 8
D-STR
 10
5150.264
 20
4258.236
 30
0.0
 40
405.0
 50
272.1225513621
 51
357.8774486379
 0
ARC
 8
D-STR
 10
5150.264
 20
4258.236
 30
0.0
 40
555.0
 50
271.5487231672
 51
358.4512768328
 0
LINE
 8
D-BMK
 10
5150.264
 20
4863.236
 30
0.0
 11
5150.264
 21
3653.236
 31
0.0
 0
CIRCLE
 8
D-STR-DIM
 6
CONTINUOUS
 62
7
 10
5289.798
 20
4258.236
 30
0.0
 40
5.0
 0
LINE
 8
D-STR-DIM
 6
CONTINUOUS
 62
7
 10
5289.798
 20
4258.236
 30
0.0
 11
5289.44
 21
4268.23
 31
0.0
 0
CIRCLE
 8
D-STR-DIM
 6
CONTINUOUS
 62
7
 10
5150.264
 20
4397.771
 30
0.0
 40
5.0
 0
LINE
 8
D-STR-DIM
 6
CONTINUOUS
 62
7
 10
5150.264
 20
4397.771
 30
0.0
 11
5160.257
 21
4397.412
 31
0.0
 0
ARC
 8
D-STR-DIM
 6
CONTINUOUS
 62
7
 10
5150.264
 20
4258.236
 30
0.0
 40
139.534
 50
4.1070963927
 51
85.8929036073
 0
TEXT
 8
D-STR-DIM
 62
7
 10
5208.86
 20
4415.828
 30
0.0
 40
35.0
 1
90°0'0"
 50
315.0
 72
1
 11
5270.732
 21
4378.704
 31
0.0
 73
2
 0
POINT
 8
D-STR-DIM
 10
5271.104
 20
4328.003
 0
POINT
 8
D-STR-DIM
 10
5150.264
 20
4863.236
 0
POINT
 8
D-STR-DIM
 10
4545.264
 20
4258.236
 0
POINT
 8
D-STR-DIM
 10
5755.264
 20
4258.236
 0
POINT
 8
D-STR-DIM
 10
5150.264
 20
3653.236
 0
LINE
 8
D-BMK
 10
4545.264
 20
4258.236
 30
0.0
 11
5755.264
 21
4258.236
 31
0.0
 0
CIRCLE
 8
D-STR-DIM
 6
CONTINUOUS
 62
7
 10
4745.264
 20
3343.236
 30
0.0
 40
5.0
 0
LINE
 8
D-STR-DIM
 6
CONTINUOUS
 62
7
 10
4745.264
 20
3343.236
 30
0.0
 11
4755.264
 21
3343.236
 31
0.0
 0
CIRCLE
 8
D-STR-DIM
 6
CONTINUOUS
 62
7
 10
5555.264
 20
3343.236
 30
0.0
 40
5.0
 0
LINE
 8
D-STR-DIM
 6
CONTINUOUS
 62
7
 10
5555.264
 20
3343.236
 30
0.0
 11
5545.264
 21
3343.236
 31
0.0
 0
LINE
 8
D-STR-DIM
 6
CONTINUOUS
 62
7
 10
4745.264
 20
4248.236
 30
0.0
 11
4745.264
 21
3333.236
 31
0.0
 0
LINE
 8
D-STR-DIM
 6
CONTINUOUS
 62
7
 10
5555.264
 20
4248.236
 30
0.0
 11
5555.264
 21
3333.236
 31
0.0
 0
LINE
 8
D-STR-DIM
 6
CONTINUOUS
 62
7
 10
4755.264
 20
3343.236
 30
0.0
 11
5545.264
 21
3343.236
 31
0.0
 0
TEXT
 8
D-STR-DIM
 62
7
 10
5097.764
 20
3353.236
 30
0.0
 40
35.0
 1
φ810
 72
1
 11
5150.264
 21
3370.736
 31
0.0
 73
2
 0
POINT
 8
D-STR-DIM
 10
4745.264
 20
4258.236
 0
POINT
 8
D-STR-DIM
 10
5555.264
 20
4258.236
 0
POINT
 8
D-STR-DIM
 10
5555.264
 20
3343.236
 0
ARC
 8
D-STR
 10
5150.264
 20
4258.236
 30
0.0
 40
555.0
 50
91.5487231672
 51
178.4512768328
 0
ARC
 8
D-STR
 10
5150.264
 20
4258.236
 30
0.0
 40
405.0
 50
92.1225513621
 51
177.8774486379
 0
LINE
 8
D-STR
 10
5165.264
 20
4813.034
 30
0.0
 11
5165.264
 21
4662.959
 31
0.0
 0
LINE
 8
D-STR
 10
5135.264
 20
4813.034
 30
0.0
 11
5135.264
 21
4662.959
 31
0.0
 0
LINE
 8
D-STR
 10
5165.264
 20
3853.514
 30
0.0
 11
5165.264
 21
3703.439
 31
0.0
 0
LINE
 8
D-STR
 10
5135.264
 20
3853.514
 30
0.0
 11
5135.264
 21
3703.439
 31
0.0
 0
ARC
 8
D-STR
 10
5150.264
 20
4258.236
 30
0.0
 40
405.0
 50
182.1225513621
 51
267.8774486379
 0
ARC
 8
D-STR
 10
5150.264
 20
4258.236
 30
0.0
 40
555.0
 50
181.5487231672
 51
268.4512768328
 0
ARC
 8
D-STR
 10
5150.264
 20
4258.236
 30
0.0
 40
405.0
 50
2.1225513621
 51
87.8774486379
 0
ARC
 8
D-STR
 10
5150.264
 20
4258.236
 30
0.0
 40
555.0
 50
1.5487231672
 51
88.4512768328
 0
LINE
 8
D-STR
 10
5554.986
 20
4243.236
 30
0.0
 11
5705.061
 21
4243.236
 31
0.0
 0
LINE
 8
D-STR
 10
5554.986
 20
4273.236
 30
0.0
 11
5705.061
 21
4273.236
 31
0.0
 0
LINE
 8
D-STR
 10
4745.542
 20
4273.236
 30
0.0
 11
4595.467
 21
4273.236
 31
0.0
 0
LINE
 8
D-STR
 10
4745.542
 20
4243.236
 30
0.0
 11
4595.467
 21
4243.236
 31
0.0
 0
CIRCLE
 8
D-STR-DIM
 6
CONTINUOUS
 62
7
 10
5135.264
 20
5115.455
 30
0.0
 40
5.0
 0
LINE
 8
D-STR-DIM
 6
CONTINUOUS
 62
7
 10
5135.264
 20
5115.455
 30
0.0
 11
5125.264
 21
5115.455
 31
0.0
 0
CIRCLE
 8
D-STR-DIM
 6
CONTINUOUS
 62
7
 10
5165.264
 20
5115.455
 30
0.0
 40
5.0
 0
LINE
 8
D-STR-DIM
 6
CONTINUOUS
 62
7
 10
5165.264
 20
5115.455
 30
0.0
 11
5175.264
 21
5115.455
 31
0.0
 0
LINE
 8
D-STR-DIM
 6
CONTINUOUS
 62
7
 10
5135.264
 20
4823.034
 30
0.0
 11
5135.264
 21
5125.455
 31
0.0
 0
LINE
 8
D-STR-DIM
 6
CONTINUOUS
 62
7
 10
5165.264
 20
4823.034
 30
0.0
 11
5165.264
 21
5125.455
 31
0.0
 0
LINE
 8
D-STR-DIM
 6
CONTINUOUS
 62
7
 10
5125.264
 20
5115.455
 30
0.0
 11
5115.264
 21
5115.455
 31
0.0
 0
LINE
 8
D-STR-DIM
 6
CONTINUOUS
 62
7
 10
5175.264
 20
5115.455
 30
0.0
 11
5185.264
 21
5115.455
 31
0.0
 0
LINE
 8
D-STR-DIM
 6
CONTINUOUS
 62
7
 10
5135.264
 20
5115.455
 30
0.0
 11
5165.264
 21
5115.455
 31
0.0
 0
TEXT
 8
D-STR-DIM
 62
7
 10
5132.764
 20
5125.455
 30
0.0
 40
35.0
 1
30
 72
1
 11
5150.264
 21
5142.955
 31
0.0
 73
2
 0
POINT
 8
D-STR-DIM
 10
5135.264
 20
4813.034
 0
POINT
 8
D-STR-DIM
 10
5165.264
 20
4813.034
 0
POINT
 8
D-STR-DIM
 10
5165.264
 20
5115.455
 0
CIRCLE
 8
D-STR-DIM
 6
CONTINUOUS
 62
7
 10
6066.78
 20
4273.236
 30
0.0
 40
5.0
 0
LINE
 8
D-STR-DIM
 6
CONTINUOUS
 62
7
 10
6066.78
 20
4273.236
 30
0.0
 11
6066.78
 21
4283.236
 31
0.0
 0
CIRCLE
 8
D-STR-DIM
 6
CONTINUOUS
 62
7
 10
6066.78
 20
4243.236
 30
0.0
 40
5.0
 0
LINE
 8
D-STR-DIM
 6
CONTINUOUS
 62
7
 10
6066.78
 20
4243.236
 30
0.0
 11
6066.78
 21
4233.236
 31
0.0
 0
LINE
 8
D-STR-DIM
 6
CONTINUOUS
 62
7
 10
5715.061
 20
4273.236
 30
0.0
 11
6076.78
 21
4273.236
 31
0.0
 0
LINE
 8
D-STR-DIM
 6
CONTINUOUS
 62
7
 10
5715.061
 20
4243.236
 30
0.0
 11
6076.78
 21
4243.236
 31
0.0
 0
LINE
 8
D-STR-DIM
 6
CONTINUOUS
 62
7
 10
6066.78
 20
4283.236
 30
0.0
 11
6066.78
 21
4293.236
 31
0.0
 0
LINE
 8
D-STR-DIM
 6
CONTINUOUS
 62
7
 10
6066.78
 20
4233.236
 30
0.0
 11
6066.78
 21
4223.236
 31
0.0
 0
LINE
 8
D-STR-DIM
 6
CONTINUOUS
 62
7
 10
6066.78
 20
4273.236
 30
0.0
 11
6066.78
 21
4243.236
 31
0.0
 0
TEXT
 8
D-STR-DIM
 62
7
 10
6056.78
 20
4240.736
 30
0.0
 40
35.0
 1
30
 50
90.0
 72
1
 11
6039.28
 21
4258.236
 31
0.0
 73
2
 0
POINT
 8
D-STR-DIM
 10
5705.061
 20
4273.236
 0
POINT
 8
D-STR-DIM
 10
5705.061
 20
4243.236
 0
POINT
 8
D-STR-DIM
 10
6066.78
 20
4243.236
 0
LINE
 8
D-STR
 10
795.264
 20
2493.236
 30
0.0
 11
795.264
 21
2393.236
 31
0.0
 0
LINE
 8
D-STR
 10
1905.264
 20
2493.236
 30
0.0
 11
1905.264
 21
2393.236
 31
0.0
 0
LINE
 8
D-STR
 10
795.264
 20
2493.236
 30
0.0
 11
1905.264
 21
2493.236
 31
0.0
 0
LINE
 8
D-STR
 10
795.264
 20
2393.236
 30
0.0
 11
1905.264
 21
2393.236
 31
0.0
 0
LINE
 8
D-BMK
 10
1350.264
 20
2543.236
 30
0.0
 11
1350.264
 21
2343.236
 31
0.0
 0
LINE
 8
D-STR-STR2
 6
DASHED
 10
1335.264
 20
2493.236
 30
0.0
 11
1335.264
 21
2393.236
 31
0.0
 0
LINE
 8
D-STR-STR2
 6
DASHED
 10
1365.264
 20
2493.236
 30
0.0
 11
1365.264
 21
2393.236
 31
0.0
 0
LINE
 8
D-BMK
 10
1850.264
 20
2543.236
 30
0.0
 11
1850.264
 21
2343.236
 31
0.0
 0
LINE
 8
D-STR-STR2
 6
DASHED
 10
1835.264
 20
2493.236
 30
0.0
 11
1835.264
 21
2393.236
 31
0.0
 0
LINE
 8
D-STR-STR2
 6
DASHED
 10
1865.264
 20
2493.236
 30
0.0
 11
1865.264
 21
2393.236
 31
0.0
 0
LINE
 8
D-BMK
 10
850.264
 20
2543.236
 30
0.0
 11
850.264
 21
2343.236
 31
0.0
 0
LINE
 8
D-STR-STR2
 6
DASHED
 10
835.264
 20
2493.236
 30
0.0
 11
835.264
 21
2393.236
 31
0.0
 0
LINE
 8
D-STR-STR2
 6
DASHED
 10
865.264
 20
2493.236
 30
0.0
 11
865.264
 21
2393.236
 31
0.0
 0
LINE
 8
D-STR
 6
DASHED
 10
1755.264
 20
2493.236
 30
0.0
 11
1755.264
 21
2393.236
 31
0.0
 0
LINE
 8
D-STR
 6
DASHED
 10
945.264
 20
2493.236
 30
0.0
 11
945.264
 21
2393.236
 31
0.0
 0
CIRCLE
 8
D-STR-DIM
 6
CONTINUOUS
 62
7
 10
795.264
 20
1970.459
 30
0.0
 40
5.0
 0
LINE
 8
D-STR-DIM
 6
CONTINUOUS
 62
7
 10
795.264
 20
1970.459
 30
0.0
 11
805.264
 21
1970.459
 31
0.0
 0
CIRCLE
 8
D-STR-DIM
 6
CONTINUOUS
 62
7
 10
1905.264
 20
1970.459
 30
0.0
 40
5.0
 0
LINE
 8
D-STR-DIM
 6
CONTINUOUS
 62
7
 10
1905.264
 20
1970.459
 30
0.0
 11
1895.264
 21
1970.459
 31
0.0
 0
LINE
 8
D-STR-DIM
 6
CONTINUOUS
 62
7
 10
795.264
 20
2383.236
 30
0.0
 11
795.264
 21
1960.459
 31
0.0
 0
LINE
 8
D-STR-DIM
 6
CONTINUOUS
 62
7
 10
1905.264
 20
2383.236
 30
0.0
 11
1905.264
 21
1960.459
 31
0.0
 0
LINE
 8
D-STR-DIM
 6
CONTINUOUS
 62
7
 10
805.264
 20
1970.459
 30
0.0
 11
1895.264
 21
1970.459
 31
0.0
 0
TEXT
 8
D-STR-DIM
 62
7
 10
1289.014
 20
1980.459
 30
0.0
 40
35.0
 1
φ1110
 72
1
 11
1350.264
 21
1997.959
 31
0.0
 73
2
 0
POINT
 8
D-STR-DIM
 10
795.264
 20
2393.236
 0
POINT
 8
D-STR-DIM
 10
1905.264
 20
2393.236
 0
POINT
 8
D-STR-DIM
 10
1905.264
 20
1970.459
 0
CIRCLE
 8
D-STR-DIM
 6
CONTINUOUS
 62
7
 10
945.264
 20
2145.459
 30
0.0
 40
5.0
 0
LINE
 8
D-STR-DIM
 6
CONTINUOUS
 62
7
 10
945.264
 20
2145.459
 30
0.0
 11
955.264
 21
2145.459
 31
0.0
 0
CIRCLE
 8
D-STR-DIM
 6
CONTINUOUS
 62
7
 10
1755.264
 20
2145.459
 30
0.0
 40
5.0
 0
LINE
 8
D-STR-DIM
 6
CONTINUOUS
 62
7
 10
1755.264
 20
2145.459
 30
0.0
 11
1745.264
 21
2145.459
 31
0.0
 0
LINE
 8
D-STR-DIM
 6
CONTINUOUS
 62
7
 10
945.264
 20
2383.236
 30
0.0
 11
945.264
 21
2135.459
 31
0.0
 0
LINE
 8
D-STR-DIM
 6
CONTINUOUS
 62
7
 10
1755.264
 20
2383.236
 30
0.0
 11
1755.264
 21
2135.459
 31
0.0
 0
LINE
 8
D-STR-DIM
 6
CONTINUOUS
 62
7
 10
955.264
 20
2145.459
 30
0.0
 11
1745.264
 21
2145.459
 31
0.0
 0
TEXT
 8
D-STR-DIM
 62
7
 10
1297.764
 20
2155.459
 30
0.0
 40
35.0
 1
φ810
 72
1
 11
1350.264
 21
2172.959
 31
0.0
 73
2
 0
POINT
 8
D-STR-DIM
 10
945.264
 20
2393.236
 0
POINT
 8
D-STR-DIM
 10
1755.264
 20
2393.236
 0
POINT
 8
D-STR-DIM
 10
1755.264
 20
2145.459
 0
CIRCLE
 8
D-STR-DIM
 6
CONTINUOUS
 62
7
 10
1755.264
 20
2145.459
 30
0.0
 40
5.0
 0
LINE
 8
D-STR-DIM
 6
CONTINUOUS
 62
7
 10
1755.264
 20
2145.459
 30
0.0
 11
1765.264
 21
2145.459
 31
0.0
 0
CIRCLE
 8
D-STR-DIM
 6
CONTINUOUS
 62
7
 10
1905.264
 20
2145.459
 30
0.0
 40
5.0
 0
LINE
 8
D-STR-DIM
 6
CONTINUOUS
 62
7
 10
1905.264
 20
2145.459
 30
0.0
 11
1895.264
 21
2145.459
 31
0.0
 0
LINE
 8
D-STR-DIM
 6
CONTINUOUS
 62
7
 10
1755.264
 20
2383.236
 30
0.0
 11
1755.264
 21
2135.459
 31
0.0
 0
LINE
 8
D-STR-DIM
 6
CONTINUOUS
 62
7
 10
1905.264
 20
2383.236
 30
0.0
 11
1905.264
 21
2135.459
 31
0.0
 0
LINE
 8
D-STR-DIM
 6
CONTINUOUS
 62
7
 10
1765.264
 20
2145.459
 30
0.0
 11
1895.264
 21
2145.459
 31
0.0
 0
TEXT
 8
D-STR-DIM
 62
7
 10
1804.014
 20
2155.459
 30
0.0
 40
35.0
 1
150
 72
1
 11
1830.264
 21
2172.959
 31
0.0
 73
2
 0
POINT
 8
D-STR-DIM
 10
1755.264
 20
2393.236
 0
POINT
 8
D-STR-DIM
 10
1905.264
 20
2393.236
 0
POINT
 8
D-STR-DIM
 10
1905.264
 20
2145.459
 0
CIRCLE
 8
D-STR-DIM
 6
CONTINUOUS
 62
7
 10
795.264
 20
2145.459
 30
0.0
 40
5.0
 0
LINE
 8
D-STR-DIM
 6
CONTINUOUS
 62
7
 10
795.264
 20
2145.459
 30
0.0
 11
805.264
 21
2145.459
 31
0.0
 0
CIRCLE
 8
D-STR-DIM
 6
CONTINUOUS
 62
7
 10
945.264
 20
2145.459
 30
0.0
 40
5.0
 0
LINE
 8
D-STR-DIM
 6
CONTINUOUS
 62
7
 10
945.264
 20
2145.459
 30
0.0
 11
935.264
 21
2145.459
 31
0.0
 0
LINE
 8
D-STR-DIM
 6
CONTINUOUS
 62
7
 10
795.264
 20
2383.236
 30
0.0
 11
795.264
 21
2135.459
 31
0.0
 0
LINE
 8
D-STR-DIM
 6
CONTINUOUS
 62
7
 10
945.264
 20
2383.236
 30
0.0
 11
945.264
 21
2135.459
 31
0.0
 0
LINE
 8
D-STR-DIM
 6
CONTINUOUS
 62
7
 10
805.264
 20
2145.459
 30
0.0
 11
935.264
 21
2145.459
 31
0.0
 0
TEXT
 8
D-STR-DIM
 62
7
 10
844.014
 20
2155.459
 30
0.0
 40
35.0
 1
150
 72
1
 11
870.264
 21
2172.959
 31
0.0
 73
2
 0
POINT
 8
D-STR-DIM
 10
795.264
 20
2393.236
 0
POINT
 8
D-STR-DIM
 10
945.264
 20
2393.236
 0
POINT
 8
D-STR-DIM
 10
945.264
 20
2145.459
 0
CIRCLE
 8
D-STR-DIM
 6
CONTINUOUS
 62
7
 10
795.264
 20
920.459
 30
0.0
 40
5.0
 0
LINE
 8
D-STR-DIM
 6
CONTINUOUS
 62
7
 10
795.264
 20
920.459
 30
0.0
 11
805.264
 21
920.459
 31
0.0
 0
CIRCLE
 8
D-STR-DIM
 6
CONTINUOUS
 62
7
 10
1905.264
 20
920.459
 30
0.0
 40
5.0
 0
LINE
 8
D-STR-DIM
 6
CONTINUOUS
 62
7
 10
1905.264
 20
920.459
 30
0.0
 11
1895.264
 21
920.459
 31
0.0
 0
LINE
 8
D-STR-DIM
 6
CONTINUOUS
 62
7
 10
795.264
 20
1333.236
 30
0.0
 11
795.264
 21
910.459
 31
0.0
 0
LINE
 8
D-STR-DIM
 6
CONTINUOUS
 62
7
 10
1905.264
 20
1333.236
 30
0.0
 11
1905.264
 21
910.459
 31
0.0
 0
LINE
 8
D-STR-DIM
 6
CONTINUOUS
 62
7
 10
805.264
 20
920.459
 30
0.0
 11
1895.264
 21
920.459
 31
0.0
 0
TEXT
 8
D-STR-DIM
 62
7
 10
1289.014
 20
930.459
 30
0.0
 40
35.0
 1
φ1110
 72
1
 11
1350.264
 21
947.959
 31
0.0
 73
2
 0
POINT
 8
D-STR-DIM
 10
795.264
 20
1343.236
 0
POINT
 8
D-STR-DIM
 10
1905.264
 20
1343.236
 0
POINT
 8
D-STR-DIM
 10
1905.264
 20
920.459
 0
CIRCLE
 8
D-STR-DIM
 6
CONTINUOUS
 62
7
 10
945.264
 20
1095.459
 30
0.0
 40
5.0
 0
LINE
 8
D-STR-DIM
 6
CONTINUOUS
 62
7
 10
945.264
 20
1095.459
 30
0.0
 11
955.264
 21
1095.459
 31
0.0
 0
CIRCLE
 8
D-STR-DIM
 6
CONTINUOUS
 62
7
 10
1755.264
 20
1095.459
 30
0.0
 40
5.0
 0
LINE
 8
D-STR-DIM
 6
CONTINUOUS
 62
7
 10
1755.264
 20
1095.459
 30
0.0
 11
1745.264
 21
1095.459
 31
0.0
 0
LINE
 8
D-STR-DIM
 6
CONTINUOUS
 62
7
 10
945.264
 20
1333.236
 30
0.0
 11
945.264
 21
1085.459
 31
0.0
 0
LINE
 8
D-STR-DIM
 6
CONTINUOUS
 62
7
 10
1755.264
 20
1333.236
 30
0.0
 11
1755.264
 21
1085.459
 31
0.0
 0
LINE
 8
D-STR-DIM
 6
CONTINUOUS
 62
7
 10
955.264
 20
1095.459
 30
0.0
 11
1745.264
 21
1095.459
 31
0.0
 0
TEXT
 8
D-STR-DIM
 62
7
 10
1297.764
 20
1105.459
 30
0.0
 40
35.0
 1
φ810
 72
1
 11
1350.264
 21
1122.959
 31
0.0
 73
2
 0
POINT
 8
D-STR-DIM
 10
945.264
 20
1343.236
 0
POINT
 8
D-STR-DIM
 10
1755.264
 20
1343.236
 0
POINT
 8
D-STR-DIM
 10
1755.264
 20
1095.459
 0
LINE
 8
D-STR
 10
795.264
 20
1343.236
 30
0.0
 11
1905.264
 21
1343.236
 31
0.0
 0
LINE
 8
D-STR
 10
795.264
 20
1493.236
 30
0.0
 11
1905.264
 21
1493.236
 31
0.0
 0
CIRCLE
 8
D-STR-DIM
 6
CONTINUOUS
 62
7
 10
795.264
 20
1095.459
 30
0.0
 40
5.0
 0
LINE
 8
D-STR-DIM
 6
CONTINUOUS
 62
7
 10
795.264
 20
1095.459
 30
0.0
 11
805.264
 21
1095.459
 31
0.0
 0
CIRCLE
 8
D-STR-DIM
 6
CONTINUOUS
 62
7
 10
945.264
 20
1095.459
 30
0.0
 40
5.0
 0
LINE
 8
D-STR-DIM
 6
CONTINUOUS
 62
7
 10
945.264
 20
1095.459
 30
0.0
 11
935.264
 21
1095.459
 31
0.0
 0
LINE
 8
D-STR-DIM
 6
CONTINUOUS
 62
7
 10
795.264
 20
1333.236
 30
0.0
 11
795.264
 21
1085.459
 31
0.0
 0
LINE
 8
D-STR-DIM
 6
CONTINUOUS
 62
7
 10
945.264
 20
1333.236
 30
0.0
 11
945.264
 21
1085.459
 31
0.0
 0
LINE
 8
D-STR-DIM
 6
CONTINUOUS
 62
7
 10
805.264
 20
1095.459
 30
0.0
 11
935.264
 21
1095.459
 31
0.0
 0
TEXT
 8
D-STR-DIM
 62
7
 10
844.014
 20
1105.459
 30
0.0
 40
35.0
 1
150
 72
1
 11
870.264
 21
1122.959
 31
0.0
 73
2
 0
POINT
 8
D-STR-DIM
 10
795.264
 20
1343.236
 0
POINT
 8
D-STR-DIM
 10
945.264
 20
1343.236
 0
POINT
 8
D-STR-DIM
 10
945.264
 20
1095.459
 0
LINE
 8
D-BMK
 10
850.264
 20
1543.236
 30
0.0
 11
850.264
 21
1293.236
 31
0.0
 0
LINE
 8
D-STR-STR2
 6
DASHED
 10
835.264
 20
1493.236
 30
0.0
 11
835.264
 21
1343.236
 31
0.0
 0
LINE
 8
D-STR
 10
795.264
 20
1493.236
 30
0.0
 11
795.264
 21
1343.236
 31
0.0
 0
LINE
 8
D-STR
 6
DASHED
 10
945.264
 20
1493.236
 30
0.0
 11
945.264
 21
1343.236
 31
0.0
 0
LINE
 8
D-STR-STR2
 6
DASHED
 10
865.264
 20
1493.236
 30
0.0
 11
865.264
 21
1343.236
 31
0.0
 0
CIRCLE
 8
D-STR-DIM
 6
CONTINUOUS
 62
7
 10
1755.264
 20
1095.459
 30
0.0
 40
5.0
 0
LINE
 8
D-STR-DIM
 6
CONTINUOUS
 62
7
 10
1755.264
 20
1095.459
 30
0.0
 11
1765.264
 21
1095.459
 31
0.0
 0
CIRCLE
 8
D-STR-DIM
 6
CONTINUOUS
 62
7
 10
1905.264
 20
1095.459
 30
0.0
 40
5.0
 0
LINE
 8
D-STR-DIM
 6
CONTINUOUS
 62
7
 10
1905.264
 20
1095.459
 30
0.0
 11
1895.264
 21
1095.459
 31
0.0
 0
LINE
 8
D-STR-DIM
 6
CONTINUOUS
 62
7
 10
1755.264
 20
1333.236
 30
0.0
 11
1755.264
 21
1085.459
 31
0.0
 0
LINE
 8
D-STR-DIM
 6
CONTINUOUS
 62
7
 10
1905.264
 20
1333.236
 30
0.0
 11
1905.264
 21
1085.459
 31
0.0
 0
LINE
 8
D-STR-DIM
 6
CONTINUOUS
 62
7
 10
1765.264
 20
1095.459
 30
0.0
 11
1895.264
 21
1095.459
 31
0.0
 0
TEXT
 8
D-STR-DIM
 62
7
 10
1804.014
 20
1105.459
 30
0.0
 40
35.0
 1
150
 72
1
 11
1830.264
 21
1122.959
 31
0.0
 73
2
 0
POINT
 8
D-STR-DIM
 10
1755.264
 20
1343.236
 0
POINT
 8
D-STR-DIM
 10
1905.264
 20
1343.236
 0
POINT
 8
D-STR-DIM
 10
1905.264
 20
1095.459
 0
LINE
 8
D-BMK
 10
1350.264
 20
1543.236
 30
0.0
 11
1350.264
 21
1293.236
 31
0.0
 0
LINE
 8
D-BMK
 10
1850.264
 20
1543.236
 30
0.0
 11
1850.264
 21
1293.236
 31
0.0
 0
LINE
 8
D-STR-STR2
 6
DASHED
 10
1365.264
 20
1493.236
 30
0.0
 11
1365.264
 21
1343.236
 31
0.0
 0
LINE
 8
D-STR-STR2
 6
DASHED
 10
1335.264
 20
1493.236
 30
0.0
 11
1335.264
 21
1343.236
 31
0.0
 0
LINE
 8
D-STR
 6
DASHED
 10
1755.264
 20
1493.236
 30
0.0
 11
1755.264
 21
1343.236
 31
0.0
 0
LINE
 8
D-STR-STR2
 6
DASHED
 10
1865.264
 20
1493.236
 30
0.0
 11
1865.264
 21
1343.236
 31
0.0
 0
LINE
 8
D-STR-STR2
 6
DASHED
 10
1835.264
 20
1493.236
 30
0.0
 11
1835.264
 21
1343.236
 31
0.0
 0
LINE
 8
D-STR
 10
1905.264
 20
1493.236
 30
0.0
 11
1905.264
 21
1343.236
 31
0.0
 0
CIRCLE
 8
D-STR-DIM
 6
CONTINUOUS
 62
7
 10
2194.747
 20
2493.236
 30
0.0
 40
5.0
 0
LINE
 8
D-STR-DIM
 6
CONTINUOUS
 62
7
 10
2194.747
 20
2493.236
 30
0.0
 11
2194.747
 21
2503.236
 31
0.0
 0
CIRCLE
 8
D-STR-DIM
 6
CONTINUOUS
 62
7
 10
2194.747
 20
2393.236
 30
0.0
 40
5.0
 0
LINE
 8
D-STR-DIM
 6
CONTINUOUS
 62
7
 10
2194.747
 20
2393.236
 30
0.0
 11
2194.747
 21
2383.236
 31
0.0
 0
LINE
 8
D-STR-DIM
 6
CONTINUOUS
 62
7
 10
1915.264
 20
2493.236
 30
0.0
 11
2204.747
 21
2493.236
 31
0.0
 0
LINE
 8
D-STR-DIM
 6
CONTINUOUS
 62
7
 10
1915.264
 20
2393.236
 30
0.0
 11
2204.747
 21
2393.236
 31
0.0
 0
LINE
 8
D-STR-DIM
 6
CONTINUOUS
 62
7
 10
2194.747
 20
2503.236
 30
0.0
 11
2194.747
 21
2513.236
 31
0.0
 0
LINE
 8
D-STR-DIM
 6
CONTINUOUS
 62
7
 10
2194.747
 20
2383.236
 30
0.0
 11
2194.747
 21
2373.236
 31
0.0
 0
LINE
 8
D-STR-DIM
 6
CONTINUOUS
 62
7
 10
2194.747
 20
2493.236
 30
0.0
 11
2194.747
 21
2393.236
 31
0.0
 0
TEXT
 8
D-STR-DIM
 62
7
 10
2184.747
 20
2416.986
 30
0.0
 40
35.0
 1
100
 50
90.0
 72
1
 11
2167.247
 21
2443.236
 31
0.0
 73
2
 0
POINT
 8
D-STR-DIM
 10
1905.264
 20
2493.236
 0
POINT
 8
D-STR-DIM
 10
1905.264
 20
2393.236
 0
POINT
 8
D-STR-DIM
 10
2194.747
 20
2393.236
 0
CIRCLE
 8
D-STR-DIM
 6
CONTINUOUS
 62
7
 10
2194.747
 20
1493.236
 30
0.0
 40
5.0
 0
LINE
 8
D-STR-DIM
 6
CONTINUOUS
 62
7
 10
2194.747
 20
1493.236
 30
0.0
 11
2194.747
 21
1483.236
 31
0.0
 0
CIRCLE
 8
D-STR-DIM
 6
CONTINUOUS
 62
7
 10
2194.747
 20
1343.236
 30
0.0
 40
5.0
 0
LINE
 8
D-STR-DIM
 6
CONTINUOUS
 62
7
 10
2194.747
 20
1343.236
 30
0.0
 11
2194.747
 21
1353.236
 31
0.0
 0
LINE
 8
D-STR-DIM
 6
CONTINUOUS
 62
7
 10
1915.264
 20
1493.236
 30
0.0
 11
2204.747
 21
1493.236
 31
0.0
 0
LINE
 8
D-STR-DIM
 6
CONTINUOUS
 62
7
 10
1915.264
 20
1343.236
 30
0.0
 11
2204.747
 21
1343.236
 31
0.0
 0
LINE
 8
D-STR-DIM
 6
CONTINUOUS
 62
7
 10
2194.747
 20
1483.236
 30
0.0
 11
2194.747
 21
1353.236
 31
0.0
 0
TEXT
 8
D-STR-DIM
 62
7
 10
2184.747
 20
1391.986
 30
0.0
 40
35.0
 1
150
 50
90.0
 72
1
 11
2167.247
 21
1418.236
 31
0.0
 73
2
 0
POINT
 8
D-STR-DIM
 10
1905.264
 20
1493.236
 0
POINT
 8
D-STR-DIM
 10
1905.264
 20
1343.236
 0
POINT
 8
D-STR-DIM
 10
2194.747
 20
1343.236
 0
LINE
 8
D-STR
 10
2695.264
 20
2493.236
 30
0.0
 11
3805.264
 21
2493.236
 31
0.0
 0
LINE
 8
D-STR
 10
2695.264
 20
2393.236
 30
0.0
 11
3805.264
 21
2393.236
 31
0.0
 0
CIRCLE
 8
D-STR-DIM
 6
CONTINUOUS
 62
7
 10
2845.264
 20
2145.459
 30
0.0
 40
5.0
 0
LINE
 8
D-STR-DIM
 6
CONTINUOUS
 62
7
 10
2845.264
 20
2145.459
 30
0.0
 11
2855.264
 21
2145.459
 31
0.0
 0
CIRCLE
 8
D-STR-DIM
 6
CONTINUOUS
 62
7
 10
3655.264
 20
2145.459
 30
0.0
 40
5.0
 0
LINE
 8
D-STR-DIM
 6
CONTINUOUS
 62
7
 10
3655.264
 20
2145.459
 30
0.0
 11
3645.264
 21
2145.459
 31
0.0
 0
LINE
 8
D-STR-DIM
 6
CONTINUOUS
 62
7
 10
2845.264
 20
2383.236
 30
0.0
 11
2845.264
 21
2135.459
 31
0.0
 0
LINE
 8
D-STR-DIM
 6
CONTINUOUS
 62
7
 10
3655.264
 20
2383.236
 30
0.0
 11
3655.264
 21
2135.459
 31
0.0
 0
LINE
 8
D-STR-DIM
 6
CONTINUOUS
 62
7
 10
2855.264
 20
2145.459
 30
0.0
 11
3645.264
 21
2145.459
 31
0.0
 0
TEXT
 8
D-STR-DIM
 62
7
 10
3197.764
 20
2155.459
 30
0.0
 40
35.0
 1
φ810
 72
1
 11
3250.264
 21
2172.959
 31
0.0
 73
2
 0
POINT
 8
D-STR-DIM
 10
2845.264
 20
2393.236
 0
POINT
 8
D-STR-DIM
 10
3655.264
 20
2393.236
 0
POINT
 8
D-STR-DIM
 10
3655.264
 20
2145.459
 0
CIRCLE
 8
D-STR-DIM
 6
CONTINUOUS
 62
7
 10
2695.264
 20
1970.459
 30
0.0
 40
5.0
 0
LINE
 8
D-STR-DIM
 6
CONTINUOUS
 62
7
 10
2695.264
 20
1970.459
 30
0.0
 11
2705.264
 21
1970.459
 31
0.0
 0
CIRCLE
 8
D-STR-DIM
 6
CONTINUOUS
 62
7
 10
3805.264
 20
1970.459
 30
0.0
 40
5.0
 0
LINE
 8
D-STR-DIM
 6
CONTINUOUS
 62
7
 10
3805.264
 20
1970.459
 30
0.0
 11
3795.264
 21
1970.459
 31
0.0
 0
LINE
 8
D-STR-DIM
 6
CONTINUOUS
 62
7
 10
2695.264
 20
2383.236
 30
0.0
 11
2695.264
 21
1960.459
 31
0.0
 0
LINE
 8
D-STR-DIM
 6
CONTINUOUS
 62
7
 10
3805.264
 20
2383.236
 30
0.0
 11
3805.264
 21
1960.459
 31
0.0
 0
LINE
 8
D-STR-DIM
 6
CONTINUOUS
 62
7
 10
2705.264
 20
1970.459
 30
0.0
 11
3795.264
 21
1970.459
 31
0.0
 0
TEXT
 8
D-STR-DIM
 62
7
 10
3189.014
 20
1980.459
 30
0.0
 40
35.0
 1
φ1110
 72
1
 11
3250.264
 21
1997.959
 31
0.0
 73
2
 0
POINT
 8
D-STR-DIM
 10
2695.264
 20
2393.236
 0
POINT
 8
D-STR-DIM
 10
3805.264
 20
2393.236
 0
POINT
 8
D-STR-DIM
 10
3805.264
 20
1970.459
 0
CIRCLE
 8
D-STR-DIM
 6
CONTINUOUS
 62
7
 10
2695.264
 20
2145.459
 30
0.0
 40
5.0
 0
LINE
 8
D-STR-DIM
 6
CONTINUOUS
 62
7
 10
2695.264
 20
2145.459
 30
0.0
 11
2705.264
 21
2145.459
 31
0.0
 0
CIRCLE
 8
D-STR-DIM
 6
CONTINUOUS
 62
7
 10
2845.264
 20
2145.459
 30
0.0
 40
5.0
 0
LINE
 8
D-STR-DIM
 6
CONTINUOUS
 62
7
 10
2845.264
 20
2145.459
 30
0.0
 11
2835.264
 21
2145.459
 31
0.0
 0
LINE
 8
D-STR-DIM
 6
CONTINUOUS
 62
7
 10
2695.264
 20
2383.236
 30
0.0
 11
2695.264
 21
2135.459
 31
0.0
 0
LINE
 8
D-STR-DIM
 6
CONTINUOUS
 62
7
 10
2845.264
 20
2383.236
 30
0.0
 11
2845.264
 21
2135.459
 31
0.0
 0
LINE
 8
D-STR-DIM
 6
CONTINUOUS
 62
7
 10
2705.264
 20
2145.459
 30
0.0
 11
2835.264
 21
2145.459
 31
0.0
 0
TEXT
 8
D-STR-DIM
 62
7
 10
2744.014
 20
2155.459
 30
0.0
 40
35.0
 1
150
 72
1
 11
2770.264
 21
2172.959
 31
0.0
 73
2
 0
POINT
 8
D-STR-DIM
 10
2695.264
 20
2393.236
 0
POINT
 8
D-STR-DIM
 10
2845.264
 20
2393.236
 0
POINT
 8
D-STR-DIM
 10
2845.264
 20
2145.459
 0
LINE
 8
D-STR
 10
2695.264
 20
2493.236
 30
0.0
 11
2695.264
 21
2393.236
 31
0.0
 0
LINE
 8
D-STR-STR2
 6
DASHED
 10
2735.264
 20
2493.236
 30
0.0
 11
2735.264
 21
2393.236
 31
0.0
 0
LINE
 8
D-STR-STR2
 6
DASHED
 10
2765.264
 20
2493.236
 30
0.0
 11
2765.264
 21
2393.236
 31
0.0
 0
LINE
 8
D-STR
 6
DASHED
 10
2845.264
 20
2493.236
 30
0.0
 11
2845.264
 21
2393.236
 31
0.0
 0
LINE
 8
D-BMK
 10
2750.264
 20
2543.236
 30
0.0
 11
2750.264
 21
2343.236
 31
0.0
 0
CIRCLE
 8
D-STR-DIM
 6
CONTINUOUS
 62
7
 10
3655.264
 20
2145.459
 30
0.0
 40
5.0
 0
LINE
 8
D-STR-DIM
 6
CONTINUOUS
 62
7
 10
3655.264
 20
2145.459
 30
0.0
 11
3665.264
 21
2145.459
 31
0.0
 0
CIRCLE
 8
D-STR-DIM
 6
CONTINUOUS
 62
7
 10
3805.264
 20
2145.459
 30
0.0
 40
5.0
 0
LINE
 8
D-STR-DIM
 6
CONTINUOUS
 62
7
 10
3805.264
 20
2145.459
 30
0.0
 11
3795.264
 21
2145.459
 31
0.0
 0
LINE
 8
D-STR-DIM
 6
CONTINUOUS
 62
7
 10
3655.264
 20
2383.236
 30
0.0
 11
3655.264
 21
2135.459
 31
0.0
 0
LINE
 8
D-STR-DIM
 6
CONTINUOUS
 62
7
 10
3805.264
 20
2383.236
 30
0.0
 11
3805.264
 21
2135.459
 31
0.0
 0
LINE
 8
D-STR-DIM
 6
CONTINUOUS
 62
7
 10
3665.264
 20
2145.459
 30
0.0
 11
3795.264
 21
2145.459
 31
0.0
 0
TEXT
 8
D-STR-DIM
 62
7
 10
3704.014
 20
2155.459
 30
0.0
 40
35.0
 1
150
 72
1
 11
3730.264
 21
2172.959
 31
0.0
 73
2
 0
POINT
 8
D-STR-DIM
 10
3655.264
 20
2393.236
 0
POINT
 8
D-STR-DIM
 10
3805.264
 20
2393.236
 0
POINT
 8
D-STR-DIM
 10
3805.264
 20
2145.459
 0
CIRCLE
 8
D-STR-DIM
 6
CONTINUOUS
 62
7
 10
4094.747
 20
2493.236
 30
0.0
 40
5.0
 0
LINE
 8
D-STR-DIM
 6
CONTINUOUS
 62
7
 10
4094.747
 20
2493.236
 30
0.0
 11
4094.747
 21
2503.236
 31
0.0
 0
CIRCLE
 8
D-STR-DIM
 6
CONTINUOUS
 62
7
 10
4094.747
 20
2393.236
 30
0.0
 40
5.0
 0
LINE
 8
D-STR-DIM
 6
CONTINUOUS
 62
7
 10
4094.747
 20
2393.236
 30
0.0
 11
4094.747
 21
2383.236
 31
0.0
 0
LINE
 8
D-STR-DIM
 6
CONTINUOUS
 62
7
 10
3815.264
 20
2493.236
 30
0.0
 11
4104.747
 21
2493.236
 31
0.0
 0
LINE
 8
D-STR-DIM
 6
CONTINUOUS
 62
7
 10
3815.264
 20
2393.236
 30
0.0
 11
4104.747
 21
2393.236
 31
0.0
 0
LINE
 8
D-STR-DIM
 6
CONTINUOUS
 62
7
 10
4094.747
 20
2503.236
 30
0.0
 11
4094.747
 21
2513.236
 31
0.0
 0
LINE
 8
D-STR-DIM
 6
CONTINUOUS
 62
7
 10
4094.747
 20
2383.236
 30
0.0
 11
4094.747
 21
2373.236
 31
0.0
 0
LINE
 8
D-STR-DIM
 6
CONTINUOUS
 62
7
 10
4094.747
 20
2493.236
 30
0.0
 11
4094.747
 21
2393.236
 31
0.0
 0
TEXT
 8
D-STR-DIM
 62
7
 10
4084.747
 20
2416.986
 30
0.0
 40
35.0
 1
100
 50
90.0
 72
1
 11
4067.247
 21
2443.236
 31
0.0
 73
2
 0
POINT
 8
D-STR-DIM
 10
3805.264
 20
2493.236
 0
POINT
 8
D-STR-DIM
 10
3805.264
 20
2393.236
 0
POINT
 8
D-STR-DIM
 10
4094.747
 20
2393.236
 0
LINE
 8
D-STR-STR2
 6
DASHED
 10
3235.264
 20
2493.236
 30
0.0
 11
3235.264
 21
2393.236
 31
0.0
 0
LINE
 8
D-STR-STR2
 6
DASHED
 10
3265.264
 20
2493.236
 30
0.0
 11
3265.264
 21
2393.236
 31
0.0
 0
LINE
 8
D-BMK
 10
3250.264
 20
2543.236
 30
0.0
 11
3250.264
 21
2343.236
 31
0.0
 0
LINE
 8
D-STR
 10
3805.264
 20
2493.236
 30
0.0
 11
3805.264
 21
2393.236
 31
0.0
 0
LINE
 8
D-STR-STR2
 6
DASHED
 10
3735.264
 20
2493.236
 30
0.0
 11
3735.264
 21
2393.236
 31
0.0
 0
LINE
 8
D-STR-STR2
 6
DASHED
 10
3765.264
 20
2493.236
 30
0.0
 11
3765.264
 21
2393.236
 31
0.0
 0
LINE
 8
D-STR
 6
DASHED
 10
3655.264
 20
2493.236
 30
0.0
 11
3655.264
 21
2393.236
 31
0.0
 0
LINE
 8
D-BMK
 10
3750.264
 20
2543.236
 30
0.0
 11
3750.264
 21
2343.236
 31
0.0
 0
LINE
 8
D-STR-STR2
 6
DASHED
 10
3125.264
 20
2451.236
 30
0.0
 11
3125.264
 21
2435.236
 31
0.0
 0
LINE
 8
D-STR-STR2
 6
DASHED
 10
3125.264
 20
2451.236
 30
0.0
 11
3375.264
 21
2451.236
 31
0.0
 0
LINE
 8
D-BMK
 10
3075.264
 20
2443.236
 30
0.0
 11
3425.264
 21
2443.236
 31
0.0
 0
LINE
 8
D-STR-STR2
 6
DASHED
 10
3125.264
 20
2435.236
 30
0.0
 11
3375.264
 21
2435.236
 31
0.0
 0
LINE
 8
D-STR-STR2
 6
DASHED
 10
3375.264
 20
2435.236
 30
0.0
 11
3375.264
 21
2451.236
 31
0.0
 0
CIRCLE
 8
D-STR-DIM
 6
CONTINUOUS
 62
7
 10
3960.005
 20
2493.236
 30
0.0
 40
5.0
 0
LINE
 8
D-STR-DIM
 6
CONTINUOUS
 62
7
 10
3960.005
 20
2493.236
 30
0.0
 11
3960.005
 21
2483.236
 31
0.0
 0
CIRCLE
 8
D-STR-DIM
 6
CONTINUOUS
 62
7
 10
3960.005
 20
2443.236
 30
0.0
 40
5.0
 0
LINE
 8
D-STR-DIM
 6
CONTINUOUS
 62
7
 10
3960.005
 20
2443.236
 30
0.0
 11
3960.005
 21
2453.236
 31
0.0
 0
LINE
 8
D-STR-DIM
 6
CONTINUOUS
 62
7
 10
3815.264
 20
2493.236
 30
0.0
 11
3970.005
 21
2493.236
 31
0.0
 0
LINE
 8
D-STR-DIM
 6
CONTINUOUS
 62
7
 10
3815.264
 20
2443.236
 30
0.0
 11
3970.005
 21
2443.236
 31
0.0
 0
LINE
 8
D-STR-DIM
 6
CONTINUOUS
 62
7
 10
3960.005
 20
2483.236
 30
0.0
 11
3960.005
 21
2453.236
 31
0.0
 0
TEXT
 8
D-STR-DIM
 62
7
 10
3950.005
 20
2475.736
 30
0.0
 40
35.0
 1
50
 50
90.0
 72
1
 11
3932.505
 21
2493.236
 31
0.0
 73
2
 0
POINT
 8
D-STR-DIM
 10
3805.264
 20
2493.236
 0
POINT
 8
D-STR-DIM
 10
3805.264
 20
2443.236
 0
POINT
 8
D-STR-DIM
 10
3960.005
 20
2443.236
 0
CIRCLE
 8
D-STR-DIM
 6
CONTINUOUS
 62
7
 10
3960.005
 20
2443.236
 30
0.0
 40
5.0
 0
LINE
 8
D-STR-DIM
 6
CONTINUOUS
 62
7
 10
3960.005
 20
2443.236
 30
0.0
 11
3960.005
 21
2433.236
 31
0.0
 0
CIRCLE
 8
D-STR-DIM
 6
CONTINUOUS
 62
7
 10
3960.005
 20
2393.236
 30
0.0
 40
5.0
 0
LINE
 8
D-STR-DIM
 6
CONTINUOUS
 62
7
 10
3960.005
 20
2393.236
 30
0.0
 11
3960.005
 21
2403.236
 31
0.0
 0
LINE
 8
D-STR-DIM
 6
CONTINUOUS
 62
7
 10
3815.264
 20
2443.236
 30
0.0
 11
3970.005
 21
2443.236
 31
0.0
 0
LINE
 8
D-STR-DIM
 6
CONTINUOUS
 62
7
 10
3815.264
 20
2393.236
 30
0.0
 11
3970.005
 21
2393.236
 31
0.0
 0
LINE
 8
D-STR-DIM
 6
CONTINUOUS
 62
7
 10
3960.005
 20
2433.236
 30
0.0
 11
3960.005
 21
2403.236
 31
0.0
 0
TEXT
 8
D-STR-DIM
 62
7
 10
4011.615
 20
2378.864
 30
0.0
 40
35.0
 1
50
 50
90.0
 72
1
 11
3994.115
 21
2396.364
 31
0.0
 73
2
 0
POINT
 8
D-STR-DIM
 10
3805.264
 20
2443.236
 0
POINT
 8
D-STR-DIM
 10
3805.264
 20
2393.236
 0
POINT
 8
D-STR-DIM
 10
3960.005
 20
2393.236
 0
CIRCLE
 8
D-STR-DIM
 6
CONTINUOUS
 62
7
 10
2695.264
 20
920.459
 30
0.0
 40
5.0
 0
LINE
 8
D-STR-DIM
 6
CONTINUOUS
 62
7
 10
2695.264
 20
920.459
 30
0.0
 11
2705.264
 21
920.459
 31
0.0
 0
CIRCLE
 8
D-STR-DIM
 6
CONTINUOUS
 62
7
 10
3805.264
 20
920.459
 30
0.0
 40
5.0
 0
LINE
 8
D-STR-DIM
 6
CONTINUOUS
 62
7
 10
3805.264
 20
920.459
 30
0.0
 11
3795.264
 21
920.459
 31
0.0
 0
LINE
 8
D-STR-DIM
 6
CONTINUOUS
 62
7
 10
2695.264
 20
1333.236
 30
0.0
 11
2695.264
 21
910.459
 31
0.0
 0
LINE
 8
D-STR-DIM
 6
CONTINUOUS
 62
7
 10
3805.264
 20
1333.236
 30
0.0
 11
3805.264
 21
910.459
 31
0.0
 0
LINE
 8
D-STR-DIM
 6
CONTINUOUS
 62
7
 10
2705.264
 20
920.459
 30
0.0
 11
3795.264
 21
920.459
 31
0.0
 0
TEXT
 8
D-STR-DIM
 62
7
 10
3189.014
 20
930.459
 30
0.0
 40
35.0
 1
φ1110
 72
1
 11
3250.264
 21
947.959
 31
0.0
 73
2
 0
POINT
 8
D-STR-DIM
 10
2695.264
 20
1343.236
 0
POINT
 8
D-STR-DIM
 10
3805.264
 20
1343.236
 0
POINT
 8
D-STR-DIM
 10
3805.264
 20
920.459
 0
CIRCLE
 8
D-STR-DIM
 6
CONTINUOUS
 62
7
 10
2845.264
 20
1095.459
 30
0.0
 40
5.0
 0
LINE
 8
D-STR-DIM
 6
CONTINUOUS
 62
7
 10
2845.264
 20
1095.459
 30
0.0
 11
2855.264
 21
1095.459
 31
0.0
 0
CIRCLE
 8
D-STR-DIM
 6
CONTINUOUS
 62
7
 10
3655.264
 20
1095.459
 30
0.0
 40
5.0
 0
LINE
 8
D-STR-DIM
 6
CONTINUOUS
 62
7
 10
3655.264
 20
1095.459
 30
0.0
 11
3645.264
 21
1095.459
 31
0.0
 0
LINE
 8
D-STR-DIM
 6
CONTINUOUS
 62
7
 10
2845.264
 20
1333.236
 30
0.0
 11
2845.264
 21
1085.459
 31
0.0
 0
LINE
 8
D-STR-DIM
 6
CONTINUOUS
 62
7
 10
3655.264
 20
1333.236
 30
0.0
 11
3655.264
 21
1085.459
 31
0.0
 0
LINE
 8
D-STR-DIM
 6
CONTINUOUS
 62
7
 10
2855.264
 20
1095.459
 30
0.0
 11
3645.264
 21
1095.459
 31
0.0
 0
TEXT
 8
D-STR-DIM
 62
7
 10
3197.764
 20
1105.459
 30
0.0
 40
35.0
 1
φ810
 72
1
 11
3250.264
 21
1122.959
 31
0.0
 73
2
 0
POINT
 8
D-STR-DIM
 10
2845.264
 20
1343.236
 0
POINT
 8
D-STR-DIM
 10
3655.264
 20
1343.236
 0
POINT
 8
D-STR-DIM
 10
3655.264
 20
1095.459
 0
LINE
 8
D-STR
 10
2695.264
 20
1343.236
 30
0.0
 11
3805.264
 21
1343.236
 31
0.0
 0
LINE
 8
D-STR
 10
2695.264
 20
1493.236
 30
0.0
 11
3805.264
 21
1493.236
 31
0.0
 0
CIRCLE
 8
D-STR-DIM
 6
CONTINUOUS
 62
7
 10
2695.264
 20
1095.459
 30
0.0
 40
5.0
 0
LINE
 8
D-STR-DIM
 6
CONTINUOUS
 62
7
 10
2695.264
 20
1095.459
 30
0.0
 11
2705.264
 21
1095.459
 31
0.0
 0
CIRCLE
 8
D-STR-DIM
 6
CONTINUOUS
 62
7
 10
2845.264
 20
1095.459
 30
0.0
 40
5.0
 0
LINE
 8
D-STR-DIM
 6
CONTINUOUS
 62
7
 10
2845.264
 20
1095.459
 30
0.0
 11
2835.264
 21
1095.459
 31
0.0
 0
LINE
 8
D-STR-DIM
 6
CONTINUOUS
 62
7
 10
2695.264
 20
1333.236
 30
0.0
 11
2695.264
 21
1085.459
 31
0.0
 0
LINE
 8
D-STR-DIM
 6
CONTINUOUS
 62
7
 10
2845.264
 20
1333.236
 30
0.0
 11
2845.264
 21
1085.459
 31
0.0
 0
LINE
 8
D-STR-DIM
 6
CONTINUOUS
 62
7
 10
2705.264
 20
1095.459
 30
0.0
 11
2835.264
 21
1095.459
 31
0.0
 0
TEXT
 8
D-STR-DIM
 62
7
 10
2744.014
 20
1105.459
 30
0.0
 40
35.0
 1
150
 72
1
 11
2770.264
 21
1122.959
 31
0.0
 73
2
 0
POINT
 8
D-STR-DIM
 10
2695.264
 20
1343.236
 0
POINT
 8
D-STR-DIM
 10
2845.264
 20
1343.236
 0
POINT
 8
D-STR-DIM
 10
2845.264
 20
1095.459
 0
LINE
 8
D-BMK
 10
2750.264
 20
1543.236
 30
0.0
 11
2750.264
 21
1293.236
 31
0.0
 0
LINE
 8
D-STR
 6
DASHED
 10
2845.264
 20
1493.236
 30
0.0
 11
2845.264
 21
1343.236
 31
0.0
 0
LINE
 8
D-STR-STR2
 6
DASHED
 10
2765.264
 20
1493.236
 30
0.0
 11
2765.264
 21
1343.236
 31
0.0
 0
LINE
 8
D-STR-STR2
 6
DASHED
 10
2735.264
 20
1493.236
 30
0.0
 11
2735.264
 21
1343.236
 31
0.0
 0
LINE
 8
D-STR
 10
2695.264
 20
1493.236
 30
0.0
 11
2695.264
 21
1343.236
 31
0.0
 0
CIRCLE
 8
D-STR-DIM
 6
CONTINUOUS
 62
7
 10
3655.264
 20
1095.459
 30
0.0
 40
5.0
 0
LINE
 8
D-STR-DIM
 6
CONTINUOUS
 62
7
 10
3655.264
 20
1095.459
 30
0.0
 11
3665.264
 21
1095.459
 31
0.0
 0
CIRCLE
 8
D-STR-DIM
 6
CONTINUOUS
 62
7
 10
3805.264
 20
1095.459
 30
0.0
 40
5.0
 0
LINE
 8
D-STR-DIM
 6
CONTINUOUS
 62
7
 10
3805.264
 20
1095.459
 30
0.0
 11
3795.264
 21
1095.459
 31
0.0
 0
LINE
 8
D-STR-DIM
 6
CONTINUOUS
 62
7
 10
3655.264
 20
1333.236
 30
0.0
 11
3655.264
 21
1085.459
 31
0.0
 0
LINE
 8
D-STR-DIM
 6
CONTINUOUS
 62
7
 10
3805.264
 20
1333.236
 30
0.0
 11
3805.264
 21
1085.459
 31
0.0
 0
LINE
 8
D-STR-DIM
 6
CONTINUOUS
 62
7
 10
3665.264
 20
1095.459
 30
0.0
 11
3795.264
 21
1095.459
 31
0.0
 0
TEXT
 8
D-STR-DIM
 62
7
 10
3704.014
 20
1105.459
 30
0.0
 40
35.0
 1
150
 72
1
 11
3730.264
 21
1122.959
 31
0.0
 73
2
 0
POINT
 8
D-STR-DIM
 10
3655.264
 20
1343.236
 0
POINT
 8
D-STR-DIM
 10
3805.264
 20
1343.236
 0
POINT
 8
D-STR-DIM
 10
3805.264
 20
1095.459
 0
LINE
 8
D-STR-STR2
 6
DASHED
 10
3125.264
 20
1385.236
 30
0.0
 11
3375.264
 21
1385.236
 31
0.0
 0
LINE
 8
D-STR-STR2
 6
DASHED
 10
3125.264
 20
1401.236
 30
0.0
 11
3375.264
 21
1401.236
 31
0.0
 0
LINE
 8
D-BMK
 10
3075.264
 20
1393.236
 30
0.0
 11
3425.264
 21
1393.236
 31
0.0
 0
LINE
 8
D-BMK
 10
3250.264
 20
1543.236
 30
0.0
 11
3250.264
 21
1293.236
 31
0.0
 0
LINE
 8
D-STR-STR2
 6
DASHED
 10
3265.264
 20
1493.236
 30
0.0
 11
3265.264
 21
1343.236
 31
0.0
 0
LINE
 8
D-STR-STR2
 6
DASHED
 10
3235.264
 20
1493.236
 30
0.0
 11
3235.264
 21
1343.236
 31
0.0
 0
LINE
 8
D-STR-STR2
 6
DASHED
 10
3125.264
 20
1401.236
 30
0.0
 11
3125.264
 21
1385.236
 31
0.0
 0
LINE
 8
D-STR
 6
DASHED
 10
3655.264
 20
1493.236
 30
0.0
 11
3655.264
 21
1343.236
 31
0.0
 0
LINE
 8
D-STR-STR2
 6
DASHED
 10
3735.264
 20
1493.236
 30
0.0
 11
3735.264
 21
1343.236
 31
0.0
 0
LINE
 8
D-STR-STR2
 6
DASHED
 10
3375.264
 20
1385.236
 30
0.0
 11
3375.264
 21
1401.236
 31
0.0
 0
CIRCLE
 8
D-STR-DIM
 6
CONTINUOUS
 62
7
 10
3960.005
 20
1493.236
 30
0.0
 40
5.0
 0
LINE
 8
D-STR-DIM
 6
CONTINUOUS
 62
7
 10
3960.005
 20
1493.236
 30
0.0
 11
3960.005
 21
1483.236
 31
0.0
 0
CIRCLE
 8
D-STR-DIM
 6
CONTINUOUS
 62
7
 10
3960.005
 20
1393.236
 30
0.0
 40
5.0
 0
LINE
 8
D-STR-DIM
 6
CONTINUOUS
 62
7
 10
3960.005
 20
1393.236
 30
0.0
 11
3960.005
 21
1403.236
 31
0.0
 0
LINE
 8
D-STR-DIM
 6
CONTINUOUS
 62
7
 10
3815.264
 20
1493.236
 30
0.0
 11
3970.005
 21
1493.236
 31
0.0
 0
LINE
 8
D-STR-DIM
 6
CONTINUOUS
 62
7
 10
3815.264
 20
1393.236
 30
0.0
 11
3970.005
 21
1393.236
 31
0.0
 0
LINE
 8
D-STR-DIM
 6
CONTINUOUS
 62
7
 10
3960.005
 20
1483.236
 30
0.0
 11
3960.005
 21
1403.236
 31
0.0
 0
TEXT
 8
D-STR-DIM
 62
7
 10
3950.005
 20
1416.986
 30
0.0
 40
35.0
 1
100
 50
90.0
 72
1
 11
3932.505
 21
1443.236
 31
0.0
 73
2
 0
POINT
 8
D-STR-DIM
 10
3805.264
 20
1493.236
 0
POINT
 8
D-STR-DIM
 10
3805.264
 20
1393.236
 0
POINT
 8
D-STR-DIM
 10
3960.005
 20
1393.236
 0
LINE
 8
D-BMK
 10
3750.264
 20
1543.236
 30
0.0
 11
3750.264
 21
1293.236
 31
0.0
 0
LINE
 8
D-STR-STR2
 6
DASHED
 10
3765.264
 20
1493.236
 30
0.0
 11
3765.264
 21
1343.236
 31
0.0
 0
LINE
 8
D-STR
 10
3805.264
 20
1493.236
 30
0.0
 11
3805.264
 21
1343.236
 31
0.0
 0
CIRCLE
 8
D-STR-DIM
 6
CONTINUOUS
 62
7
 10
4094.747
 20
1493.236
 30
0.0
 40
5.0
 0
LINE
 8
D-STR-DIM
 6
CONTINUOUS
 62
7
 10
4094.747
 20
1493.236
 30
0.0
 11
4094.747
 21
1483.236
 31
0.0
 0
CIRCLE
 8
D-STR-DIM
 6
CONTINUOUS
 62
7
 10
4094.747
 20
1343.236
 30
0.0
 40
5.0
 0
LINE
 8
D-STR-DIM
 6
CONTINUOUS
 62
7
 10
4094.747
 20
1343.236
 30
0.0
 11
4094.747
 21
1353.236
 31
0.0
 0
LINE
 8
D-STR-DIM
 6
CONTINUOUS
 62
7
 10
3815.264
 20
1493.236
 30
0.0
 11
4104.747
 21
1493.236
 31
0.0
 0
LINE
 8
D-STR-DIM
 6
CONTINUOUS
 62
7
 10
3815.264
 20
1343.236
 30
0.0
 11
4104.747
 21
1343.236
 31
0.0
 0
LINE
 8
D-STR-DIM
 6
CONTINUOUS
 62
7
 10
4094.747
 20
1483.236
 30
0.0
 11
4094.747
 21
1353.236
 31
0.0
 0
TEXT
 8
D-STR-DIM
 62
7
 10
4084.747
 20
1391.986
 30
0.0
 40
35.0
 1
150
 50
90.0
 72
1
 11
4067.247
 21
1418.236
 31
0.0
 73
2
 0
POINT
 8
D-STR-DIM
 10
3805.264
 20
1493.236
 0
POINT
 8
D-STR-DIM
 10
3805.264
 20
1343.236
 0
POINT
 8
D-STR-DIM
 10
4094.747
 20
1343.236
 0
CIRCLE
 8
D-STR-DIM
 6
CONTINUOUS
 62
7
 10
3960.005
 20
1393.236
 30
0.0
 40
5.0
 0
LINE
 8
D-STR-DIM
 6
CONTINUOUS
 62
7
 10
3960.005
 20
1393.236
 30
0.0
 11
3960.005
 21
1383.236
 31
0.0
 0
CIRCLE
 8
D-STR-DIM
 6
CONTINUOUS
 62
7
 10
3960.005
 20
1343.236
 30
0.0
 40
5.0
 0
LINE
 8
D-STR-DIM
 6
CONTINUOUS
 62
7
 10
3960.005
 20
1343.236
 30
0.0
 11
3960.005
 21
1353.236
 31
0.0
 0
LINE
 8
D-STR-DIM
 6
CONTINUOUS
 62
7
 10
3815.264
 20
1393.236
 30
0.0
 11
3970.005
 21
1393.236
 31
0.0
 0
LINE
 8
D-STR-DIM
 6
CONTINUOUS
 62
7
 10
3815.264
 20
1343.236
 30
0.0
 11
3970.005
 21
1343.236
 31
0.0
 0
LINE
 8
D-STR-DIM
 6
CONTINUOUS
 62
7
 10
3960.005
 20
1383.236
 30
0.0
 11
3960.005
 21
1353.236
 31
0.0
 0
TEXT
 8
D-STR-DIM
 62
7
 10
4011.615
 20
1328.864
 30
0.0
 40
35.0
 1
50
 50
90.0
 72
1
 11
3994.115
 21
1346.364
 31
0.0
 73
2
 0
POINT
 8
D-STR-DIM
 10
3805.264
 20
1393.236
 0
POINT
 8
D-STR-DIM
 10
3805.264
 20
1343.236
 0
POINT
 8
D-STR-DIM
 10
3960.005
 20
1343.236
 0
LINE
 8
D-STR
 10
4595.264
 20
2493.236
 30
0.0
 11
5135.264
 21
2493.236
 31
0.0
 0
LINE
 8
D-STR
 10
4595.264
 20
2443.236
 30
0.0
 11
5135.264
 21
2443.236
 31
0.0
 0
CIRCLE
 8
D-STR-DIM
 6
CONTINUOUS
 62
7
 10
4745.264
 20
2195.459
 30
0.0
 40
5.0
 0
LINE
 8
D-STR-DIM
 6
CONTINUOUS
 62
7
 10
4745.264
 20
2195.459
 30
0.0
 11
4755.264
 21
2195.459
 31
0.0
 0
CIRCLE
 8
D-STR-DIM
 6
CONTINUOUS
 62
7
 10
5555.264
 20
2195.459
 30
0.0
 40
5.0
 0
LINE
 8
D-STR-DIM
 6
CONTINUOUS
 62
7
 10
5555.264
 20
2195.459
 30
0.0
 11
5545.264
 21
2195.459
 31
0.0
 0
LINE
 8
D-STR-DIM
 6
CONTINUOUS
 62
7
 10
4745.264
 20
2433.236
 30
0.0
 11
4745.264
 21
2185.459
 31
0.0
 0
LINE
 8
D-STR-DIM
 6
CONTINUOUS
 62
7
 10
5555.264
 20
2433.236
 30
0.0
 11
5555.264
 21
2185.459
 31
0.0
 0
LINE
 8
D-STR-DIM
 6
CONTINUOUS
 62
7
 10
4755.264
 20
2195.459
 30
0.0
 11
5545.264
 21
2195.459
 31
0.0
 0
TEXT
 8
D-STR-DIM
 62
7
 10
5097.764
 20
2205.459
 30
0.0
 40
35.0
 1
φ810
 72
1
 11
5150.264
 21
2222.959
 31
0.0
 73
2
 0
POINT
 8
D-STR-DIM
 10
4745.264
 20
2443.236
 0
POINT
 8
D-STR-DIM
 10
5555.264
 20
2443.236
 0
POINT
 8
D-STR-DIM
 10
5555.264
 20
2195.459
 0
CIRCLE
 8
D-STR-DIM
 6
CONTINUOUS
 62
7
 10
4595.264
 20
2020.459
 30
0.0
 40
5.0
 0
LINE
 8
D-STR-DIM
 6
CONTINUOUS
 62
7
 10
4595.264
 20
2020.459
 30
0.0
 11
4605.264
 21
2020.459
 31
0.0
 0
CIRCLE
 8
D-STR-DIM
 6
CONTINUOUS
 62
7
 10
5705.264
 20
2020.459
 30
0.0
 40
5.0
 0
LINE
 8
D-STR-DIM
 6
CONTINUOUS
 62
7
 10
5705.264
 20
2020.459
 30
0.0
 11
5695.264
 21
2020.459
 31
0.0
 0
LINE
 8
D-STR-DIM
 6
CONTINUOUS
 62
7
 10
4595.264
 20
2433.236
 30
0.0
 11
4595.264
 21
2010.459
 31
0.0
 0
LINE
 8
D-STR-DIM
 6
CONTINUOUS
 62
7
 10
5705.264
 20
2433.236
 30
0.0
 11
5705.264
 21
2010.459
 31
0.0
 0
LINE
 8
D-STR-DIM
 6
CONTINUOUS
 62
7
 10
4605.264
 20
2020.459
 30
0.0
 11
5695.264
 21
2020.459
 31
0.0
 0
TEXT
 8
D-STR-DIM
 62
7
 10
5089.014
 20
2030.459
 30
0.0
 40
35.0
 1
φ1110
 72
1
 11
5150.264
 21
2047.959
 31
0.0
 73
2
 0
POINT
 8
D-STR-DIM
 10
4595.264
 20
2443.236
 0
POINT
 8
D-STR-DIM
 10
5705.264
 20
2443.236
 0
POINT
 8
D-STR-DIM
 10
5705.264
 20
2020.459
 0
CIRCLE
 8
D-STR-DIM
 6
CONTINUOUS
 62
7
 10
4595.264
 20
2195.459
 30
0.0
 40
5.0
 0
LINE
 8
D-STR-DIM
 6
CONTINUOUS
 62
7
 10
4595.264
 20
2195.459
 30
0.0
 11
4605.264
 21
2195.459
 31
0.0
 0
CIRCLE
 8
D-STR-DIM
 6
CONTINUOUS
 62
7
 10
4745.264
 20
2195.459
 30
0.0
 40
5.0
 0
LINE
 8
D-STR-DIM
 6
CONTINUOUS
 62
7
 10
4745.264
 20
2195.459
 30
0.0
 11
4735.264
 21
2195.459
 31
0.0
 0
LINE
 8
D-STR-DIM
 6
CONTINUOUS
 62
7
 10
4595.264
 20
2433.236
 30
0.0
 11
4595.264
 21
2185.459
 31
0.0
 0
LINE
 8
D-STR-DIM
 6
CONTINUOUS
 62
7
 10
4745.264
 20
2433.236
 30
0.0
 11
4745.264
 21
2185.459
 31
0.0
 0
LINE
 8
D-STR-DIM
 6
CONTINUOUS
 62
7
 10
4605.264
 20
2195.459
 30
0.0
 11
4735.264
 21
2195.459
 31
0.0
 0
TEXT
 8
D-STR-DIM
 62
7
 10
4644.014
 20
2205.459
 30
0.0
 40
35.0
 1
150
 72
1
 11
4670.264
 21
2222.959
 31
0.0
 73
2
 0
POINT
 8
D-STR-DIM
 10
4595.264
 20
2443.236
 0
POINT
 8
D-STR-DIM
 10
4745.264
 20
2443.236
 0
POINT
 8
D-STR-DIM
 10
4745.264
 20
2195.459
 0
LINE
 8
D-STR
 10
4595.264
 20
2493.236
 30
0.0
 11
4595.264
 21
2443.236
 31
0.0
 0
LINE
 8
D-STR
 6
DASHED
 10
4745.264
 20
2493.236
 30
0.0
 11
4745.264
 21
2443.236
 31
0.0
 0
CIRCLE
 8
D-STR-DIM
 6
CONTINUOUS
 62
7
 10
5555.264
 20
2195.459
 30
0.0
 40
5.0
 0
LINE
 8
D-STR-DIM
 6
CONTINUOUS
 62
7
 10
5555.264
 20
2195.459
 30
0.0
 11
5565.264
 21
2195.459
 31
0.0
 0
CIRCLE
 8
D-STR-DIM
 6
CONTINUOUS
 62
7
 10
5705.264
 20
2195.459
 30
0.0
 40
5.0
 0
LINE
 8
D-STR-DIM
 6
CONTINUOUS
 62
7
 10
5705.264
 20
2195.459
 30
0.0
 11
5695.264
 21
2195.459
 31
0.0
 0
LINE
 8
D-STR-DIM
 6
CONTINUOUS
 62
7
 10
5555.264
 20
2433.236
 30
0.0
 11
5555.264
 21
2185.459
 31
0.0
 0
LINE
 8
D-STR-DIM
 6
CONTINUOUS
 62
7
 10
5705.264
 20
2433.236
 30
0.0
 11
5705.264
 21
2185.459
 31
0.0
 0
LINE
 8
D-STR-DIM
 6
CONTINUOUS
 62
7
 10
5565.264
 20
2195.459
 30
0.0
 11
5695.264
 21
2195.459
 31
0.0
 0
TEXT
 8
D-STR-DIM
 62
7
 10
5604.014
 20
2205.459
 30
0.0
 40
35.0
 1
150
 72
1
 11
5630.264
 21
2222.959
 31
0.0
 73
2
 0
POINT
 8
D-STR-DIM
 10
5555.264
 20
2443.236
 0
POINT
 8
D-STR-DIM
 10
5705.264
 20
2443.236
 0
POINT
 8
D-STR-DIM
 10
5705.264
 20
2195.459
 0
CIRCLE
 8
D-STR-DIM
 6
CONTINUOUS
 62
7
 10
5994.747
 20
2493.236
 30
0.0
 40
5.0
 0
LINE
 8
D-STR-DIM
 6
CONTINUOUS
 62
7
 10
5994.747
 20
2493.236
 30
0.0
 11
5994.747
 21
2503.236
 31
0.0
 0
CIRCLE
 8
D-STR-DIM
 6
CONTINUOUS
 62
7
 10
5994.747
 20
2443.236
 30
0.0
 40
5.0
 0
LINE
 8
D-STR-DIM
 6
CONTINUOUS
 62
7
 10
5994.747
 20
2443.236
 30
0.0
 11
5994.747
 21
2433.236
 31
0.0
 0
LINE
 8
D-STR-DIM
 6
CONTINUOUS
 62
7
 10
5715.264
 20
2493.236
 30
0.0
 11
6004.747
 21
2493.236
 31
0.0
 0
LINE
 8
D-STR-DIM
 6
CONTINUOUS
 62
7
 10
5715.264
 20
2443.236
 30
0.0
 11
6004.747
 21
2443.236
 31
0.0
 0
LINE
 8
D-STR-DIM
 6
CONTINUOUS
 62
7
 10
5994.747
 20
2503.236
 30
0.0
 11
5994.747
 21
2513.236
 31
0.0
 0
LINE
 8
D-STR-DIM
 6
CONTINUOUS
 62
7
 10
5994.747
 20
2433.236
 30
0.0
 11
5994.747
 21
2423.236
 31
0.0
 0
LINE
 8
D-STR-DIM
 6
CONTINUOUS
 62
7
 10
5994.747
 20
2493.236
 30
0.0
 11
5994.747
 21
2443.236
 31
0.0
 0
TEXT
 8
D-STR-DIM
 62
7
 10
5984.747
 20
2450.736
 30
0.0
 40
35.0
 1
50
 50
90.0
 72
1
 11
5967.247
 21
2468.236
 31
0.0
 73
2
 0
POINT
 8
D-STR-DIM
 10
5705.264
 20
2493.236
 0
POINT
 8
D-STR-DIM
 10
5705.264
 20
2443.236
 0
POINT
 8
D-STR-DIM
 10
5994.747
 20
2443.236
 0
LINE
 8
D-STR
 10
5705.264
 20
2493.236
 30
0.0
 11
5705.264
 21
2443.236
 31
0.0
 0
LINE
 8
D-STR
 6
DASHED
 10
5555.264
 20
2493.236
 30
0.0
 11
5555.264
 21
2443.236
 31
0.0
 0
LINE
 8
D-STR
 10
5165.264
 20
2493.236
 30
0.0
 11
5705.264
 21
2493.236
 31
0.0
 0
LINE
 8
D-STR
 10
5165.264
 20
2443.236
 30
0.0
 11
5705.264
 21
2443.236
 31
0.0
 0
LINE
 8
D-STR
 10
5135.264
 20
2493.236
 30
0.0
 11
5135.264
 21
2443.236
 31
0.0
 0
LINE
 8
D-STR
 10
5165.264
 20
2493.236
 30
0.0
 11
5165.264
 21
2443.236
 31
0.0
 0
TEXT
 8
D-TTL-TXT
 10
3040.264
 20
5208.952
 30
0.0
 40
70.0
 1
ステップ付き
 72
1
 11
3250.264
 21
5208.952
 31
0.0
 73
0
 0
TEXT
 8
D-TTL-TXT
 10
5045.264
 20
5208.952
 30
0.0
 40
70.0
 1
調整用
 72
1
 11
5150.264
 21
5208.952
 31
0.0
 73
0
 0
TEXT
 8
D-TTL-TXT
 10
1262.764
 20
2632.082
 30
0.0
 40
70.0
 1
H=100
 72
1
 11
1350.264
 21
2632.082
 31
0.0
 73
0
 0
TEXT
 8
D-TTL-TXT
 10
3110.264
 20
2632.082
 30
0.0
 40
70.0
 1
H=100(S)
 72
1
 11
3250.264
 21
2632.082
 31
0.0
 73
0
 0
TEXT
 8
D-TTL-TXT
 10
5080.264
 20
2632.082
 30
0.0
 40
70.0
 1
H=50
 72
1
 11
5150.264
 21
2632.082
 31
0.0
 73
0
 0
TEXT
 8
D-TTL-TXT
 10
1262.764
 20
1632.082
 30
0.0
 40
70.0
 1
H=150
 72
1
 11
1350.264
 21
1632.082
 31
0.0
 73
0
 0
TEXT
 8
D-TTL-TXT
 10
3110.264
 20
1632.082
 30
0.0
 40
70.0
 1
H=150(S)
 72
1
 11
3250.264
 21
1632.082
 31
0.0
 73
0
 0
LINE
 8
D-STR-STR2
 10
3138.264
 20
4645.05
 30
0.0
 11
3138.264
 21
4595.05
 31
0.0
 0
ARC
 8
D-STR-STR2
 10
3160.264
 20
4595.05
 30
0.0
 40
22.0
 50
180.0000000004
 51
270.0
 0
LINE
 8
D-STR-STR2
 10
3160.264
 20
4573.05
 30
0.0
 11
3340.264
 21
4573.05
 31
0.0
 0
ARC
 8
D-STR-STR2
 10
3340.264
 20
4595.05
 30
0.0
 40
22.0
 50
270.0
 51
359.9999999997
 0
LINE
 8
D-STR-STR2
 10
3362.264
 20
4595.05
 30
0.0
 11
3362.264
 21
4645.05
 31
0.0
 0
LINE
 8
D-STR-STR2
 10
3122.264
 20
4645.05
 30
0.0
 11
3122.264
 21
4595.05
 31
0.0
 0
ARC
 8
D-STR-STR2
 10
3160.264
 20
4595.05
 30
0.0
 40
38.0
 50
180.0000000002
 51
270.0
 0
LINE
 8
D-STR-STR2
 10
3160.264
 20
4557.05
 30
0.0
 11
3340.264
 21
4557.05
 31
0.0
 0
ARC
 8
D-STR-STR2
 10
3340.264
 20
4595.05
 30
0.0
 40
38.0
 50
270.0
 51
0.0000000001
 0
LINE
 8
D-STR-STR2
 10
3378.264
 20
4595.05
 30
0.0
 11
3378.264
 21
4645.05
 31
0.0
 0
CIRCLE
 8
D-STR-DIM
 6
CONTINUOUS
 62
7
 10
6833.649
 20
3756.284
 30
0.0
 40
5.0
 0
LINE
 8
D-STR-DIM
 6
CONTINUOUS
 62
7
 10
6833.649
 20
3756.284
 30
0.0
 11
6843.649
 21
3756.284
 31
0.0
 0
CIRCLE
 8
D-STR-DIM
 6
CONTINUOUS
 62
7
 10
7313.649
 20
3756.284
 30
0.0
 40
5.0
 0
LINE
 8
D-STR-DIM
 6
CONTINUOUS
 62
7
 10
7313.649
 20
3756.284
 30
0.0
 11
7303.649
 21
3756.284
 31
0.0
 0
LINE
 8
D-STR-DIM
 6
CONTINUOUS
 62
7
 10
6833.649
 20
3932.183
 30
0.0
 11
6833.649
 21
3746.284
 31
0.0
 0
LINE
 8
D-STR-DIM
 6
CONTINUOUS
 62
7
 10
7313.649
 20
3932.183
 30
0.0
 11
7313.649
 21
3746.284
 31
0.0
 0
LINE
 8
D-STR-DIM
 6
CONTINUOUS
 62
7
 10
6843.649
 20
3756.284
 30
0.0
 11
7303.649
 21
3756.284
 31
0.0
 0
TEXT
 8
D-STR-DIM
 62
7
 10
7047.399
 20
3766.284
 30
0.0
 40
35.0
 1
240
 72
1
 11
7073.649
 21
3783.784
 31
0.0
 73
2
 0
POINT
 8
D-STR-DIM
 10
6833.649
 20
3942.183
 0
POINT
 8
D-STR-DIM
 10
7313.649
 20
3942.183
 0
POINT
 8
D-STR-DIM
 10
7313.649
 20
3756.284
 0
CIRCLE
 8
D-STR-DIM
 6
CONTINUOUS
 62
7
 10
7709.699
 20
4102.183
 30
0.0
 40
5.0
 0
LINE
 8
D-STR-DIM
 6
CONTINUOUS
 62
7
 10
7709.699
 20
4102.183
 30
0.0
 11
7709.699
 21
4092.183
 31
0.0
 0
CIRCLE
 8
D-STR-DIM
 6
CONTINUOUS
 62
7
 10
7709.699
 20
3942.183
 30
0.0
 40
5.0
 0
LINE
 8
D-STR-DIM
 6
CONTINUOUS
 62
7
 10
7709.699
 20
3942.183
 30
0.0
 11
7709.699
 21
3952.183
 31
0.0
 0
LINE
 8
D-STR-DIM
 6
CONTINUOUS
 62
7
 10
7323.649
 20
4102.183
 30
0.0
 11
7719.699
 21
4102.183
 31
0.0
 0
LINE
 8
D-STR-DIM
 6
CONTINUOUS
 62
7
 10
7323.649
 20
3942.183
 30
0.0
 11
7719.699
 21
3942.183
 31
0.0
 0
LINE
 8
D-STR-DIM
 6
CONTINUOUS
 62
7
 10
7709.699
 20
4092.183
 30
0.0
 11
7709.699
 21
3952.183
 31
0.0
 0
TEXT
 8
D-STR-DIM
 62
7
 10
7699.699
 20
4004.683
 30
0.0
 40
35.0
 1
80
 50
90.0
 72
1
 11
7682.199
 21
4022.183
 31
0.0
 73
2
 0
POINT
 8
D-STR-DIM
 10
7313.649
 20
4102.183
 0
POINT
 8
D-STR-DIM
 10
7313.649
 20
3942.183
 0
POINT
 8
D-STR-DIM
 10
7709.699
 20
3942.183
 0
ARC
 8
D-STR-STR2
 10
7073.649
 20
3328.555
 30
0.0
 40
810.0
 50
47.5453737924
 51
132.4546262076
 0
LINE
 8
D-BMK
 10
7563.649
 20
4242.183
 30
0.0
 11
7373.649
 21
4242.183
 31
0.0
 0
ARC
 8
D-BMK
 10
7373.649
 20
4182.183
 30
0.0
 40
60.0
 50
90.0
 51
180.0
 0
LINE
 8
D-BMK
 10
7313.649
 20
4182.183
 30
0.0
 11
7313.649
 21
4002.183
 31
0.0
 0
ARC
 8
D-BMK
 10
7253.649
 20
4002.183
 30
0.0
 40
60.0
 50
270.0
 51
0.0
 0
LINE
 8
D-BMK
 10
7253.649
 20
3942.183
 30
0.0
 11
6893.649
 21
3942.183
 31
0.0
 0
ARC
 8
D-BMK
 10
6893.649
 20
4002.183
 30
0.0
 40
60.0
 50
179.9999999999
 51
270.0
 0
LINE
 8
D-BMK
 10
6833.649
 20
4002.183
 30
0.0
 11
6833.649
 21
4182.183
 31
0.0
 0
ARC
 8
D-BMK
 10
6773.649
 20
4182.183
 30
0.0
 40
60.0
 50
359.9999999999
 51
90.0
 0
LINE
 8
D-BMK
 10
6773.649
 20
4242.183
 30
0.0
 11
6583.649
 21
4242.183
 31
0.0
 0
LINE
 8
D-STR
 10
7513.649
 20
4258.183
 30
0.0
 11
7373.649
 21
4258.183
 31
0.0
 0
ARC
 8
D-STR
 10
7373.649
 20
4182.183
 30
0.0
 40
76.0
 50
90.0
 51
180.0
 0
LINE
 8
D-STR
 10
7297.649
 20
4182.183
 30
0.0
 11
7297.649
 21
4002.183
 31
0.0
 0
ARC
 8
D-STR
 10
7253.649
 20
4002.183
 30
0.0
 40
44.0
 50
270.0
 51
359.9999999999
 0
LINE
 8
D-STR
 10
7253.649
 20
3958.183
 30
0.0
 11
6893.649
 21
3958.183
 31
0.0
 0
ARC
 8
D-STR
 10
6893.649
 20
4002.183
 30
0.0
 40
44.0
 50
180.0000000002
 51
270.0
 0
LINE
 8
D-STR
 10
6849.649
 20
4002.183
 30
0.0
 11
6849.649
 21
4182.183
 31
0.0
 0
ARC
 8
D-STR
 10
6773.649
 20
4182.183
 30
0.0
 40
76.0
 50
360.0
 51
90.0
 0
LINE
 8
D-STR
 10
6773.649
 20
4258.183
 30
0.0
 11
6633.649
 21
4258.183
 31
0.0
 0
LINE
 8
D-STR
 10
7513.649
 20
4226.183
 30
0.0
 11
7373.649
 21
4226.183
 31
0.0
 0
ARC
 8
D-STR
 10
7373.649
 20
4182.183
 30
0.0
 40
44.0
 50
90.0
 51
179.9999999997
 0
LINE
 8
D-STR
 10
7329.649
 20
4182.183
 30
0.0
 11
7329.649
 21
4002.183
 31
0.0
 0
ARC
 8
D-STR
 10
7253.649
 20
4002.183
 30
0.0
 40
76.0
 50
270.0
 51
359.9999999999
 0
LINE
 8
D-STR
 10
7253.649
 20
3926.183
 30
0.0
 11
6893.649
 21
3926.183
 31
0.0
 0
ARC
 8
D-STR
 10
6893.649
 20
4002.183
 30
0.0
 40
76.0
 50
179.9999999999
 51
270.0
 0
LINE
 8
D-STR
 10
6817.649
 20
4002.183
 30
0.0
 11
6817.649
 21
4182.183
 31
0.0
 0
ARC
 8
D-STR
 10
6773.649
 20
4182.183
 30
0.0
 40
44.0
 50
359.9999999998
 51
90.0
 0
LINE
 8
D-STR
 10
6773.649
 20
4226.183
 30
0.0
 11
6633.649
 21
4226.183
 31
0.0
 0
CIRCLE
 8
D-STR-DIM
 6
CONTINUOUS
 62
7
 10
7859.112
 20
4242.183
 30
0.0
 40
5.0
 0
LINE
 8
D-STR-DIM
 6
CONTINUOUS
 62
7
 10
7859.112
 20
4242.183
 30
0.0
 11
7859.112
 21
4232.183
 31
0.0
 0
CIRCLE
 8
D-STR-DIM
 6
CONTINUOUS
 62
7
 10
7859.112
 20
3942.183
 30
0.0
 40
5.0
 0
LINE
 8
D-STR-DIM
 6
CONTINUOUS
 62
7
 10
7859.112
 20
3942.183
 30
0.0
 11
7859.112
 21
3952.183
 31
0.0
 0
LINE
 8
D-STR-DIM
 6
CONTINUOUS
 62
7
 10
7573.649
 20
4242.183
 30
0.0
 11
7869.112
 21
4242.183
 31
0.0
 0
LINE
 8
D-STR-DIM
 6
CONTINUOUS
 62
7
 10
7323.649
 20
3942.183
 30
0.0
 11
7869.112
 21
3942.183
 31
0.0
 0
LINE
 8
D-STR-DIM
 6
CONTINUOUS
 62
7
 10
7859.112
 20
4232.183
 30
0.0
 11
7859.112
 21
3952.183
 31
0.0
 0
TEXT
 8
D-STR-DIM
 62
7
 10
7849.112
 20
4065.933
 30
0.0
 40
35.0
 1
150
 50
90.0
 72
1
 11
7831.612
 21
4092.183
 31
0.0
 73
2
 0
POINT
 8
D-STR-DIM
 10
7563.649
 20
4242.183
 0
POINT
 8
D-STR-DIM
 10
7313.649
 20
3942.183
 0
POINT
 8
D-STR-DIM
 10
7859.112
 20
3942.183
 0
TEXT
 8
D-STR-DIM
 10
7205.779
 20
3994.262
 30
0.0
 40
25.0
 1
R30
 72
1
 11
7224.529
 21
4006.762
 31
0.0
 73
2
 0
CIRCLE
 8
D-STR-DIM
 6
CONTINUOUS
 62
7
 10
7313.649
 20
4439.805
 30
0.0
 40
5.0
 0
LINE
 8
D-STR-DIM
 6
CONTINUOUS
 62
7
 10
7313.649
 20
4439.805
 30
0.0
 11
7323.649
 21
4439.805
 31
0.0
 0
CIRCLE
 8
D-STR-DIM
 6
CONTINUOUS
 62
7
 10
7513.649
 20
4439.805
 30
0.0
 40
5.0
 0
LINE
 8
D-STR-DIM
 6
CONTINUOUS
 62
7
 10
7513.649
 20
4439.805
 30
0.0
 11
7503.649
 21
4439.805
 31
0.0
 0
LINE
 8
D-STR-DIM
 6
CONTINUOUS
 62
7
 10
7313.649
 20
4252.183
 30
0.0
 11
7313.649
 21
4449.805
 31
0.0
 0
LINE
 8
D-STR-DIM
 6
CONTINUOUS
 62
7
 10
7513.649
 20
4268.183
 30
0.0
 11
7513.649
 21
4449.805
 31
0.0
 0
LINE
 8
D-STR-DIM
 6
CONTINUOUS
 62
7
 10
7323.649
 20
4439.805
 30
0.0
 11
7503.649
 21
4439.805
 31
0.0
 0
TEXT
 8
D-STR-DIM
 62
7
 10
7387.399
 20
4449.805
 30
0.0
 40
35.0
 1
100
 72
1
 11
7413.649
 21
4467.305
 31
0.0
 73
2
 0
POINT
 8
D-STR-DIM
 10
7313.649
 20
4242.183
 0
POINT
 8
D-STR-DIM
 10
7513.649
 20
4258.183
 0
POINT
 8
D-STR-DIM
 10
7513.649
 20
4439.805
 0
CIRCLE
 8
D-STR-DIM
 6
CONTINUOUS
 62
7
 10
6633.649
 20
4439.805
 30
0.0
 40
5.0
 0
LINE
 8
D-STR-DIM
 6
CONTINUOUS
 62
7
 10
6633.649
 20
4439.805
 30
0.0
 11
6643.649
 21
4439.805
 31
0.0
 0
CIRCLE
 8
D-STR-DIM
 6
CONTINUOUS
 62
7
 10
6833.649
 20
4439.805
 30
0.0
 40
5.0
 0
LINE
 8
D-STR-DIM
 6
CONTINUOUS
 62
7
 10
6833.649
 20
4439.805
 30
0.0
 11
6823.649
 21
4439.805
 31
0.0
 0
LINE
 8
D-STR-DIM
 6
CONTINUOUS
 62
7
 10
6633.649
 20
4268.183
 30
0.0
 11
6633.649
 21
4449.805
 31
0.0
 0
LINE
 8
D-STR-DIM
 6
CONTINUOUS
 62
7
 10
6833.649
 20
4252.183
 30
0.0
 11
6833.649
 21
4449.805
 31
0.0
 0
LINE
 8
D-STR-DIM
 6
CONTINUOUS
 62
7
 10
6643.649
 20
4439.805
 30
0.0
 11
6823.649
 21
4439.805
 31
0.0
 0
TEXT
 8
D-STR-DIM
 62
7
 10
6707.399
 20
4449.805
 30
0.0
 40
35.0
 1
100
 72
1
 11
6733.649
 21
4467.305
 31
0.0
 73
2
 0
POINT
 8
D-STR-DIM
 10
6633.649
 20
4258.183
 0
POINT
 8
D-STR-DIM
 10
6833.649
 20
4242.183
 0
POINT
 8
D-STR-DIM
 10
6833.649
 20
4439.805
 0
TEXT
 8
D-STR-DIM
 10
6911.076
 20
4364.513
 30
0.0
 40
35.0
 1
φ16（ＳＵＳ）
 72
0
 11
6911.076
 21
4382.013
 31
0.0
 73
2
 0
TEXT
 8
D-TTL-TXT
 10
6408.649
 20
4774.849
 30
0.0
 40
70.0
 1
はしご取付用ステップ詳細図　Ｓ　＝　１
 72
1
 11
7073.649
 21
4774.849
 31
0.0
 73
0
 0
TEXT
 8
D-TTL-TXT
 10
7003.649
 20
4658.183
 30
0.0
 40
70.0
 1
／５
 72
1
 11
7073.649
 21
4658.183
 31
0.0
 73
0
 0
TEXT
 8
D-TTL-TXT
 10
6443.649
 20
3228.123
 30
0.0
 40
70.0
 1
嵩上げブロック固定部詳細図　Ｓ　＝　
 72
1
 11
7073.649
 21
3228.123
 31
0.0
 73
0
 0
TEXT
 8
D-TTL-TXT
 10
6968.649
 20
3111.457
 30
0.0
 40
70.0
 1
１／５
 72
1
 11
7073.649
 21
3111.457
 31
0.0
 73
0
 0
LINE
 8
D-STR
 10
6633.649
 20
4258.183
 30
0.0
 11
6633.649
 21
4226.183
 31
0.0
 0
LINE
 8
D-STR
 10
7513.649
 20
4258.183
 30
0.0
 11
7513.649
 21
4226.183
 31
0.0
 0
LINE
 8
D-STR
 10
6809.64
 20
2760.718
 30
0.0
 11
6809.64
 21
1700.718
 31
0.0
 0
LINE
 8
D-TTL-LINE
 6
CENTER
 10
6709.64
 20
1700.718
 30
0.0
 11
7659.64
 21
1700.718
 31
0.0
 0
LINE
 8
D-STR
 10
6809.64
 20
2000.718
 30
0.0
 11
7609.64
 21
2000.718
 31
0.0
 0
LINE
 8
D-STR
 10
6809.64
 20
2200.718
 30
0.0
 11
7209.64
 21
2200.718
 31
0.0
 0
LINE
 8
D-STR
 10
6809.64
 20
2400.718
 30
0.0
 11
7209.64
 21
2400.718
 31
0.0
 0
LINE
 8
D-STR
 10
6809.64
 20
2500.718
 30
0.0
 11
7169.64
 21
2500.718
 31
0.0
 0
LINE
 8
D-STR
 10
6849.64
 20
2540.718
 30
0.0
 11
7169.64
 21
2540.718
 31
0.0
 0
LINE
 8
D-STR
 10
6849.64
 20
2760.718
 30
0.0
 11
6849.64
 21
2540.718
 31
0.0
 0
LINE
 8
D-TTL-LINE
 6
CENTER
 10
7609.64
 20
2100.718
 30
0.0
 11
7609.64
 21
1600.718
 31
0.0
 0
LINE
 8
D-STR
 10
7209.64
 20
2400.718
 30
0.0
 11
7209.64
 21
2000.718
 31
0.0
 0
LINE
 8
D-STR
 10
7169.64
 20
2400.718
 30
0.0
 11
7169.64
 21
2540.718
 31
0.0
 0
LINE
 8
D-STR
 10
7079.64
 20
2636.718
 30
0.0
 11
7079.64
 21
2586.718
 31
0.0
 0
LINE
 8
D-STR
 10
7059.64
 20
2636.718
 30
0.0
 11
7059.64
 21
2586.718
 31
0.0
 0
LINE
 8
D-STR
 10
7063.64
 20
2640.718
 30
0.0
 11
7075.64
 21
2640.718
 31
0.0
 0
LINE
 8
D-STR
 10
7059.64
 20
1960.718
 30
0.0
 11
7079.64
 21
1960.718
 31
0.0
 0
LINE
 8
D-STR
 10
7019.64
 20
2546.718
 30
0.0
 11
7119.64
 21
2546.718
 31
0.0
 0
LINE
 8
D-STR
 10
7039.64
 20
2586.718
 30
0.0
 11
7099.64
 21
2586.718
 31
0.0
 0
LINE
 8
D-STR
 10
7039.64
 20
2586.718
 30
0.0
 11
7039.64
 21
2546.718
 31
0.0
 0
LINE
 8
D-STR
 10
7069.64
 20
2580.718
 30
0.0
 11
7069.64
 21
2546.718
 31
0.0
 0
LINE
 8
D-STR
 10
7099.64
 20
2586.718
 30
0.0
 11
7099.64
 21
2546.718
 31
0.0
 0
LINE
 8
D-STR
 10
7019.64
 20
2546.718
 30
0.0
 11
7019.64
 21
2540.718
 31
0.0
 0
LINE
 8
D-STR
 10
7119.64
 20
2546.718
 30
0.0
 11
7119.64
 21
2540.718
 31
0.0
 0
LINE
 8
D-STR
 10
7039.64
 20
2580.718
 30
0.0
 11
7049.64
 21
2586.718
 31
0.0
 0
LINE
 8
D-STR
 10
7059.64
 20
2586.718
 30
0.0
 11
7069.64
 21
2580.718
 31
0.0
 0
LINE
 8
D-STR
 10
7079.64
 20
2586.718
 30
0.0
 11
7069.64
 21
2580.718
 31
0.0
 0
LINE
 8
D-STR
 10
7089.64
 20
2586.718
 30
0.0
 11
7099.64
 21
2580.718
 31
0.0
 0
LINE
 8
D-STR
 10
7079.64
 20
2500.718
 30
0.0
 11
7079.64
 21
1960.718
 31
0.0
 0
LINE
 8
D-STR
 10
7059.64
 20
2500.718
 30
0.0
 11
7059.64
 21
1960.718
 31
0.0
 0
ARC
 8
D-STR
 10
7063.64
 20
2636.718
 30
0.0
 40
4.0
 50
90.0
 51
180.0
 0
ARC
 8
D-STR
 10
7075.64
 20
2636.718
 30
0.0
 40
4.0
 50
0.0
 51
90.0
 0
LINE
 8
D-STR
 10
7089.64
 20
2400.718
 30
0.0
 11
7089.64
 21
2000.718
 31
0.0
 0
LINE
 8
D-STR
 10
7049.64
 20
2400.718
 30
0.0
 11
7049.64
 21
2000.718
 31
0.0
 0
LINE
 8
D-STR
 10
7033.64
 20
1800.718
 30
0.0
 11
7069.64
 21
1800.718
 31
0.0
 0
CIRCLE
 8
D-BGD
 10
6915.579
 20
2426.451
 30
0.0
 40
2.887
 0
CIRCLE
 8
D-BGD
 10
6853.347
 20
2459.656
 30
0.0
 40
1.293
 0
CIRCLE
 8
D-BGD
 10
6892.811
 20
2455.13
 30
0.0
 40
3.448
 0
CIRCLE
 8
D-BGD
 10
6962.681
 20
2470.003
 30
0.0
 40
2.586
 0
CIRCLE
 8
D-BGD
 10
6984.678
 20
2415.686
 30
0.0
 40
0.647
 0
CIRCLE
 8
D-BGD
 10
6844.937
 20
2420.212
 30
0.0
 40
1.94
 0
CIRCLE
 8
D-BGD
 10
6833.292
 20
2474.529
 30
0.0
 40
1.443
 0
CIRCLE
 8
D-BGD
 10
6935.51
 20
2480.348
 30
0.0
 40
0.647
 0
CIRCLE
 8
D-BGD
 10
6953.624
 20
2419.566
 30
0.0
 40
1.94
 0
CIRCLE
 8
D-BGD
 10
6877.284
 20
2419.566
 30
0.0
 40
0.647
 0
CIRCLE
 8
D-BGD
 10
7087.284
 20
2419.566
 30
0.0
 40
0.647
 0
CIRCLE
 8
D-BGD
 10
7163.624
 20
2419.566
 30
0.0
 40
1.94
 0
CIRCLE
 8
D-BGD
 10
7145.51
 20
2480.348
 30
0.0
 40
0.647
 0
CIRCLE
 8
D-BGD
 10
7043.292
 20
2474.529
 30
0.0
 40
1.443
 0
CIRCLE
 8
D-BGD
 10
7054.937
 20
2420.212
 30
0.0
 40
1.94
 0
CIRCLE
 8
D-BGD
 10
7146.157
 20
2415.686
 30
0.0
 40
0.647
 0
CIRCLE
 8
D-BGD
 10
7124.16
 20
2470.003
 30
0.0
 40
2.586
 0
CIRCLE
 8
D-BGD
 10
7102.811
 20
2455.13
 30
0.0
 40
3.448
 0
CIRCLE
 8
D-BGD
 10
7052.349
 20
2449.31
 30
0.0
 40
1.293
 0
CIRCLE
 8
D-BGD
 10
7125.579
 20
2426.451
 30
0.0
 40
2.887
 0
CIRCLE
 8
D-BGD
 10
6941.979
 20
2448.017
 30
0.0
 40
0.647
 0
CIRCLE
 8
D-BGD
 10
7011.202
 20
2444.784
 30
0.0
 40
0.647
 0
CIRCLE
 8
D-BGD
 10
6978.855
 20
2445.431
 30
0.0
 40
1.94
 0
CIRCLE
 8
D-BGD
 10
6987.265
 20
2484.875
 30
0.0
 40
1.293
 0
CIRCLE
 8
D-BGD
 10
7024.944
 20
2420.353
 30
0.0
 40
2.586
 0
LINE
 8
D-STR
 10
7051.64
 20
2000.718
 30
0.0
 11
7051.64
 21
1880.718
 31
0.0
 0
LINE
 8
D-STR
 10
7087.64
 20
2000.718
 30
0.0
 11
7087.64
 21
1880.718
 31
0.0
 0
LINE
 8
D-STR
 10
7087.64
 20
1880.718
 30
0.0
 11
7069.64
 21
1800.718
 31
0.0
 0
LINE
 8
D-STR
 10
7051.64
 20
1880.718
 30
0.0
 11
7033.64
 21
1800.718
 31
0.0
 0
LINE
 8
D-STR
 10
7087.64
 20
1880.718
 30
0.0
 11
7105.64
 21
1800.718
 31
0.0
 0
LINE
 8
D-STR
 10
7073.083
 20
1816.023
 30
0.0
 11
7076.527
 21
1800.718
 31
0.0
 0
LINE
 8
D-STR
 10
7076.527
 20
1800.718
 30
0.0
 11
7105.64
 21
1800.718
 31
0.0
 0
CIRCLE
 8
D-STR-DIM
 6
CONTINUOUS
 62
7
 10
7505.103
 20
2400.718
 30
0.0
 40
5.0
 0
LINE
 8
D-STR-DIM
 6
CONTINUOUS
 62
7
 10
7505.103
 20
2400.718
 30
0.0
 11
7505.103
 21
2390.718
 31
0.0
 0
CIRCLE
 8
D-STR-DIM
 6
CONTINUOUS
 62
7
 10
7505.103
 20
2000.718
 30
0.0
 40
5.0
 0
LINE
 8
D-STR-DIM
 6
CONTINUOUS
 62
7
 10
7505.103
 20
2000.718
 30
0.0
 11
7505.103
 21
2010.718
 31
0.0
 0
LINE
 8
D-STR-DIM
 6
CONTINUOUS
 62
7
 10
7219.64
 20
2400.718
 30
0.0
 11
7515.103
 21
2400.718
 31
0.0
 0
LINE
 8
D-STR-DIM
 6
CONTINUOUS
 62
7
 10
7219.64
 20
2000.718
 30
0.0
 11
7515.103
 21
2000.718
 31
0.0
 0
LINE
 8
D-STR-DIM
 6
CONTINUOUS
 62
7
 10
7505.103
 20
2390.718
 30
0.0
 11
7505.103
 21
2010.718
 31
0.0
 0
TEXT
 8
D-STR-DIM
 62
7
 10
7495.103
 20
2174.468
 30
0.0
 40
35.0
 1
200
 50
90.0
 72
1
 11
7477.603
 21
2200.718
 31
0.0
 73
2
 0
POINT
 8
D-STR-DIM
 10
7209.64
 20
2400.718
 0
POINT
 8
D-STR-DIM
 10
7209.64
 20
2000.718
 0
POINT
 8
D-STR-DIM
 10
7505.103
 20
2000.718
 0
CIRCLE
 8
D-STR-DIM
 6
CONTINUOUS
 62
7
 10
7355.689
 20
2200.718
 30
0.0
 40
5.0
 0
LINE
 8
D-STR-DIM
 6
CONTINUOUS
 62
7
 10
7355.689
 20
2200.718
 30
0.0
 11
7355.689
 21
2190.718
 31
0.0
 0
CIRCLE
 8
D-STR-DIM
 6
CONTINUOUS
 62
7
 10
7355.689
 20
2000.718
 30
0.0
 40
5.0
 0
LINE
 8
D-STR-DIM
 6
CONTINUOUS
 62
7
 10
7355.689
 20
2000.718
 30
0.0
 11
7355.689
 21
2010.718
 31
0.0
 0
LINE
 8
D-STR-DIM
 6
CONTINUOUS
 62
7
 10
7219.64
 20
2200.718
 30
0.0
 11
7365.689
 21
2200.718
 31
0.0
 0
LINE
 8
D-STR-DIM
 6
CONTINUOUS
 62
7
 10
7219.64
 20
2000.718
 30
0.0
 11
7365.689
 21
2000.718
 31
0.0
 0
LINE
 8
D-STR-DIM
 6
CONTINUOUS
 62
7
 10
7355.689
 20
2190.718
 30
0.0
 11
7355.689
 21
2010.718
 31
0.0
 0
TEXT
 8
D-STR-DIM
 62
7
 10
7345.689
 20
2074.468
 30
0.0
 40
35.0
 1
100
 50
90.0
 72
1
 11
7328.189
 21
2100.718
 31
0.0
 73
2
 0
POINT
 8
D-STR-DIM
 10
7209.64
 20
2200.718
 0
POINT
 8
D-STR-DIM
 10
7209.64
 20
2000.718
 0
POINT
 8
D-STR-DIM
 10
7355.689
 20
2000.718
 0
CIRCLE
 8
D-STR-DIM
 6
CONTINUOUS
 62
7
 10
7355.689
 20
2400.718
 30
0.0
 40
5.0
 0
LINE
 8
D-STR-DIM
 6
CONTINUOUS
 62
7
 10
7355.689
 20
2400.718
 30
0.0
 11
7355.689
 21
2390.718
 31
0.0
 0
CIRCLE
 8
D-STR-DIM
 6
CONTINUOUS
 62
7
 10
7355.689
 20
2200.718
 30
0.0
 40
5.0
 0
LINE
 8
D-STR-DIM
 6
CONTINUOUS
 62
7
 10
7355.689
 20
2200.718
 30
0.0
 11
7355.689
 21
2210.718
 31
0.0
 0
LINE
 8
D-STR-DIM
 6
CONTINUOUS
 62
7
 10
7219.64
 20
2400.718
 30
0.0
 11
7365.689
 21
2400.718
 31
0.0
 0
LINE
 8
D-STR-DIM
 6
CONTINUOUS
 62
7
 10
7219.64
 20
2200.718
 30
0.0
 11
7365.689
 21
2200.718
 31
0.0
 0
LINE
 8
D-STR-DIM
 6
CONTINUOUS
 62
7
 10
7355.689
 20
2390.718
 30
0.0
 11
7355.689
 21
2210.718
 31
0.0
 0
TEXT
 8
D-STR-DIM
 62
7
 10
7345.689
 20
2274.468
 30
0.0
 40
35.0
 1
100
 50
90.0
 72
1
 11
7328.189
 21
2300.718
 31
0.0
 73
2
 0
POINT
 8
D-STR-DIM
 10
7209.64
 20
2400.718
 0
POINT
 8
D-STR-DIM
 10
7209.64
 20
2200.718
 0
POINT
 8
D-STR-DIM
 10
7355.689
 20
2200.718
 0
TEXT
 8
D-STR-DIM
 10
6688.386
 20
2062.838
 30
0.0
 40
35.0
 1
内面
 72
1
 11
6723.386
 21
2080.338
 31
0.0
 73
2
 0
TEXT
 8
D-STR-HTXT
 10
6445.569
 20
2365.678
 30
0.0
 40
35.0
 1
嵩上げブロック
 72
2
 11
6690.569
 21
2383.178
 31
0.0
 73
2
 0
TEXT
 8
D-STR-HTXT
 10
6480.569
 20
2510.522
 30
0.0
 40
35.0
 1
調整モルタル
 72
2
 11
6690.569
 21
2528.022
 31
0.0
 73
2
 0
TEXT
 8
D-STR-HTXT
 10
7206.71
 20
1833.519
 30
0.0
 40
35.0
 1
インサート　Ｍ１６
 72
0
 11
7206.71
 21
1851.019
 31
0.0
 73
2
 0
TEXT
 8
D-STR-HTXT
 10
7198.71
 20
2708.496
 30
0.0
 40
35.0
 1
ボルト,ワッシャー
 0
TEXT
 8
D-STR-HTXT
 10
7198.71
 20
2650.162
 30
0.0
 40
35.0
 1
蓋の材料に含む
 0
LINE
 8
D-STR-HTXT
 10
-7097.25
 20
2651.216
 30
0.0
 11
-7079.64
 21
2636.718
 31
0.0
 0
LINE
 8
D-STR-HTXT
 10
-7101.0
 20
2644.72
 30
0.0
 11
-7079.64
 21
2636.718
 31
0.0
 0
LINE
 8
D-STR-HTXT
 10
-7079.64
 20
2636.718
 30
0.0
 11
-7099.125
 21
2647.968
 31
0.0
 0
LINE
 8
D-STR-HTXT
 10
-7088.3
 20
2641.718
 30
0.0
 11
-7178.71
 21
2693.916
 31
0.0
 0
LINE
 8
D-STR-HTXT
 10
-7178.71
 20
2693.916
 30
0.0
 11
-7188.71
 21
2693.85
 31
0.0
 0
LINE
 8
D-STR-HTXT
 10
-7188.71
 20
2693.85
 30
0.0
 11
-7535.71
 21
2693.85
 31
0.0
 0
LINE
 8
D-STR-HTXT
 10
-6867.25
 20
2723.506
 30
0.0
 11
-6849.64
 21
2709.008
 31
0.0
 0
LINE
 8
D-STR-HTXT
 10
-6871.0
 20
2717.01
 30
0.0
 11
-6849.64
 21
2709.008
 31
0.0
 0
LINE
 8
D-STR-HTXT
 10
-6849.64
 20
2709.008
 30
0.0
 11
-6869.125
 21
2720.258
 31
0.0
 0
LINE
 8
D-STR-HTXT
 10
-6858.3
 20
2714.008
 30
0.0
 11
-6948.71
 21
2766.207
 31
0.0
 0
LINE
 8
D-STR-HTXT
 10
-6948.71
 20
2766.207
 30
0.0
 11
-7083.044
 21
2766.207
 31
0.0
 0
TEXT
 8
D-STR-HTXT
 10
6968.71
 20
2774.344
 30
0.0
 40
35.0
 1
蓋受枠
 0
LINE
 8
D-TTL
 6
CONTINUOUS
 10
400.0
 20
5740.0
 30
0.0
 11
8210.0
 21
5740.0
 31
0.0
 0
LINE
 8
D-TTL
 6
CONTINUOUS
 10
8210.0
 20
5740.0
 30
0.0
 11
8210.0
 21
200.0
 31
0.0
 0
LINE
 8
D-TTL
 6
CONTINUOUS
 10
8210.0
 20
200.0
 30
0.0
 11
400.0
 21
200.0
 31
0.0
 0
LINE
 8
D-TTL
 6
CONTINUOUS
 10
400.0
 20
200.0
 30
0.0
 11
400.0
 21
5740.0
 31
0.0
 0
LINE
 8
D-TTL
 6
CONTINUOUS
 10
0.0
 20
5940.0
 30
0.0
 11
8410.0
 21
5940.0
 31
0.0
 0
LINE
 8
D-TTL
 6
CONTINUOUS
 10
8410.0
 20
5940.0
 30
0.0
 11
8410.0
 21
0.0
 31
0.0
 0
LINE
 8
D-TTL
 6
CONTINUOUS
 10
8410.0
 20
0.0
 30
0.0
 11
0.0
 21
0.0
 31
0.0
 0
LINE
 8
D-TTL
 6
CONTINUOUS
 10
0.0
 20
0.0
 30
0.0
 11
0.0
 21
5940.0
 31
0.0
 0
LINE
 8
D-TTL-FRAM
 6
CONTINUOUS
 62
2
 10
7210.0
 20
200.0
 30
0.0
 11
7210.0
 21
800.0
 31
0.0
 0
LINE
 8
D-TTL
 6
CONTINUOUS
 10
8210.0
 20
800.0
 30
0.0
 11
8210.0
 21
200.0
 31
0.0
 0
LINE
 8
D-TTL
 6
CONTINUOUS
 10
8210.0
 20
200.0
 30
0.0
 11
7210.0
 21
200.0
 31
0.0
 0
LINE
 8
D-TTL-FRAM
 6
CONTINUOUS
 62
2
 10
7210.0
 20
800.0
 30
0.0
 11
8210.0
 21
800.0
 31
0.0
 0
LINE
 8
D-TTL-TXT
 6
CONTINUOUS
 10
7840.0
 20
5740.0
 30
0.0
 11
7840.0
 21
5660.0
 31
0.0
 0
LINE
 8
D-TTL-TXT
 6
CONTINUOUS
 10
7960.0
 20
5740.0
 30
0.0
 11
7960.0
 21
5660.0
 31
0.0
 0
LINE
 8
D-TTL-TXT
 6
CONTINUOUS
 10
8210.0
 20
5740.0
 30
0.0
 11
8210.0
 21
5660.0
 31
0.0
 0
LINE
 8
D-TTL-TXT
 6
CONTINUOUS
 10
7840.0
 20
5660.0
 30
0.0
 11
8210.0
 21
5660.0
 31
0.0
 0
LINE
 8
D-TTL-TXT
 6
CONTINUOUS
 10
7840.0
 20
5740.0
 30
0.0
 11
8210.0
 21
5740.0
 31
0.0
 0
TEXT
 8
D-TTL-TXT
 10
7865.714
 20
5680.0
 30
0.0
 40
35.0
 1
図番
 0
TEXT
 8
D-TTL-TXT
 10
8040.733
 20
5680.891
 30
0.0
 40
35.0
 1
A4A23
 72
4
 11
8084.483
 21
5698.391
 31
0.0
 73
0
 0
LINE
 8
D-STR-HTXT
 10
1360.934
 20
3729.756
 30
0.0
 11
1350.264
 21
3758.236
 31
0.0
 0
LINE
 8
D-STR-HTXT
 10
1369.594
 20
3734.756
 30
0.0
 11
1350.264
 21
3758.236
 31
0.0
 0
LINE
 8
D-STR-HTXT
 10
1350.264
 20
3758.236
 30
0.0
 11
1365.264
 21
3732.256
 31
0.0
 0
LINE
 8
D-STR-HTXT
 10
1365.264
 20
3732.256
 30
0.0
 11
1455.163
 21
3576.546
 31
0.0
 0
LINE
 8
D-STR-HTXT
 10
1455.163
 20
3576.546
 30
0.0
 11
1705.163
 21
3576.546
 31
0.0
 0
LINE
 8
D-STR-HTXT
 10
3260.934
 20
3729.756
 30
0.0
 11
3250.264
 21
3758.236
 31
0.0
 0
LINE
 8
D-STR-HTXT
 10
3269.594
 20
3734.756
 30
0.0
 11
3250.264
 21
3758.236
 31
0.0
 0
LINE
 8
D-STR-HTXT
 10
3250.264
 20
3758.236
 30
0.0
 11
3265.264
 21
3732.256
 31
0.0
 0
LINE
 8
D-STR-HTXT
 10
3265.264
 20
3732.256
 30
0.0
 11
3355.163
 21
3576.546
 31
0.0
 0
LINE
 8
D-STR-HTXT
 10
3355.163
 20
3576.546
 30
0.0
 11
3605.163
 21
3576.546
 31
0.0
 0
TEXT
 8
D-STR-HTXT
 10
3385.119
 20
3586.647
 30
0.0
 40
35.0
 1
蓋取付用穴
 72
0
 11
3385.119
 21
3604.147
 31
0.0
 73
2
 0
TEXT
 8
D-STR-HTXT
 10
3385.119
 20
3528.314
 30
0.0
 40
35.0
 1
　 φ30
 72
0
 11
3385.119
 21
3545.814
 31
0.0
 73
2
 0
ENDSEC
 0
EOF
