  0
SECTION
  2
HEADER
  9
$ACADVER
  1
AC1015
  9
$ACADMAINTVER
 70
    20
  9
$DWGCODEPAGE
  3
ANSI_932
  9
$INSBASE
 10
0.0
 20
0.0
 30
0.0
  9
$EXTMIN
 10
0.0
 20
-0.0000023372522264
 30
0.0
  9
$EXTMAX
 10
16819.99993279995
 20
11879.99995006277
 30
0.0
  9
$LIMMIN
 10
0.0
 20
0.0
  9
$LIMMAX
 10
420.0
 20
297.0
  9
$ORTHOMODE
 70
     0
  9
$REGENMODE
 70
     1
  9
$FILLMODE
 70
     1
  9
$QTEXTMODE
 70
     0
  9
$MIRRTEXT
 70
     0
  9
$LTSCALE
 40
20.0
  9
$ATTMODE
 70
     1
  9
$TEXTSIZE
 40
2.5
  9
$TRACEWID
 40
1.0
  9
$TEXTSTYLE
  7
STANDARD
  9
$CLAYER
  8
0
  9
$CELTYPE
  6
BYLAYER
  9
$CECOLOR
 62
   256
  9
$CELTSCALE
 40
1.0
  9
$DISPSILH
 70
     0
  9
$DIMSCALE
 40
1.0
  9
$DIMASZ
 40
20.0
  9
$DIMEXO
 40
20.0
  9
$DIMDLI
 40
0.0
  9
$DIMRND
 40
0.0
  9
$DIMDLE
 40
0.0
  9
$DIMEXE
 40
20.0
  9
$DIMTP
 40
0.0
  9
$DIMTM
 40
0.0
  9
$DIMTXT
 40
70.0
  9
$DIMCEN
 40
20.0
  9
$DIMTSZ
 40
0.0
  9
$DIMTOL
 70
     0
  9
$DIMLIM
 70
     0
  9
$DIMTIH
 70
     0
  9
$DIMTOH
 70
     0
  9
$DIMSE1
 70
     0
  9
$DIMSE2
 70
     0
  9
$DIMTAD
 70
     1
  9
$DIMZIN
 70
     8
  9
$DIMBLK
  1
OPEN
  9
$DIMASO
 70
     1
  9
$DIMSHO
 70
     1
  9
$DIMPOST
  1

  9
$DIMAPOST
  1

  9
$DIMALT
 70
     0
  9
$DIMALTD
 70
     3
  9
$DIMALTF
 40
0.03937007874016
  9
$DIMLFAC
 40
1.0
  9
$DIMTOFL
 70
     1
  9
$DIMTVP
 40
0.0
  9
$DIMTIX
 70
     1
  9
$DIMSOXD
 70
     0
  9
$DIMSAH
 70
     0
  9
$DIMBLK1
  1

  9
$DIMBLK2
  1

  9
$DIMSTYLE
  2
20
  9
$DIMCLRD
 70
   256
  9
$DIMCLRE
 70
   256
  9
$DIMCLRT
 70
   256
  9
$DIMTFAC
 40
1.0
  9
$DIMGAP
 40
20.0
  9
$DIMJUST
 70
     0
  9
$DIMSD1
 70
     0
  9
$DIMSD2
 70
     0
  9
$DIMTOLJ
 70
     1
  9
$DIMTZIN
 70
     8
  9
$DIMALTZ
 70
     0
  9
$DIMALTTZ
 70
     0
  9
$DIMUPT
 70
     0
  9
$DIMDEC
 70
     0
  9
$DIMTDEC
 70
     0
  9
$DIMALTU
 70
     2
  9
$DIMALTTD
 70
     3
  9
$DIMTXSTY
  7
STANDARD
  9
$DIMAUNIT
 70
     1
  9
$DIMADEC
 70
     4
  9
$DIMALTRND
 40
0.0
  9
$DIMAZIN
 70
     0
  9
$DIMDSEP
 70
    46
  9
$DIMATFIT
 70
     3
  9
$DIMFRAC
 70
     0
  9
$DIMLDRBLK
  1
OPEN
  9
$DIMLUNIT
 70
     2
  9
$DIMLWD
 70
    -2
  9
$DIMLWE
 70
    -2
  9
$DIMTMOVE
 70
     1
  9
$LUNITS
 70
     2
  9
$LUPREC
 70
     4
  9
$SKETCHINC
 40
1.0
  9
$FILLETRAD
 40
10.0
  9
$AUNITS
 70
     0
  9
$AUPREC
 70
     0
  9
$MENU
  1
.
  9
$ELEVATION
 40
0.0
  9
$PELEVATION
 40
0.0
  9
$THICKNESS
 40
0.0
  9
$LIMCHECK
 70
     0
  9
$CHAMFERA
 40
150.0
  9
$CHAMFERB
 40
150.0
  9
$CHAMFERC
 40
20.0
  9
$CHAMFERD
 40
0.0
  9
$SKPOLY
 70
     0
  9
$TDCREATE
 40
2452404.412662234
  9
$TDUCREATE
 40
2452404.037662234
  9
$TDUPDATE
 40
2454744.613230787
  9
$TDUUPDATE
 40
2454744.238230787
  9
$TDINDWG
 40
1.6757067593
  9
$TDUSRTIMER
 40
1.6757060648
  9
$USRTIMER
 70
     1
  9
$ANGBASE
 50
0.0
  9
$ANGDIR
 70
     0
  9
$PDMODE
 70
     0
  9
$PDSIZE
 40
0.0
  9
$PLINEWID
 40
0.0
  9
$SPLFRAME
 70
     0
  9
$SPLINETYPE
 70
     6
  9
$SPLINESEGS
 70
     8
  9
$HANDSEED
  5
28685
  9
$SURFTAB1
 70
     6
  9
$SURFTAB2
 70
     6
  9
$SURFTYPE
 70
     6
  9
$SURFU
 70
     6
  9
$SURFV
 70
     6
  9
$UCSBASE
  2

  9
$UCSNAME
  2

  9
$UCSORG
 10
0.0
 20
0.0
 30
0.0
  9
$UCSXDIR
 10
1.0
 20
0.0
 30
0.0
  9
$UCSYDIR
 10
0.0
 20
1.0
 30
0.0
  9
$UCSORTHOREF
  2

  9
$UCSORTHOVIEW
 70
     0
  9
$UCSORGTOP
 10
0.0
 20
0.0
 30
0.0
  9
$UCSORGBOTTOM
 10
0.0
 20
0.0
 30
0.0
  9
$UCSORGLEFT
 10
0.0
 20
0.0
 30
0.0
  9
$UCSORGRIGHT
 10
0.0
 20
0.0
 30
0.0
  9
$UCSORGFRONT
 10
0.0
 20
0.0
 30
0.0
  9
$UCSORGBACK
 10
0.0
 20
0.0
 30
0.0
  9
$PUCSBASE
  2

  9
$PUCSNAME
  2

  9
$PUCSORG
 10
0.0
 20
0.0
 30
0.0
  9
$PUCSXDIR
 10
1.0
 20
0.0
 30
0.0
  9
$PUCSYDIR
 10
0.0
 20
1.0
 30
0.0
  9
$PUCSORTHOREF
  2

  9
$PUCSORTHOVIEW
 70
     0
  9
$PUCSORGTOP
 10
0.0
 20
0.0
 30
0.0
  9
$PUCSORGBOTTOM
 10
0.0
 20
0.0
 30
0.0
  9
$PUCSORGLEFT
 10
0.0
 20
0.0
 30
0.0
  9
$PUCSORGRIGHT
 10
0.0
 20
0.0
 30
0.0
  9
$PUCSORGFRONT
 10
0.0
 20
0.0
 30
0.0
  9
$PUCSORGBACK
 10
0.0
 20
0.0
 30
0.0
  9
$USERI1
 70
     0
  9
$USERI2
 70
     0
  9
$USERI3
 70
     0
  9
$USERI4
 70
     0
  9
$USERI5
 70
     0
  9
$USERR1
 40
0.0
  9
$USERR2
 40
0.0
  9
$USERR3
 40
0.0
  9
$USERR4
 40
0.0
  9
$USERR5
 40
0.0
  9
$WORLDVIEW
 70
     1
  9
$SHADEDGE
 70
     3
  9
$SHADEDIF
 70
    70
  9
$TILEMODE
 70
     1
  9
$MAXACTVP
 70
    48
  9
$PINSBASE
 10
0.0
 20
0.0
 30
0.0
  9
$PLIMCHECK
 70
     0
  9
$PEXTMIN
 10
-7.18438714725903
 20
-19.73882792270024
 30
-0.0015258207003583
  9
$PEXTMAX
 10
833.8481947040165
 20
574.2966304217307
 30
0.0000000349246037
  9
$PLIMMIN
 10
-7.184387147259029
 20
-19.73882792270024
  9
$PLIMMAX
 10
-7.184387147259029
 20
-19.73882792270024
  9
$UNITMODE
 70
     0
  9
$VISRETAIN
 70
     1
  9
$PLINEGEN
 70
     0
  9
$PSLTSCALE
 70
     1
  9
$TREEDEPTH
 70
  3020
  9
$CMLSTYLE
  2
STANDARD
  9
$CMLJUST
 70
     0
  9
$CMLSCALE
 40
20.0
  9
$PROXYGRAPHICS
 70
     1
  9
$MEASUREMENT
 70
     0
  9
$CELWEIGHT
370
    -1
  9
$ENDCAPS
280
     0
  9
$JOINSTYLE
280
     0
  9
$LWDISPLAY
290
     0
  9
$INSUNITS
 70
     0
  9
$HYPERLINKBASE
  1

  9
$STYLESHEET
  1
canon国土交通省.ctb
  9
$XEDIT
290
     1
  9
$CEPSNTYPE
380
     0
  9
$PSTYLEMODE
290
     1
  9
$FINGERPRINTGUID
  2
{2179596F-6415-11D6-8A52-000255ECC0C6}
  9
$VERSIONGUID
  2
{3E403F26-8E18-11D6-9BFD-000629A6C5B5}
  9
$EXTNAMES
290
     1
  9
$PSVPSCALE
 40
0.0
  9
$OLESTARTUP
290
     0
  0
ENDSEC
  0
SECTION
  2
CLASSES
  0
CLASS
  1
ACDBDICTIONARYWDFLT
  2
AcDbDictionaryWithDefault
  3
ObjectDBX Classes
 90
        0
280
     0
281
     0
  0
CLASS
  1
ACDBPLACEHOLDER
  2
AcDbPlaceHolder
  3
ObjectDBX Classes
 90
        0
280
     0
281
     0
  0
CLASS
  1
LAYOUT
  2
AcDbLayout
  3
ObjectDBX Classes
 90
        0
280
     0
281
     0
  0
CLASS
  1
DICTIONARYVAR
  2
AcDbDictionaryVar
  3
ObjectDBX Classes
 90
        0
280
     0
281
     0
  0
CLASS
  1
PLOTSETTINGS
  2
AcDbPlotSettings
  3
ObjectDBX Classes
 90
    32768
280
     0
281
     0
  0
CLASS
  1
TABLESTYLE
  2
AcDbTableStyle
  3
ObjectDBX Classes
 90
     2047
280
     0
281
     0
  0
ENDSEC
  0
SECTION
  2
TABLES
  0
TABLE
  2
VPORT
  5
8
330
0
100
AcDbSymbolTable
 70
     2
  0
VPORT
  5
2867D
330
8
100
AcDbSymbolTableRecord
100
AcDbViewportTableRecord
  2
*Active
 70
     0
 10
0.0
 20
0.0
 11
1.0
 21
1.0
 12
8410.000083893491
 22
6008.875529033231
 13
0.0
 23
0.0
 14
10.0
 24
10.0
 15
10.0
 25
10.0
 16
0.0
 26
0.0
 36
1.0
 17
0.0
 27
0.0
 37
0.0
 40
12137.51398434271
 41
1.786538461538461
 42
50.0
 43
0.0
 44
0.0
 50
0.0
 51
0.0
 71
     0
 72
   100
 73
     1
 74
     3
 75
     0
 76
     0
 77
     0
 78
     0
281
     0
 65
     1
110
0.0
120
0.0
130
0.0
111
1.0
121
0.0
131
0.0
112
0.0
122
1.0
132
0.0
 79
     0
146
0.0
  0
ENDTAB
  0
TABLE
  2
LTYPE
  5
5
330
0
100
AcDbSymbolTable
 70
     4
  0
LTYPE
  5
14
330
5
100
AcDbSymbolTableRecord
100
AcDbLinetypeTableRecord
  2
BYBLOCK
 70
     0
  3

 72
    65
 73
     0
 40
0.0
  0
LTYPE
  5
15
330
5
100
AcDbSymbolTableRecord
100
AcDbLinetypeTableRecord
  2
BYLAYER
 70
     0
  3

 72
    65
 73
     0
 40
0.0
  0
LTYPE
  5
16
330
5
100
AcDbSymbolTableRecord
100
AcDbLinetypeTableRecord
  2
CONTINUOUS
 70
     0
  3
Solid line
 72
    65
 73
     0
 40
0.0
  0
LTYPE
  5
86
330
5
100
AcDbSymbolTableRecord
100
AcDbLinetypeTableRecord
  2
CENTER
 70
     0
  3
____ _ ____ _ ____ _ ____ _ ____ _ ____ _ ____
 72
    65
 73
     4
 40
17.5
 49
13.0
 74
     0
 49
-1.5
 74
     0
 49
1.5
 74
     0
 49
-1.5
 74
     0
  0
LTYPE
  5
1CC8E
330
5
100
AcDbSymbolTableRecord
100
AcDbLinetypeTableRecord
  2
CENTER2
 70
     0
  3
----------  --  ----------  --  
 72
    65
 73
     4
 40
20.0
 49
12.5
 74
     0
 49
-2.5
 74
     0
 49
2.5
 74
     0
 49
-2.5
 74
     0
  0
LTYPE
  5
2684A
330
5
100
AcDbSymbolTableRecord
100
AcDbLinetypeTableRecord
  2
DASHED1
 70
     0
  3
--  --  --  --  --  --  --  --  
 72
    65
 73
     2
 40
2.5
 49
1.25
 74
     0
 49
-1.25
 74
     0
  0
ENDTAB
  0
TABLE
  2
LAYER
  5
2
330
0
100
AcDbSymbolTable
 70
    16
  0
LAYER
  5
10
330
2
100
AcDbSymbolTableRecord
100
AcDbLayerTableRecord
  2
0
 70
     0
 62
     7
  6
CONTINUOUS
370
    13
390
7E81
  0
LAYER
  5
AC
330
2
100
AcDbSymbolTableRecord
100
AcDbLayerTableRecord
  2
D-STR-DIM
 70
     0
 62
     7
  6
CONTINUOUS
370
    13
390
7E81
  0
LAYER
  5
D6
330
2
100
AcDbSymbolTableRecord
100
AcDbLayerTableRecord
  2
D-TTL-TXT
 70
     0
 62
     7
  6
CONTINUOUS
370
    13
390
7E81
  0
LAYER
  5
3CD
330
2
100
AcDbSymbolTableRecord
100
AcDbLayerTableRecord
  2
DEFPOINTS
 70
     0
 62
     7
  6
CONTINUOUS
290
     0
370
    13
390
7E81
  0
LAYER
  5
3CE
330
2
100
AcDbSymbolTableRecord
100
AcDbLayerTableRecord
  2
D-TTL-LINE
 70
     0
 62
     7
  6
CONTINUOUS
370
    13
390
7E81
  0
LAYER
  5
1408F
330
2
100
AcDbSymbolTableRecord
100
AcDbLayerTableRecord
  2
D-STR
 70
     0
 62
     1
  6
CONTINUOUS
370
    18
390
7E81
  0
LAYER
  5
1620E
330
2
100
AcDbSymbolTableRecord
100
AcDbLayerTableRecord
  2
D-TTL
 70
     0
 62
     2
  6
CONTINUOUS
370
    13
390
7E81
  0
LAYER
  5
1620F
330
2
100
AcDbSymbolTableRecord
100
AcDbLayerTableRecord
  2
D-TTL-FRAM
 70
     0
 62
     2
  6
CONTINUOUS
290
     0
370
    13
390
7E81
  0
LAYER
  5
16212
330
2
100
AcDbSymbolTableRecord
100
AcDbLayerTableRecord
  2
D-BMK
 70
     0
 62
     2
  6
CENTER
370
    13
390
7E81
  0
LAYER
  5
16213
330
2
100
AcDbSymbolTableRecord
100
AcDbLayerTableRecord
  2
D-STR-HTXT
 70
     0
 62
     7
  6
CONTINUOUS
370
    13
390
7E81
  0
LAYER
  5
16216
330
2
100
AcDbSymbolTableRecord
100
AcDbLayerTableRecord
  2
D-MTR-FRAM
 70
     0
 62
     7
  6
CONTINUOUS
370
    13
390
7E81
  0
LAYER
  5
16217
330
2
100
AcDbSymbolTableRecord
100
AcDbLayerTableRecord
  2
D-MTR
 70
     0
 62
     6
  6
CONTINUOUS
370
    13
390
7E81
  0
LAYER
  5
16218
330
2
100
AcDbSymbolTableRecord
100
AcDbLayerTableRecord
  2
D-MTR-TXT
 70
     0
 62
     7
  6
CONTINUOUS
370
    13
390
7E81
  0
LAYER
  5
16219
330
2
100
AcDbSymbolTableRecord
100
AcDbLayerTableRecord
  2
D-MTR-MTXT
 70
     0
 62
     7
  6
CONTINUOUS
370
    13
390
7E81
  0
LAYER
  5
1621C
330
2
100
AcDbSymbolTableRecord
100
AcDbLayerTableRecord
  2
D-STR-STR2
 70
     0
 62
     1
  6
CONTINUOUS
370
    18
390
7E81
  0
LAYER
  5
27151
330
2
100
AcDbSymbolTableRecord
100
AcDbLayerTableRecord
  2
D-DCR-HCH
 70
     0
 62
     5
  6
CONTINUOUS
370
    13
390
7E81
  0
ENDTAB
  0
TABLE
  2
STYLE
  5
3
330
0
100
AcDbSymbolTable
 70
     2
  0
STYLE
  5
11
330
3
100
AcDbSymbolTableRecord
100
AcDbTextStyleTableRecord
  2
STANDARD
 70
     0
 40
0.0
 41
1.0
 50
0.0
 71
     0
 42
2.5
  3
simplex.shx
  4
bigfont.shx
  0
STYLE
  5
1F432
330
3
100
AcDbSymbolTableRecord
100
AcDbTextStyleTableRecord
  2
明朝
 70
     0
 40
0.0
 41
1.0
 50
0.0
 71
     0
 42
10.0
  3
MS PMincho.ttf
  4

1001
ACAD
1000
MS PMincho
1071
    32786
  0
ENDTAB
  0
TABLE
  2
VIEW
  5
6
330
0
100
AcDbSymbolTable
 70
     0
  0
ENDTAB
  0
TABLE
  2
UCS
  5
7
330
0
100
AcDbSymbolTable
 70
     0
  0
ENDTAB
  0
TABLE
  2
APPID
  5
9
330
0
100
AcDbSymbolTable
 70
     2
  0
APPID
  5
12
330
9
100
AcDbSymbolTableRecord
100
AcDbRegAppTableRecord
  2
ACAD
 70
     0
  0
APPID
  5
7C1E
330
9
100
AcDbSymbolTableRecord
100
AcDbRegAppTableRecord
  2
CONTENTBLOCKICON
 70
     0
  0
ENDTAB
  0
TABLE
  2
DIMSTYLE
  5
A
330
0
100
AcDbSymbolTable
 70
     2
100
AcDbDimStyleTable
 71
     1
340
1CA9B
  0
DIMSTYLE
105
1CA9B
330
A
100
AcDbSymbolTableRecord
100
AcDbDimStyleTableRecord
  2
20
 70
     0
 41
20.0
 42
20.0
 43
0.0
 44
20.0
 73
     0
 74
     0
 77
     1
 78
     8
140
70.0
141
20.0
143
0.03937007874016
147
20.0
171
     3
172
     1
174
     1
176
   256
177
   256
178
   256
179
     4
271
     0
272
     0
274
     3
275
     1
279
     1
284
     8
340
11
341
31
342
31
  0
DIMSTYLE
105
1CC90
330
A
100
AcDbSymbolTableRecord
100
AcDbDimStyleTableRecord
  2
Standard
 70
     0
340
11
  0
ENDTAB
  0
TABLE
  2
BLOCK_RECORD
  5
1
330
0
100
AcDbSymbolTable
 70
     2
  0
BLOCK_RECORD
  5
1F
102
{ACAD_XDICTIONARY
360
7BCB
102
}
330
1
100
AcDbSymbolTableRecord
100
AcDbBlockTableRecord
  2
*MODEL_SPACE
340
7E82
  0
BLOCK_RECORD
  5
1B
102
{ACAD_XDICTIONARY
360
7BCD
102
}
330
1
100
AcDbSymbolTableRecord
100
AcDbBlockTableRecord
  2
*PAPER_SPACE
340
7E83
  0
BLOCK_RECORD
  5
31
330
1
100
AcDbSymbolTableRecord
100
AcDbBlockTableRecord
  2
_OPEN
340
0
310
2800000020000000200000000100080000000000000400000000000000000000000000000000000000000000000080000080000000808000800000008000800080800000C0C0C000C0DCC000F0CAA6000020400000206000002080000020A0000020C0000020E00000400000004020000040400000406000004080000040A0
310
000040C0000040E00000600000006020000060400000606000006080000060A0000060C0000060E00000800000008020000080400000806000008080000080A0000080C0000080E00000A0000000A0200000A0400000A0600000A0800000A0A00000A0C00000A0E00000C0000000C0200000C0400000C0600000C0800000C0
310
A00000C0C00000C0E00000E0000000E0200000E0400000E0600000E0800000E0A00000E0C00000E0E00040000000400020004000400040006000400080004000A0004000C0004000E00040200000402020004020400040206000402080004020A0004020C0004020E000404000004040200040404000404060004040800040
310
40A0004040C0004040E00040600000406020004060400040606000406080004060A0004060C0004060E00040800000408020004080400040806000408080004080A0004080C0004080E00040A0000040A0200040A0400040A0600040A0800040A0A00040A0C00040A0E00040C0000040C0200040C0400040C0600040C08000
310
40C0A00040C0C00040C0E00040E0000040E0200040E0400040E0600040E0800040E0A00040E0C00040E0E00080000000800020008000400080006000800080008000A0008000C0008000E00080200000802020008020400080206000802080008020A0008020C0008020E00080400000804020008040400080406000804080
310
008040A0008040C0008040E00080600000806020008060400080606000806080008060A0008060C0008060E00080800000808020008080400080806000808080008080A0008080C0008080E00080A0000080A0200080A0400080A0600080A0800080A0A00080A0C00080A0E00080C0000080C0200080C0400080C0600080C0
310
800080C0A00080C0C00080C0E00080E0000080E0200080E0400080E0600080E0800080E0A00080E0C00080E0E000C0000000C0002000C0004000C0006000C0008000C000A000C000C000C000E000C0200000C0202000C0204000C0206000C0208000C020A000C020C000C020E000C0400000C0402000C0404000C0406000C0
310
408000C040A000C040C000C040E000C0600000C0602000C0604000C0606000C0608000C060A000C060C000C060E000C0800000C0802000C0804000C0806000C0808000C080A000C080C000C080E000C0A00000C0A02000C0A04000C0A06000C0A08000C0A0A000C0A0C000C0A0E000C0C00000C0C02000C0C04000C0C06000
310
C0C08000C0C0A000F0FBFF00A4A0A000808080000000FF0000FF000000FFFF00FF000000FF00FF00FFFF0000FFFFFF0000000000000000000000000000000000000000000000000000000000000000000000000000000000000000000000000000000000000000000000000000000000000000000000000000000000000000
310
00000000000000000000000000000000000000000000000000000000000000000000000000000000000000000000000000000000000000000000000000000000000000000000000000000000000000000000000000000000000000000000000000000000000000000000000000000000000000000000000000000000000000
310
00000000000000000000000000000000000000000000000000000000000000000000000000000000000000000000000000000000000000000000000000000000000000000000000000000000000000000000000000000000000000000000000000000000000000000000000000000000000000000000000000000000000000
310
0000000000000000000000000000000000000000FFFFFF0000000000000000000000000000000000000000000000000000000000000000FFFFFFFFFFFF0000000000000000000000000000000000000000000000000000000000000000FFFFFFFFFFFF00000000000000000000000000000000000000000000000000000000
310
00000000FFFFFFFFFFFF0000000000000000000000000000000000000000000000000000000000000000FFFFFFFFFFFF0000000000FFFFFFFFFFFFFFFFFFFFFFFFFFFFFFFFFFFFFFFFFFFFFFFFFFFFFFFFFFFF000000000000000000000000000000000000000000FFFFFFFFFFFFFF00000000000000000000000000000000
310
00FFFFFFFFFFFFFFFF0000000000000000000000000000000000FFFFFFFFFFFFFF000000000000000000000000000000000000000000FFFFFFFF000000000000000000000000000000000000000000000000000000000000000000000000000000000000000000000000000000000000000000000000000000000000000000
310
00000000000000000000000000000000000000000000000000000000000000000000000000000000000000000000000000000000000000000000000000000000000000000000000000000000000000000000000000000000000000000000000000000000000000000000000000000000000000000000000000000000000000
310
00000000000000000000000000000000000000000000000000000000000000000000000000000000000000000000000000000000000000000000000000000000000000000000000000000000000000000000000000000000000000000000000000000000000000000000000000000000000000000000000000000000000000
310
0000000000000000000000000000000000000000000000000000000000000000000000000000000000000000000000000000000000000000
  0
BLOCK_RECORD
  5
28582
330
1
100
AcDbSymbolTableRecord
100
AcDbBlockTableRecord
  2
A$C0557480E
340
0
  0
ENDTAB
  0
ENDSEC
  0
SECTION
  2
BLOCKS
  0
BLOCK
  5
20
330
1F
100
AcDbEntity
  8
0
100
AcDbBlockBegin
  2
*MODEL_SPACE
 70
     0
 10
0.0
 20
0.0
 30
0.0
  3
*MODEL_SPACE
  1

  0
ENDBLK
  5
21
330
1F
100
AcDbEntity
  8
0
100
AcDbBlockEnd
  0
BLOCK
  5
1C
330
1B
100
AcDbEntity
 67
     1
  8
0
100
AcDbBlockBegin
  2
*PAPER_SPACE
 70
     0
 10
0.0
 20
0.0
 30
0.0
  3
*PAPER_SPACE
  1

  0
ENDBLK
  5
1D
330
1B
100
AcDbEntity
 67
     1
  8
0
100
AcDbBlockEnd
  0
BLOCK
  5
35
330
31
100
AcDbEntity
  8
0
100
AcDbBlockBegin
  2
_OPEN
 70
     0
 10
0.0
 20
0.0
 30
0.0
  3
_OPEN
  1

  0
LINE
  5
32
330
31
100
AcDbEntity
  8
0
  6
ByBlock
 62
     0
100
AcDbLine
 10
-1.0
 20
0.1666666666666666
 30
0.0
 11
0.0
 21
0.0
 31
0.0
  0
LINE
  5
33
330
31
100
AcDbEntity
  8
0
  6
ByBlock
 62
     0
100
AcDbLine
 10
-1.0
 20
-0.1666666666666666
 30
0.0
 11
0.0
 21
0.0
 31
0.0
  0
LINE
  5
34
330
31
100
AcDbEntity
  8
0
  6
ByBlock
 62
     0
100
AcDbLine
 10
0.0
 20
0.0
 30
0.0
 11
-1.0
 21
0.0
 31
0.0
  0
ENDBLK
  5
36
330
31
100
AcDbEntity
  8
0
100
AcDbBlockEnd
  0
BLOCK
  5
285A0
330
28582
100
AcDbEntity
  8
0
100
AcDbBlockBegin
  2
A$C0557480E
 70
     0
 10
0.0
 20
0.0
 30
0.0
  3
A$C0557480E
  1

  0
LINE
  5
28583
330
28582
100
AcDbEntity
  8
D-MTR-FRAM
  6
Continuous
100
AcDbLine
 10
-0.0000031971176213
 20
1791.99885560095
 30
0.0
 11
-0.0000031971176213
 21
-0.000017266784198
 31
0.0
  0
LINE
  5
28584
330
28582
100
AcDbEntity
  8
D-MTR-FRAM
  6
Continuous
100
AcDbLine
 10
2771.999705770148
 20
1791.99885560095
 30
0.0
 11
2771.999705770148
 21
-0.000017266784198
 31
0.0
  0
LINE
  5
28585
330
28582
100
AcDbEntity
  8
D-MTR-FRAM
  6
Continuous
100
AcDbLine
 10
3527.999702761226
 20
1791.99885560095
 30
0.0
 11
3527.999702761226
 21
-0.000017266784198
 31
0.0
  0
TEXT
  5
28586
330
28582
100
AcDbEntity
  8
D-MTR-TXT
100
AcDbText
 10
79.99599648448565
 20
291.1999815742238
 30
0.0
 40
70.0
  1
支持受金物用インサート　Ｍ16（セラミック）
100
AcDbText
  0
TEXT
  5
28587
330
28582
100
AcDbEntity
  8
D-MTR-TXT
100
AcDbText
 10
79.99599648448565
 20
515.1994206826939
 30
0.0
 40
70.0
  1
蓋用インサート　Ｍ16（Ｙ－Ｄ25×100）
100
AcDbText
  0
LINE
  5
28588
330
28582
100
AcDbEntity
  8
D-MTR-FRAM
  6
Continuous
100
AcDbLine
 10
-0.0000031971176213
 20
223.9997018416834
 30
0.0
 11
3527.999702761226
 21
223.9997018416834
 31
0.0
  0
LINE
  5
28589
330
28582
100
AcDbEntity
  8
D-MTR-FRAM
  6
Continuous
100
AcDbLine
 10
-0.0000031971176213
 20
447.999420950151
 30
0.0
 11
3527.999702761226
 21
447.999420950151
 31
0.0
  0
LINE
  5
2858A
330
28582
100
AcDbEntity
  8
D-MTR-FRAM
  6
Continuous
100
AcDbLine
 10
-0.0000031971176213
 20
-0.000017266784198
 30
0.0
 11
3527.999702761226
 21
-0.000017266784198
 31
0.0
  0
TEXT
  5
2858B
330
28582
100
AcDbEntity
  8
D-MTR-TXT
100
AcDbText
 10
79.99599648448565
 20
67.20026246575617
 30
0.0
 40
70.0
  1
引込金具
100
AcDbText
  0
TEXT
  5
2858C
330
28582
100
AcDbEntity
  8
D-MTR-MTXT
100
AcDbText
 10
2926.622374183931
 20
291.1999815742238
 30
0.0
 40
70.0
  1
　　16　本
100
AcDbText
  0
TEXT
  5
2858D
330
28582
100
AcDbEntity
  8
D-MTR-MTXT
100
AcDbText
 10
2893.999905284578
 20
515.1994206826939
 30
0.0
 40
70.0
  1
　　　4　本
100
AcDbText
  0
TEXT
  5
2858E
330
28582
100
AcDbEntity
  8
D-MTR-MTXT
100
AcDbText
 10
2887.510192552301
 20
67.20026246575617
 30
0.0
 40
70.0
  1
　　　3　個
100
AcDbText
  0
TEXT
  5
2858F
330
28582
100
AcDbEntity
  8
D-MTR-TXT
100
AcDbText
 10
1219.599631948829
 20
1635.199136225024
 30
0.0
 40
70.0
  1
種　　類
100
AcDbText
  0
TEXT
  5
28590
330
28582
100
AcDbEntity
  8
D-MTR
100
AcDbText
 10
1077.442414606477
 20
1846.860304715393
 30
0.0
 40
140.0
  1
　材　料　表　
100
AcDbText
  0
TEXT
  5
28591
330
28582
100
AcDbEntity
  8
D-MTR-TXT
100
AcDbText
 10
79.99599648448565
 20
963.1988588996282
 30
0.0
 40
70.0
  1
吊り用インサート　Ｍ20（Ｙ－Ｄ32×150）
100
AcDbText
  0
TEXT
  5
28592
330
28582
100
AcDbEntity
  8
D-MTR-TXT
100
AcDbText
 10
79.99599648448565
 20
1187.199978008089
 30
0.0
 40
70.0
  1
ピットバルブ　φ75　Ｌ＝130
100
AcDbText
  0
LINE
  5
28593
330
28582
100
AcDbEntity
  8
D-MTR-FRAM
  6
Continuous
100
AcDbLine
 10
-0.0000031971176213
 20
1343.999417384016
 30
0.0
 11
3527.999702761226
 21
1343.999417384016
 31
0.0
  0
LINE
  5
28594
330
28582
100
AcDbEntity
  8
D-MTR-FRAM
  6
Continuous
100
AcDbLine
 10
-0.0000031971176213
 20
1119.999978275549
 30
0.0
 11
3527.999702761226
 21
1119.999978275549
 31
0.0
  0
LINE
  5
28595
330
28582
100
AcDbEntity
  8
D-MTR-FRAM
  6
Continuous
100
AcDbLine
 10
-0.0000031971176213
 20
895.998859167088
 30
0.0
 11
3527.999702761226
 21
895.998859167088
 31
0.0
  0
LINE
  5
28596
330
28582
100
AcDbEntity
  8
D-MTR-FRAM
  6
Continuous
100
AcDbLine
 10
-0.0000031971176213
 20
1791.99885560095
 30
0.0
 11
3527.999702761226
 21
1791.99885560095
 31
0.0
  0
LINE
  5
28597
330
28582
100
AcDbEntity
  8
D-MTR-FRAM
  6
Continuous
100
AcDbLine
 10
-0.0000031971176213
 20
1567.999136492483
 30
0.0
 11
3527.999702761226
 21
1567.999136492483
 31
0.0
  0
TEXT
  5
28598
330
28582
100
AcDbEntity
  8
D-MTR-TXT
100
AcDbText
 10
79.99599648448565
 20
739.1991397911615
 30
0.0
 40
70.0
  1
引込金具用インサート　Ｍ20（Ｙ－Ｄ32×150）
100
AcDbText
  0
LINE
  5
28599
330
28582
100
AcDbEntity
  8
D-MTR-FRAM
  6
Continuous
100
AcDbLine
 10
-0.0000031971176213
 20
671.9991400586186
 30
0.0
 11
3527.999702761226
 21
671.9991400586186
 31
0.0
  0
TEXT
  5
2859A
330
28582
100
AcDbEntity
  8
D-MTR-TXT
100
AcDbText
 10
79.99599648448565
 20
1411.199697116555
 30
0.0
 40
70.0
  1
連結金具
100
AcDbText
  0
TEXT
  5
2859B
330
28582
100
AcDbEntity
  8
D-MTR-MTXT
100
AcDbText
 10
2910.311139734254
 20
1187.199978008089
 30
0.0
 40
70.0
  1
　　　1　個
100
AcDbText
  0
TEXT
  5
2859C
330
28582
100
AcDbEntity
  8
D-MTR-MTXT
100
AcDbText
 10
2893.999905284578
 20
1411.199697116555
 30
0.0
 40
70.0
  1
　　　8　個
100
AcDbText
  0
TEXT
  5
2859D
330
28582
100
AcDbEntity
  8
D-MTR-MTXT
100
AcDbText
 10
2893.999905284578
 20
963.1988588996282
 30
0.0
 40
70.0
  1
　　　4　本
100
AcDbText
  0
TEXT
  5
2859E
330
28582
100
AcDbEntity
  8
D-MTR-MTXT
100
AcDbText
 10
2893.999905284578
 20
739.1991397911615
 30
0.0
 40
70.0
  1
　　　5　本
100
AcDbText
  0
TEXT
  5
2859F
330
28582
100
AcDbEntity
  8
D-MTR-TXT
100
AcDbText
 10
2983.600184927982
 20
1635.199136225024
 30
0.0
 40
70.0
  1
個　　数
100
AcDbText
  0
ENDBLK
  5
285A1
330
28582
100
AcDbEntity
  8
0
100
AcDbBlockEnd
  0
ENDSEC
  0
SECTION
  2
ENTITIES
  0
MTEXT
  5
74C
330
1F
100
AcDbEntity
  8
D-TTL-LINE
 62
     2
100
AcDbMText
 10
21100.96900863203
 20
11716.83874632694
 30
0.0
 40
140.0
 41
0.0
 71
     4
 72
     5
  1
 
 73
     1
 44
1.0
1001
ACAD
1000
MTEXTBEGIN
1070
    73
1070
     1
1070
    44
1040
1.0
1070
    74
1070
     0
1000
MTEXTEND
  0
MTEXT
  5
140A2
330
1F
100
AcDbEntity
  8
D-STR
 62
     2
100
AcDbMText
 10
133389.7438006938
 20
208126.6376526392
 30
0.0
 40
140.0
 41
0.0
 71
     4
 72
     1
  1
 
 73
     1
 44
1.0
1001
ACAD
1000
MTEXTBEGIN
1070
    73
1070
     1
1070
    44
1040
1.0
1070
    74
1070
     0
1000
MTEXTEND
  0
MTEXT
  5
170AD
330
1F
100
AcDbEntity
  8
D-STR
 62
     2
100
AcDbMText
 10
221722.4650715356
 20
207229.3774545898
 30
0.0
 40
140.0
 41
0.0
 71
     4
 72
     1
  1
 
 73
     1
 44
1.0
1001
ACAD
1000
MTEXTBEGIN
1070
    73
1070
     1
1070
    44
1040
1.0
1070
    74
1070
     0
1000
MTEXTEND
  0
LINE
  5
21BEC
330
1F
100
AcDbEntity
  8
D-TTL-FRAM
 48
20.0
100
AcDbLine
 10
16419.99993371339
 20
1599.999993589328
 30
0.0
 11
14419.99994172685
 21
1599.999993589328
 31
0.0
  0
LINE
  5
21BF3
330
1F
100
AcDbEntity
  8
D-TTL-FRAM
 48
20.0
100
AcDbLine
 10
14419.99994172685
 20
1599.999993589328
 30
0.0
 11
14419.99994172685
 21
399.9999983974072
 31
0.0
  0
LINE
  5
25A14
330
1F
100
AcDbEntity
  8
D-STR-DIM
  6
Continuous
100
AcDbLine
 10
5877.920390488966
 20
2345.528725795043
 30
0.0
 11
5467.920592306546
 21
2345.528725795043
 31
0.0
  0
LINE
  5
25A15
330
1F
100
AcDbEntity
  8
D-STR-DIM
  6
Continuous
100
AcDbLine
 10
5877.920390488966
 20
1745.528928331206
 30
0.0
 11
5467.920592306546
 21
1745.528928331206
 31
0.0
  0
LINE
  5
25A16
330
1F
100
AcDbEntity
  8
D-STR-DIM
  6
Continuous
100
AcDbLine
 10
5877.920390488966
 20
1145.529130867368
 30
0.0
 11
5467.920592306546
 21
1145.529130867368
 31
0.0
  0
LINE
  5
25A17
330
1F
100
AcDbEntity
  8
D-STR-DIM
  6
Continuous
100
AcDbLine
 10
5877.920390488966
 20
995.5289315014105
 30
0.0
 11
5467.920592306546
 21
995.5289315014105
 31
0.0
  0
LINE
  5
25A18
330
1F
100
AcDbEntity
  8
D-STR-DIM
  6
Continuous
100
AcDbLine
 10
5497.920592179736
 20
1745.528928331206
 30
0.0
 11
5497.920592179736
 21
2045.529327063122
 31
0.0
  0
LINE
  5
25A19
330
1F
100
AcDbEntity
  8
D-STR-DIM
  6
Continuous
100
AcDbLine
 10
5497.920592179736
 20
1145.529130867368
 30
0.0
 11
5497.920592179736
 21
1070.52893118439
 31
0.0
  0
TEXT
  5
25A1A
330
1F
100
AcDbEntity
  8
D-STR-DIM
100
AcDbText
 10
5481.920592247385
 20
983.6693315515402
 30
0.0
 40
70.0
  1
150
 50
90.0
100
AcDbText
  0
CIRCLE
  5
25A1B
330
1F
100
AcDbEntity
  8
D-STR-DIM
  6
Continuous
100
AcDbCircle
 10
5497.920592179736
 20
995.5289315014105
 30
0.0
 40
5.999997974638371
  0
LINE
  5
25A1C
330
1F
100
AcDbEntity
  8
D-STR-DIM
  6
Continuous
100
AcDbLine
 10
5497.920592179736
 20
995.5289315014105
 30
0.0
 11
5497.920592179736
 21
1070.52893118439
 31
0.0
  0
TEXT
  5
25A1D
330
1F
100
AcDbEntity
  8
D-STR-DIM
100
AcDbText
 10
5481.920592247385
 20
1358.668729966441
 30
0.0
 40
70.0
  1
600
 50
90.0
100
AcDbText
  0
LINE
  5
25A1E
330
1F
100
AcDbEntity
  8
D-STR-DIM
  6
Continuous
100
AcDbLine
 10
5497.920592179736
 20
1745.528928331206
 30
0.0
 11
5497.920592179736
 21
1445.528929599287
 31
0.0
  0
CIRCLE
  5
25A1F
330
1F
100
AcDbEntity
  8
D-STR-DIM
  6
Continuous
100
AcDbCircle
 10
5497.920592179736
 20
1145.529130867368
 30
0.0
 40
5.999997974638371
  0
LINE
  5
25A20
330
1F
100
AcDbEntity
  8
D-STR-DIM
  6
Continuous
100
AcDbLine
 10
5497.920592179736
 20
1145.529130867368
 30
0.0
 11
5497.920592179736
 21
1445.528929599287
 31
0.0
  0
CIRCLE
  5
25A21
330
1F
100
AcDbEntity
  8
D-STR-DIM
  6
Continuous
100
AcDbCircle
 10
5497.920592179736
 20
1745.528928331206
 30
0.0
 40
5.999997974638371
  0
TEXT
  5
25A29
330
1F
100
AcDbEntity
  8
D-STR-DIM
100
AcDbText
 10
5481.920592247385
 20
1958.669127430275
 30
0.0
 40
70.0
  1
600
 50
90.0
100
AcDbText
  0
LINE
  5
25A2A
330
1F
100
AcDbEntity
  8
D-STR-DIM
  6
Continuous
100
AcDbLine
 10
5497.920592179736
 20
2345.528725795043
 30
0.0
 11
5497.920592179736
 21
2045.529327063122
 31
0.0
  0
CIRCLE
  5
25A2B
330
1F
100
AcDbEntity
  8
D-STR-DIM
  6
Continuous
100
AcDbCircle
 10
5497.920592179736
 20
2345.528725795043
 30
0.0
 40
5.999997974638371
  0
LINE
  5
25A2F
330
1F
100
AcDbEntity
  8
D-STR-DIM
  6
Continuous
100
AcDbLine
 10
7117.920425332115
 20
595.5289331921865
 30
0.0
 11
6917.920486177449
 21
595.5289331921865
 31
0.0
  0
LINE
  5
25A36
330
1F
100
AcDbEntity
  8
D-STR
  6
Continuous
100
AcDbLine
 10
7537.920383556786
 20
995.5289315014105
 30
0.0
 11
5897.920390488966
 21
995.5289315014105
 31
0.0
  0
LINE
  5
25A37
330
1F
100
AcDbEntity
  8
D-STR
  6
Continuous
100
AcDbLine
 10
6092.920589664707
 20
1845.528727908513
 30
0.0
 11
6092.920589664707
 21
1645.5289287539
 31
0.0
  0
TEXT
  5
25A39
330
1F
100
AcDbEntity
  8
D-STR-DIM
100
AcDbText
 10
6431.0603882354
 20
611.5291331245543
 30
0.0
 40
70.0
  1
400
100
AcDbText
  0
LINE
  5
25A3A
330
1F
100
AcDbEntity
  8
D-STR-DIM
  6
Continuous
100
AcDbLine
 10
6317.920588713649
 20
595.5289331921865
 30
0.0
 11
6517.92058786826
 21
595.5289331921865
 31
0.0
  0
LINE
  5
25A3C
330
1F
100
AcDbEntity
  8
D-STR-STR2
  6
Continuous
100
AcDbLine
 10
6367.9205885023
 20
1095.528731078718
 30
0.0
 11
6467.920588079607
 21
1095.528731078718
 31
0.0
  0
LINE
  5
25A3E
330
1F
100
AcDbEntity
  8
D-STR
  6
Continuous
100
AcDbLine
 10
6117.920389559039
 20
1635.528928796169
 30
0.0
 11
6117.920389559039
 21
1105.528931036447
 31
0.0
  0
LINE
  5
25A3F
330
1F
100
AcDbEntity
  8
D-STR
  6
Continuous
100
AcDbLine
 10
6217.920389136347
 20
1145.529130867368
 30
0.0
 11
6092.920589664707
 21
1095.529331078715
 31
0.0
  0
TEXT
  5
25A40
330
1F
100
AcDbEntity
  8
D-STR-DIM
100
AcDbText
 10
6031.060589926171
 20
611.5291331245543
 30
0.0
 40
70.0
  1
420
100
AcDbText
  0
LINE
  5
25A41
330
1F
100
AcDbEntity
  8
D-STR-DIM
  6
Continuous
100
AcDbLine
 10
6317.920588713649
 20
595.5289331921865
 30
0.0
 11
6107.920589601304
 21
595.5289331921865
 31
0.0
  0
LINE
  5
25A42
330
1F
100
AcDbEntity
  8
D-STR-DIM
  6
Continuous
100
AcDbLine
 10
5897.920390488966
 20
975.5289315014106
 30
0.0
 11
5897.920390488966
 21
565.5289333189946
 31
0.0
  0
LINE
  5
25A43
330
1F
100
AcDbEntity
  8
D-STR-DIM
  6
Continuous
100
AcDbLine
 10
5897.920390488966
 20
595.5289331921865
 30
0.0
 11
6107.920589601304
 21
595.5289331921865
 31
0.0
  0
CIRCLE
  5
25A44
330
1F
100
AcDbEntity
  8
D-STR-DIM
  6
Continuous
100
AcDbCircle
 10
5897.920390488966
 20
595.5289331921865
 30
0.0
 40
5.999997974638371
  0
LINE
  5
25A45
330
1F
100
AcDbEntity
  8
D-STR
  6
Continuous
100
AcDbLine
 10
6092.920589664707
 20
1095.528731078718
 30
0.0
 11
6092.920589664707
 21
995.5289315014105
 31
0.0
  0
LINE
  5
25A46
330
1F
100
AcDbEntity
  8
D-STR-DIM
  6
Continuous
100
AcDbLine
 10
6317.920588713649
 20
975.5289315014106
 30
0.0
 11
6317.920588713649
 21
565.5289333189946
 31
0.0
  0
CIRCLE
  5
25A47
330
1F
100
AcDbEntity
  8
D-STR-DIM
  6
Continuous
100
AcDbCircle
 10
6317.920588713649
 20
595.5289331921865
 30
0.0
 40
5.999997974638371
  0
LINE
  5
25A48
330
1F
100
AcDbEntity
  8
D-BMK
  6
CENTER2
100
AcDbLine
 10
6417.920588290951
 20
965.5291316282173
 30
0.0
 11
6417.920588290951
 21
1125.528930951908
 31
0.0
  0
LINE
  5
25A49
330
1F
100
AcDbEntity
  8
D-STR-STR2
  6
Continuous
100
AcDbLine
 10
6367.9205885023
 20
995.5289315014105
 30
0.0
 11
6367.9205885023
 21
1095.528731078718
 31
0.0
  0
LINE
  5
25A4A
330
1F
100
AcDbEntity
  8
D-STR
  6
Continuous
100
AcDbLine
 10
6217.920389136347
 20
1595.529128965245
 30
0.0
 11
6092.920589664707
 21
1645.5289287539
 31
0.0
  0
LINE
  5
25A4B
330
1F
100
AcDbEntity
  8
D-STR
  6
Continuous
100
AcDbLine
 10
6217.920389136347
 20
1595.529128965245
 30
0.0
 11
6217.920389136347
 21
1145.529130867368
 31
0.0
  0
LINE
  5
25A4E
330
1F
100
AcDbEntity
  8
D-STR-DIM
  6
Continuous
100
AcDbLine
 10
6717.920427022891
 20
595.5289331921865
 30
0.0
 11
6917.920486177449
 21
595.5289331921865
 31
0.0
  0
LINE
  5
25A4F
330
1F
100
AcDbEntity
  8
D-STR-DIM
  6
Continuous
100
AcDbLine
 10
6717.920427022891
 20
975.5289315014106
 30
0.0
 11
6717.920427022891
 21
565.5289333189946
 31
0.0
  0
LINE
  5
25A50
330
1F
100
AcDbEntity
  8
D-STR-DIM
  6
Continuous
100
AcDbLine
 10
6717.920427022891
 20
595.5289331921865
 30
0.0
 11
6517.92058786826
 21
595.5289331921865
 31
0.0
  0
CIRCLE
  5
25A51
330
1F
100
AcDbEntity
  8
D-STR-DIM
  6
Continuous
100
AcDbCircle
 10
6717.920427022891
 20
595.5289331921865
 30
0.0
 40
5.999997974638371
  0
LINE
  5
25A52
330
1F
100
AcDbEntity
  8
D-STR-STR2
  6
Continuous
100
AcDbLine
 10
6467.920588079607
 20
1095.528731078718
 30
0.0
 11
6467.920588079607
 21
995.5289315014105
 31
0.0
  0
TEXT
  5
25A53
330
1F
100
AcDbEntity
  8
D-STR-DIM
100
AcDbText
 10
6831.060466544652
 20
611.5291331245543
 30
0.0
 40
70.0
  1
400
100
AcDbText
  0
LINE
  5
25A55
330
1F
100
AcDbEntity
  8
D-BMK
  6
CENTER2
100
AcDbLine
 10
7017.920445754743
 20
965.5291316282173
 30
0.0
 11
7017.920445754743
 21
1125.528930951908
 31
0.0
  0
LINE
  5
25A56
330
1F
100
AcDbEntity
  8
D-STR-STR2
  6
Continuous
100
AcDbLine
 10
6967.920465966097
 20
995.5289315014105
 30
0.0
 11
6967.920465966097
 21
1095.528731078718
 31
0.0
  0
LINE
  5
25A57
330
1F
100
AcDbEntity
  8
D-STR-STR2
  6
Continuous
100
AcDbLine
 10
7067.92042554346
 20
1095.528731078718
 30
0.0
 11
7067.92042554346
 21
995.5289315014105
 31
0.0
  0
LINE
  5
25A58
330
1F
100
AcDbEntity
  8
D-STR-STR2
  6
Continuous
100
AcDbLine
 10
6967.920465966097
 20
1095.528731078718
 30
0.0
 11
7067.92042554346
 21
1095.528731078718
 31
0.0
  0
LINE
  5
25A61
330
1F
100
AcDbEntity
  8
D-STR
  6
Continuous
100
AcDbLine
 10
6217.920389136347
 20
1895.529127697163
 30
0.0
 11
6092.920589664707
 21
1845.528727908513
 31
0.0
  0
LINE
  5
25A63
330
1F
100
AcDbEntity
  8
D-STR
  6
Continuous
100
AcDbLine
 10
6217.920389136347
 20
2345.528725795043
 30
0.0
 11
6217.920389136347
 21
1895.529127697163
 31
0.0
  0
CIRCLE
  5
25A70
330
1F
100
AcDbEntity
  8
D-STR-STR2
  6
Continuous
100
AcDbCircle
 10
6717.920427022891
 20
2045.529327063122
 30
0.0
 40
169.9999952814203
  0
CIRCLE
  5
25A71
330
1F
100
AcDbEntity
  8
D-STR-STR2
  6
Continuous
100
AcDbCircle
 10
6717.920427022891
 20
2045.529327063122
 30
0.0
 40
149.999995365959
  0
LINE
  5
25A72
330
1F
100
AcDbEntity
  8
D-BMK
  6
CENTER2
100
AcDbLine
 10
6917.920486177449
 20
2045.529327063122
 30
0.0
 11
6517.92058786826
 21
2045.529327063122
 31
0.0
  0
LINE
  5
25A73
330
1F
100
AcDbEntity
  8
D-BMK
  6
CENTER2
100
AcDbLine
 10
6717.920427022891
 20
1845.528727908513
 30
0.0
 11
6717.920427022891
 21
2245.529126217735
 31
0.0
  0
CIRCLE
  5
25A74
330
1F
100
AcDbEntity
  8
D-STR-STR2
  6
Continuous
100
AcDbCircle
 10
6717.920427022891
 20
2045.529327063122
 30
0.0
 40
37.49999784148978
  0
TEXT
  5
25A79
330
1F
100
AcDbEntity
  8
D-STR-DIM
100
AcDbText
 10
8221.920400665506
 20
1626.668928833619
 30
0.0
 40
70.0
  1
1500
 50
90.0
100
AcDbText
  0
LINE
  5
25A7A
330
1F
100
AcDbEntity
  8
D-STR-DIM
  6
Continuous
100
AcDbLine
 10
7937.920441865957
 20
2045.529327063122
 30
0.0
 11
7937.920441865957
 21
1520.529129282266
 31
0.0
  0
LINE
  5
25A7C
330
1F
100
AcDbEntity
  8
D-STR
  6
Continuous
100
AcDbLine
 10
7342.920464380994
 20
1845.528727908513
 30
0.0
 11
7342.920464380994
 21
1645.5289287539
 31
0.0
  0
LINE
  5
25A7E
330
1F
100
AcDbEntity
  8
D-STR-DIM
  6
Continuous
100
AcDbLine
 10
7557.920383556787
 20
995.5289315014105
 30
0.0
 11
8267.920420471135
 21
995.5289315014105
 31
0.0
  0
LINE
  5
25A80
330
1F
100
AcDbEntity
  8
D-STR
  6
Continuous
100
AcDbLine
 10
7317.920484486673
 20
1635.528928796169
 30
0.0
 11
7317.920484486673
 21
1105.528931036447
 31
0.0
  0
LINE
  5
25A81
330
1F
100
AcDbEntity
  8
D-STR
  6
Continuous
100
AcDbLine
 10
7217.919884909385
 20
1145.529130867368
 30
0.0
 11
7342.919844381005
 21
1095.529331078715
 31
0.0
  0
LINE
  5
25A82
330
1F
100
AcDbEntity
  8
D-STR-DIM
  6
Continuous
100
AcDbLine
 10
7537.920383556786
 20
595.5289331921865
 30
0.0
 11
7327.920404444448
 21
595.5289331921865
 31
0.0
  0
LINE
  5
25A83
330
1F
100
AcDbEntity
  8
D-STR-HTXT
  6
Continuous
100
AcDbLine
 10
7517.613731773902
 20
2695.528521528558
 30
0.0
 11
7133.390443657606
 21
2695.528521528558
 31
0.0
  0
LINE
  5
25A84
330
1F
100
AcDbEntity
  8
D-STR-DIM
  6
Continuous
100
AcDbLine
 10
7117.920425332115
 20
975.5289315014106
 30
0.0
 11
7117.920425332115
 21
565.5289333189946
 31
0.0
  0
TEXT
  5
25A85
330
1F
100
AcDbEntity
  8
D-STR-DIM
100
AcDbText
 10
7231.060464853875
 20
611.5291331245543
 30
0.0
 40
70.0
  1
420
100
AcDbText
  0
LINE
  5
25A86
330
1F
100
AcDbEntity
  8
D-STR-DIM
  6
Continuous
100
AcDbLine
 10
7117.920425332115
 20
595.5289331921865
 30
0.0
 11
7327.920404444448
 21
595.5289331921865
 31
0.0
  0
CIRCLE
  5
25A87
330
1F
100
AcDbEntity
  8
D-STR-DIM
  6
Continuous
100
AcDbCircle
 10
7117.920425332115
 20
595.5289331921865
 30
0.0
 40
5.999997974638371
  0
TEXT
  5
25A88
330
1F
100
AcDbEntity
  8
D-STR-HTXT
100
AcDbText
 10
7110.530383754213
 20
2711.528721460926
 30
0.0
 40
70.0
  1
　連結金具
100
AcDbText
  0
LINE
  5
25A89
330
1F
100
AcDbEntity
  8
D-STR
  6
Continuous
100
AcDbLine
 10
7342.920464380994
 20
1095.528731078718
 30
0.0
 11
7342.920464380994
 21
995.5289315014105
 31
0.0
  0
LINE
  5
25A8A
330
1F
100
AcDbEntity
  8
D-STR-DIM
  6
Continuous
100
AcDbLine
 10
7537.920383556786
 20
975.5289315014106
 30
0.0
 11
7537.920383556786
 21
565.5289333189946
 31
0.0
  0
CIRCLE
  5
25A8B
330
1F
100
AcDbEntity
  8
D-STR-DIM
  6
Continuous
100
AcDbCircle
 10
7537.920383556786
 20
595.5289331921865
 30
0.0
 40
5.999997974638371
  0
LINE
  5
25A8C
330
1F
100
AcDbEntity
  8
D-STR
  6
Continuous
100
AcDbLine
 10
7217.920384909405
 20
1595.529128965245
 30
0.0
 11
7217.920384909405
 21
1145.529130867368
 31
0.0
  0
LINE
  5
25A8E
330
1F
100
AcDbEntity
  8
D-STR
  6
Continuous
100
AcDbLine
 10
7217.919884909385
 20
1595.529128965245
 30
0.0
 11
7342.920464380994
 21
1645.529328753898
 31
0.0
  0
LINE
  5
25A8F
330
1F
100
AcDbEntity
  8
D-STR-DIM
  6
Continuous
100
AcDbLine
 10
7937.920441865957
 20
995.5289315014105
 30
0.0
 11
7937.920441865957
 21
1520.529129282266
 31
0.0
  0
LINE
  5
25A90
330
1F
100
AcDbEntity
  8
D-STR-DIM
  6
Continuous
100
AcDbLine
 10
8237.920400597934
 20
995.5289315014105
 30
0.0
 11
8237.920400597934
 21
1745.528928331206
 31
0.0
  0
CIRCLE
  5
25A91
330
1F
100
AcDbEntity
  8
D-STR-DIM
  6
Continuous
100
AcDbCircle
 10
7937.920441865957
 20
995.5289315014105
 30
0.0
 40
5.999997974638371
  0
CIRCLE
  5
25A92
330
1F
100
AcDbEntity
  8
D-STR-DIM
  6
Continuous
100
AcDbCircle
 10
8237.920400597934
 20
995.5289315014105
 30
0.0
 40
5.999997974638371
  0
TEXT
  5
25A93
330
1F
100
AcDbEntity
  8
D-STR-DIM
100
AcDbText
 10
7921.920381933654
 20
1401.66912978468
 30
0.0
 40
70.0
  1
1050
 50
90.0
100
AcDbText
  0
LINE
  5
25A95
330
1F
100
AcDbEntity
  8
D-STR-DIM
  6
Continuous
100
AcDbLine
 10
7557.920383556787
 20
2045.529327063122
 30
0.0
 11
7967.920381739201
 21
2045.529327063122
 31
0.0
  0
LINE
  5
25A9A
330
1F
100
AcDbEntity
  8
D-STR
  6
Continuous
100
AcDbLine
 10
7217.920384909405
 20
2345.528725795043
 30
0.0
 11
7217.920384909405
 21
1895.529127697163
 31
0.0
  0
LINE
  5
25A9C
330
1F
100
AcDbEntity
  8
D-STR
  6
Continuous
100
AcDbLine
 10
7217.920384909405
 20
1895.529127697163
 30
0.0
 11
7342.920464380994
 21
1845.528727908513
 31
0.0
  0
LINE
  5
25AA6
330
1F
100
AcDbEntity
  8
D-STR-DIM
  6
Continuous
100
AcDbLine
 10
7937.920441865957
 20
2045.529327063122
 30
0.0
 11
7937.920441865957
 21
2270.529126112061
 31
0.0
  0
CIRCLE
  5
25AA7
330
1F
100
AcDbEntity
  8
D-STR-DIM
  6
Continuous
100
AcDbCircle
 10
7937.920441865957
 20
2045.529327063122
 30
0.0
 40
5.999997974638371
  0
TEXT
  5
25AA8
330
1F
100
AcDbEntity
  8
D-STR-DIM
100
AcDbText
 10
7921.920381933654
 20
2183.668926479214
 30
0.0
 40
70.0
  1
450
 50
90.0
100
AcDbText
  0
LINE
  5
25B16
330
1F
100
AcDbEntity
  8
D-STR-DIM
  6
Continuous
100
AcDbLine
 10
8237.920400597934
 20
8295.528897462107
 30
0.0
 11
8237.920400597934
 21
9045.5288942919
 31
0.0
  0
LINE
  5
25B17
330
1F
100
AcDbEntity
  8
D-STR
  6
Continuous
100
AcDbLine
 10
7537.920383556786
 20
8295.528897462107
 30
0.0
 11
7537.920383556786
 21
9795.528891121696
 31
0.0
  0
LINE
  5
25B18
330
1F
100
AcDbEntity
  8
D-STR
  6
Continuous
100
AcDbLine
 10
5897.920390488966
 20
8295.528897462107
 30
0.0
 11
5897.920390488966
 21
9795.528891121696
 31
0.0
  0
LINE
  5
25BFA
330
1F
100
AcDbEntity
  8
D-STR
  6
Continuous
100
AcDbLine
 10
5897.920390488966
 20
8295.528897462107
 30
0.0
 11
7537.920383556786
 21
8295.528897462107
 31
0.0
  0
LINE
  5
25BFE
330
1F
100
AcDbEntity
  8
D-STR-DIM
  6
Continuous
100
AcDbLine
 10
5897.920390488966
 20
8265.529297588914
 30
0.0
 11
5897.920390488966
 21
6725.528504521098
 31
0.0
  0
LINE
  5
25C17
330
1F
100
AcDbEntity
  8
D-STR-DIM
  6
Continuous
100
AcDbLine
 10
7537.920383556786
 20
8265.529297588914
 30
0.0
 11
7537.920383556786
 21
6725.528504521098
 31
0.0
  0
LINE
  5
25C53
330
1F
100
AcDbEntity
  8
D-STR-DIM
  6
Continuous
100
AcDbLine
 10
7557.920383556787
 20
8295.528897462107
 30
0.0
 11
8267.920420471135
 21
8295.528897462107
 31
0.0
  0
CIRCLE
  5
25C59
330
1F
100
AcDbEntity
  8
D-STR-DIM
  6
Continuous
100
AcDbCircle
 10
8237.920400597934
 20
8295.528897462107
 30
0.0
 40
5.999997974638371
  0
LINE
  5
25C72
330
1F
100
AcDbEntity
  8
D-STR
  6
Continuous
100
AcDbLine
 10
5897.920390488966
 20
9795.528891121696
 30
0.0
 11
7537.920383556786
 21
9795.528891121696
 31
0.0
  0
LINE
  5
25C8A
330
1F
100
AcDbEntity
  8
D-STR-DIM
  6
Continuous
100
AcDbLine
 10
8237.920400597934
 20
9795.528891121696
 30
0.0
 11
8237.920400597934
 21
9045.5288942919
 31
0.0
  0
TEXT
  5
25C8B
330
1F
100
AcDbEntity
  8
D-STR-DIM
100
AcDbText
 10
8221.920400665506
 20
8926.668894794316
 30
0.0
 40
70.0
  1
1500
 50
90.0
100
AcDbText
  0
LINE
  5
25C8C
330
1F
100
AcDbEntity
  8
D-STR-DIM
  6
Continuous
100
AcDbLine
 10
7557.920383556787
 20
9795.528891121696
 30
0.0
 11
8267.920420471135
 21
9795.528891121696
 31
0.0
  0
CIRCLE
  5
25C94
330
1F
100
AcDbEntity
  8
D-STR-DIM
  6
Continuous
100
AcDbCircle
 10
8237.920400597934
 20
9795.528891121696
 30
0.0
 40
5.999997974638371
  0
TEXT
  5
26CB5
330
1F
100
AcDbEntity
  8
D-STR-HTXT
100
AcDbText
 10
7763.542982603081
 20
8111.528498239866
 30
0.0
 40
70.0
  1
　蓋取付インサート
100
AcDbText
  0
TEXT
  5
26CB6
330
1F
100
AcDbEntity
  8
D-STR-HTXT
100
AcDbText
 10
7715.060442808044
 20
10211.52848936329
 30
0.0
 40
70.0
  1
　吊り用インサート
100
AcDbText
  0
LINE
  5
26CBF
330
1F
100
AcDbEntity
  8
D-STR-HTXT
  6
Continuous
100
AcDbLine
 10
7786.402982506451
 20
8095.528898307497
 30
0.0
 11
8530.009975749031
 21
8095.528898307497
 31
0.0
  0
LINE
  5
26CC0
330
1F
100
AcDbEntity
  8
D-STR-HTXT
  6
Continuous
100
AcDbLine
 10
7737.920442711416
 20
10195.52868943092
 30
0.0
 11
8466.734131113474
 21
10195.52868943092
 31
0.0
  0
TEXT
  5
26DA3
330
1F
100
AcDbEntity
  8
D-STR-DIM
100
AcDbText
 10
5481.920592247381
 20
8333.669097300891
 30
0.0
 40
70.0
  1
250
 50
90.0
100
AcDbText
  0
LINE
  5
26DA4
330
1F
100
AcDbEntity
  8
D-STR-DIM
  6
Continuous
100
AcDbLine
 10
5497.920592179736
 20
8295.528897462107
 30
0.0
 11
5497.920592179736
 21
8420.528696933743
 31
0.0
  0
LINE
  5
26DA5
330
1F
100
AcDbEntity
  8
D-STR-DIM
  6
Continuous
100
AcDbLine
 10
7937.920441866033
 20
8295.528897462107
 30
0.0
 11
7937.920441866033
 21
8670.528295877009
 31
0.0
  0
LINE
  5
26DA6
330
1F
100
AcDbEntity
  8
D-STR-HTXT
  6
Continuous
100
AcDbLine
 10
6727.109886984024
 20
8541.585496422039
 30
0.0
 11
7786.403602506442
 21
8095.529898307495
 31
0.0
  0
LINE
  5
26DA7
330
1F
100
AcDbEntity
  8
D-STR-HTXT
  6
Continuous
100
AcDbLine
 10
7222.919784888287
 20
9036.869094328507
 30
0.0
 11
7786.402422506482
 21
8095.529898307495
 31
0.0
  0
LINE
  5
26DAA
330
1F
100
AcDbEntity
  8
D-STR-DIM
  6
Continuous
100
AcDbLine
 10
5877.920390488966
 20
8295.528897462107
 30
0.0
 11
5467.920592306546
 21
8295.528897462107
 31
0.0
  0
CIRCLE
  5
26E1A
330
1F
100
AcDbEntity
  8
D-STR-DIM
  6
Continuous
100
AcDbCircle
 10
5497.920592179736
 20
8295.528897462107
 30
0.0
 40
5.999997974638371
  0
LINE
  5
26E98
330
1F
100
AcDbEntity
  8
D-STR-DIM
  6
Continuous
100
AcDbLine
 10
6717.920427022888
 20
7895.528899152883
 30
0.0
 11
7127.920465289856
 21
7895.528899152883
 31
0.0
  0
LINE
  5
26E9B
330
1F
100
AcDbEntity
  8
D-DCR-HCH
  6
Continuous
100
AcDbLine
 10
6715.137507034629
 20
6495.528905493291
 30
0.0
 11
6915.13706618924
 21
6695.528904647905
 31
0.0
  0
LINE
  5
26E9C
330
1F
100
AcDbEntity
  8
D-DCR-HCH
  6
Continuous
100
AcDbLine
 10
6804.940106655078
 20
6495.528905493291
 30
0.0
 11
7004.939665809688
 21
6695.528904647905
 31
0.0
  0
LINE
  5
26EB5
330
1F
100
AcDbEntity
  8
D-DCR-HCH
  6
Continuous
100
AcDbLine
 10
6355.927788552988
 20
6495.528905493291
 30
0.0
 11
6555.927187707617
 21
6695.528904647905
 31
0.0
  0
LINE
  5
26EB6
330
1F
100
AcDbEntity
  8
D-DCR-HCH
  6
Continuous
100
AcDbLine
 10
6445.729988173447
 20
6495.528905493291
 30
0.0
 11
6645.729627328012
 21
6695.528904647905
 31
0.0
  0
LINE
  5
26EB7
330
1F
100
AcDbEntity
  8
D-DCR-HCH
  6
Continuous
100
AcDbLine
 10
6312.920588734781
 20
6632.126704915903
 30
0.0
 11
6376.322388466778
 21
6695.528904647905
 31
0.0
  0
LINE
  5
26EB8
330
1F
100
AcDbEntity
  8
D-DCR-HCH
  6
Continuous
100
AcDbLine
 10
6312.920588734781
 20
6542.324105295495
 30
0.0
 11
6466.12498808723
 21
6695.528904647905
 31
0.0
  0
LINE
  5
26EB9
330
1F
100
AcDbEntity
  8
D-STR
  6
DASHED1
100
AcDbLine
 10
6312.920588734781
 20
6495.528905493291
 30
0.0
 11
6312.920588734781
 21
6695.528904647905
 31
0.0
  0
LINE
  5
26EBA
330
1F
100
AcDbEntity
  8
D-DCR-HCH
  6
Continuous
100
AcDbLine
 10
6535.532787793818
 20
6495.528905493291
 30
0.0
 11
6735.53222694846
 21
6695.528904647905
 31
0.0
  0
LINE
  5
26EBB
330
1F
100
AcDbEntity
  8
D-DCR-HCH
  6
Continuous
100
AcDbLine
 10
6625.335187414272
 20
6495.528905493291
 30
0.0
 11
6825.334586568827
 21
6695.528904647905
 31
0.0
  0
LINE
  5
26EBD
330
1F
100
AcDbEntity
  8
D-STR-DIM
  6
Continuous
100
AcDbLine
 10
5897.920390488966
 20
7895.528899152883
 30
0.0
 11
6307.920588755915
 21
7895.528899152883
 31
0.0
  0
CIRCLE
  5
26EC6
330
1F
100
AcDbEntity
  8
D-STR-DIM
  6
Continuous
100
AcDbCircle
 10
5897.920390488966
 20
7895.528899152883
 30
0.0
 40
5.999997974638371
  0
LINE
  5
26ECA
330
1F
100
AcDbEntity
  8
D-STR-DIM
  6
Continuous
100
AcDbLine
 10
6717.920427022888
 20
7895.528899152883
 30
0.0
 11
6307.920588755915
 21
7895.528899152883
 31
0.0
  0
TEXT
  5
26ECB
330
1F
100
AcDbEntity
  8
D-STR-DIM
100
AcDbText
 10
6231.060589080782
 20
7911.528699085256
 30
0.0
 40
70.0
  1
820
100
AcDbText
  0
LINE
  5
26ECC
330
1F
100
AcDbEntity
  8
D-STR-DIM
  6
Continuous
100
AcDbLine
 10
6717.920427022888
 20
8275.528897462107
 30
0.0
 11
6717.920427022888
 21
7865.52929927969
 31
0.0
  0
CIRCLE
  5
26ECD
330
1F
100
AcDbEntity
  8
D-STR-DIM
  6
Continuous
100
AcDbCircle
 10
6717.920427022888
 20
7895.528899152883
 30
0.0
 40
5.999997974638371
  0
LINE
  5
26EEF
330
1F
100
AcDbEntity
  8
D-DCR-HCH
  6
Continuous
100
AcDbLine
 10
6894.742446275438
 20
6495.528905493291
 30
0.0
 11
7094.742025430057
 21
6695.528904647905
 31
0.0
  0
LINE
  5
26EF0
330
1F
100
AcDbEntity
  8
D-DCR-HCH
  6
Continuous
100
AcDbLine
 10
6984.544805895883
 20
6495.528905493291
 30
0.0
 11
7122.920445310988
 21
6633.904504908383
 31
0.0
  0
LINE
  5
26EF1
330
1F
100
AcDbEntity
  8
D-DCR-HCH
  6
Continuous
100
AcDbLine
 10
7074.347405516255
 20
6495.528905493291
 30
0.0
 11
7122.920445310988
 21
6544.10170528798
 31
0.0
  0
LINE
  5
26EF2
330
1F
100
AcDbEntity
  8
D-STR
  6
DASHED1
100
AcDbLine
 10
7122.920445310988
 20
6495.528905493291
 30
0.0
 11
7122.920445310988
 21
6695.528904647905
 31
0.0
  0
LINE
  5
26F07
330
1F
100
AcDbEntity
  8
D-STR-DIM
  6
Continuous
100
AcDbLine
 10
7537.920383556782
 20
7895.528899152883
 30
0.0
 11
7127.920465289856
 21
7895.528899152883
 31
0.0
  0
TEXT
  5
26F0F
330
1F
100
AcDbEntity
  8
D-STR-DIM
100
AcDbText
 10
7031.060405699242
 20
7911.528699085256
 30
0.0
 40
70.0
  1
820
100
AcDbText
  0
CIRCLE
  5
26F12
330
1F
100
AcDbEntity
  8
D-STR-DIM
  6
Continuous
100
AcDbCircle
 10
7537.920383556782
 20
7895.528899152883
 30
0.0
 40
5.999997974638371
  0
TEXT
  5
26F13
330
1F
100
AcDbEntity
  8
D-STR-HTXT
100
AcDbText
 10
7987.543001656267
 20
8015.528498645654
 30
0.0
 40
70.0
  1
Ｍ16
100
AcDbText
  0
CIRCLE
  5
26F14
330
1F
100
AcDbEntity
  8
D-STR-DIM
  6
Continuous
100
AcDbCircle
 10
7937.920441866033
 20
8295.528897462107
 30
0.0
 40
5.999997974638371
  0
LINE
  5
26F15
330
1F
100
AcDbEntity
  8
D-STR-DIM
  6
Continuous
100
AcDbLine
 10
5877.920390488966
 20
9795.528891121696
 30
0.0
 11
5467.920592306546
 21
9795.528891121696
 31
0.0
  0
LINE
  5
26F16
330
1F
100
AcDbEntity
  8
D-STR-DIM
  6
Continuous
100
AcDbLine
 10
5877.920390488966
 20
9545.529092178432
 30
0.0
 11
5467.920592306546
 21
9545.529092178432
 31
0.0
  0
LINE
  5
26F17
330
1F
100
AcDbEntity
  8
D-STR-DIM
  6
Continuous
100
AcDbLine
 10
5877.920390488966
 20
9045.528894291903
 30
0.0
 11
5467.920592306546
 21
9045.528894291903
 31
0.0
  0
LINE
  5
26F18
330
1F
100
AcDbEntity
  8
D-STR-DIM
  6
Continuous
100
AcDbLine
 10
5877.920390488966
 20
8545.528496405376
 30
0.0
 11
5467.920592306546
 21
8545.528496405376
 31
0.0
  0
TEXT
  5
26F19
330
1F
100
AcDbEntity
  8
D-STR-DIM
100
AcDbText
 10
5481.920592247381
 20
9583.66829201722
 30
0.0
 40
70.0
  1
250
 50
90.0
100
AcDbText
  0
LINE
  5
26F1A
330
1F
100
AcDbEntity
  8
D-STR-DIM
  6
Continuous
100
AcDbLine
 10
5497.920592179736
 20
9795.528891121696
 30
0.0
 11
5497.920592179736
 21
9670.529091650065
 31
0.0
  0
LINE
  5
26F1B
330
1F
100
AcDbEntity
  8
D-STR-DIM
  6
Continuous
100
AcDbLine
 10
5497.920592179736
 20
9045.528894291903
 30
0.0
 11
5497.920592179736
 21
8795.529095348637
 31
0.0
  0
LINE
  5
26F1C
330
1F
100
AcDbEntity
  8
D-STR-DIM
  6
Continuous
100
AcDbLine
 10
5497.920592179736
 20
8545.528496405376
 30
0.0
 11
5497.920592179736
 21
8795.529095348637
 31
0.0
  0
CIRCLE
  5
26F1D
330
1F
100
AcDbEntity
  8
D-STR-DIM
  6
Continuous
100
AcDbCircle
 10
5497.920592179736
 20
8545.528496405376
 30
0.0
 40
5.999997974638371
  0
LINE
  5
26F1E
330
1F
100
AcDbEntity
  8
D-STR-DIM
  6
Continuous
100
AcDbLine
 10
5497.920592179736
 20
8545.528496405376
 30
0.0
 11
5497.920592179736
 21
8420.528696933743
 31
0.0
  0
TEXT
  5
26F1F
330
1F
100
AcDbEntity
  8
D-STR-DIM
100
AcDbText
 10
5481.920592247381
 20
8708.668495715789
 30
0.0
 40
70.0
  1
500
 50
90.0
100
AcDbText
  0
LINE
  5
26F20
330
1F
100
AcDbEntity
  8
D-STR-DIM
  6
Continuous
100
AcDbLine
 10
5497.920592179736
 20
9545.529092178432
 30
0.0
 11
5497.920592179736
 21
9295.528493235167
 31
0.0
  0
TEXT
  5
26F21
330
1F
100
AcDbEntity
  8
D-STR-DIM
100
AcDbText
 10
5481.920592247381
 20
9208.66889360232
 30
0.0
 40
70.0
  1
500
 50
90.0
100
AcDbText
  0
CIRCLE
  5
26F22
330
1F
100
AcDbEntity
  8
D-STR-DIM
  6
Continuous
100
AcDbCircle
 10
5497.920592179736
 20
9045.528894291903
 30
0.0
 40
5.999997974638371
  0
LINE
  5
26F23
330
1F
100
AcDbEntity
  8
D-STR-DIM
  6
Continuous
100
AcDbLine
 10
5497.920592179736
 20
9045.528894291903
 30
0.0
 11
5497.920592179736
 21
9295.528493235167
 31
0.0
  0
CIRCLE
  5
26F24
330
1F
100
AcDbEntity
  8
D-STR-DIM
  6
Continuous
100
AcDbCircle
 10
5497.920592179736
 20
9545.529092178432
 30
0.0
 40
5.999997974638371
  0
LINE
  5
26F25
330
1F
100
AcDbEntity
  8
D-STR-DIM
  6
Continuous
100
AcDbLine
 10
5497.920592179736
 20
9545.529092178432
 30
0.0
 11
5497.920592179736
 21
9670.529091650065
 31
0.0
  0
CIRCLE
  5
26F2A
330
1F
100
AcDbEntity
  8
D-STR-DIM
  6
Continuous
100
AcDbCircle
 10
5497.920592179736
 20
9795.528891121696
 30
0.0
 40
5.999997974638371
  0
TEXT
  5
26F2C
330
1F
100
AcDbEntity
  8
D-STR-DIM
100
AcDbText
 10
6806.060486650331
 20
10211.52848936329
 30
0.0
 40
70.0
  1
350
100
AcDbText
  0
CIRCLE
  5
26F2D
330
1F
100
AcDbEntity
  8
D-STR-STR2
  6
Continuous
100
AcDbCircle
 10
6717.920427022888
 20
9045.528894291903
 30
0.0
 40
404.9999782880894
  0
LINE
  5
26F2E
330
1F
100
AcDbEntity
  8
D-STR-DIM
  6
Continuous
100
AcDbLine
 10
6717.920427022888
 20
10195.52868943092
 30
0.0
 11
6892.920486283194
 21
10195.52868943092
 31
0.0
  0
LINE
  5
26F2F
330
1F
100
AcDbEntity
  8
D-STR-HTXT
  6
Continuous
100
AcDbLine
 10
6376.9303884642
 20
9549.865492160101
 30
0.0
 11
7737.921002711388
 21
10195.52768943092
 31
0.0
  0
LINE
  5
26F30
330
1F
100
AcDbEntity
  8
D-BMK
  6
CENTER2
100
AcDbLine
 10
7152.920465184182
 20
9045.528894291903
 30
0.0
 11
6282.920388861596
 21
9045.528894291903
 31
0.0
  0
LINE
  5
26F32
330
1F
100
AcDbEntity
  8
D-BMK
  6
CENTER2
100
AcDbLine
 10
6177.920589305417
 20
9045.528894291903
 30
0.0
 11
6257.920588967259
 21
9045.528894291903
 31
0.0
  0
LINE
  5
26F33
330
1F
100
AcDbEntity
  8
D-BMK
  6
CENTER2
100
AcDbLine
 10
6717.920427022888
 20
9480.528692453187
 30
0.0
 11
6717.920427022888
 21
8610.529096130619
 31
0.0
  0
LINE
  5
26F34
330
1F
100
AcDbEntity
  8
D-BMK
  6
CENTER2
100
AcDbLine
 10
6217.920389136343
 20
9005.528694460981
 30
0.0
 11
6217.920389136343
 21
9085.529094122827
 31
0.0
  0
CIRCLE
  5
26F35
330
1F
100
AcDbEntity
  8
D-STR-STR2
  6
Continuous
100
AcDbCircle
 10
6367.920588502297
 20
8545.528496405376
 30
0.0
 40
9.999997957730611
  0
LINE
  5
26F36
330
1F
100
AcDbEntity
  8
D-BMK
  6
CENTER2
100
AcDbLine
 10
6407.920588333222
 20
8545.528496405376
 30
0.0
 11
6327.92038867138
 21
8545.528496405376
 31
0.0
  0
LINE
  5
26F37
330
1F
100
AcDbEntity
  8
D-BMK
  6
CENTER2
100
AcDbLine
 10
6367.920588502297
 20
8505.529296574449
 30
0.0
 11
6367.920588502297
 21
8585.528696236295
 31
0.0
  0
LINE
  5
26F38
330
1F
100
AcDbEntity
  8
D-BMK
  6
CENTER2
100
AcDbLine
 10
6757.92048685383
 20
8545.528496405376
 30
0.0
 11
6677.920487191986
 21
8545.528496405376
 31
0.0
  0
CIRCLE
  5
26F39
330
1F
100
AcDbEntity
  8
D-STR-STR2
  6
Continuous
100
AcDbCircle
 10
6717.920427022888
 20
8545.528496405376
 30
0.0
 40
9.999997957730611
  0
LINE
  5
26F3A
330
1F
100
AcDbEntity
  8
D-STR-HTXT
  6
Continuous
100
AcDbLine
 10
6766.649286816885
 20
8532.289696461337
 30
0.0
 11
6727.109886984024
 21
8541.584496422045
 31
0.0
  0
LINE
  5
26F3B
330
1F
100
AcDbEntity
  8
D-BMK
  6
CENTER2
100
AcDbLine
 10
6717.920427022888
 20
8505.529296574449
 30
0.0
 11
6717.920427022888
 21
8585.528696236295
 31
0.0
  0
CIRCLE
  5
26F3C
330
1F
100
AcDbEntity
  8
D-STR-STR2
  6
Continuous
100
AcDbCircle
 10
6217.920389136343
 20
9045.528894291903
 30
0.0
 40
9.999997957730611
  0
CIRCLE
  5
26F3D
330
1F
100
AcDbEntity
  8
D-STR-STR2
  6
Continuous
100
AcDbCircle
 10
6367.920588502297
 20
9545.529092178432
 30
0.0
 40
9.999997957730611
  0
LINE
  5
26F3E
330
1F
100
AcDbEntity
  8
D-BMK
  6
CENTER2
100
AcDbLine
 10
6407.920588333222
 20
9545.529092178432
 30
0.0
 11
6327.92038867138
 21
9545.529092178432
 31
0.0
  0
LINE
  5
26F3F
330
1F
100
AcDbEntity
  8
D-BMK
  6
CENTER2
100
AcDbLine
 10
6367.920588502297
 20
9585.52829200936
 30
0.0
 11
6367.920588502297
 21
9505.529092347511
 31
0.0
  0
LINE
  5
26F40
330
1F
100
AcDbEntity
  8
D-STR-HTXT
  6
Continuous
100
AcDbLine
 10
6409.910788324807
 20
9573.574692059887
 30
0.0
 11
6376.9303884642
 21
9549.867492160094
 31
0.0
  0
TEXT
  5
26F41
330
1F
100
AcDbEntity
  8
D-STR-HTXT
100
AcDbText
 10
6578.523916768266
 20
9061.528494224273
 30
0.0
 40
70.0
  1
φ810
100
AcDbText
  0
LINE
  5
26F42
330
1F
100
AcDbEntity
  8
D-BMK
  6
CENTER2
100
AcDbLine
 10
6677.920487191986
 20
9545.529092178432
 30
0.0
 11
6757.92048685383
 21
9545.529092178432
 31
0.0
  0
CIRCLE
  5
26F43
330
1F
100
AcDbEntity
  8
D-STR-STR2
  6
Continuous
100
AcDbCircle
 10
6717.920427022888
 20
9545.529092178432
 30
0.0
 40
9.999997957730611
  0
LINE
  5
26F44
330
1F
100
AcDbEntity
  8
D-BMK
  6
CENTER2
100
AcDbLine
 10
6717.920427022888
 20
9585.52829200936
 30
0.0
 11
6717.920427022888
 21
9505.529092347511
 31
0.0
  0
TEXT
  5
26F45
330
1F
100
AcDbEntity
  8
D-STR-DIM
100
AcDbText
 10
6166.661189353028
 20
10099.20868983806
 30
0.0
 40
70.0
  1
150
100
AcDbText
  0
LINE
  5
26F46
330
1F
100
AcDbEntity
  8
D-STR-DIM
  6
Continuous
100
AcDbLine
 10
6217.920389136343
 20
10195.52868943092
 30
0.0
 11
6057.920389812654
 21
10195.52868943092
 31
0.0
  0
LINE
  5
26F47
330
1F
100
AcDbEntity
  8
D-STR-DIM
  6
Continuous
100
AcDbLine
 10
5897.920390488966
 20
9815.528891121696
 30
0.0
 11
5897.920390488966
 21
10225.52828930412
 31
0.0
  0
TEXT
  5
26F48
330
1F
100
AcDbEntity
  8
D-STR-DIM
100
AcDbText
 10
5981.060590137516
 20
10211.52848936329
 30
0.0
 40
70.0
  1
320
100
AcDbText
  0
LINE
  5
26F49
330
1F
100
AcDbEntity
  8
D-STR-DIM
  6
Continuous
100
AcDbLine
 10
5897.920390488966
 20
10195.52868943092
 30
0.0
 11
6057.920389812654
 21
10195.52868943092
 31
0.0
  0
TEXT
  5
26F4B
330
1F
100
AcDbEntity
  8
D-STR-DIM
100
AcDbText
 10
6456.060588129719
 20
10211.52848936329
 30
0.0
 40
70.0
  1
350
100
AcDbText
  0
LINE
  5
26F4C
330
1F
100
AcDbEntity
  8
D-STR-DIM
  6
Continuous
100
AcDbLine
 10
6367.920588502297
 20
10195.52868943092
 30
0.0
 11
6542.920387762591
 21
10195.52868943092
 31
0.0
  0
LINE
  5
26F4D
330
1F
100
AcDbEntity
  8
D-STR-DIM
  6
Continuous
100
AcDbLine
 10
6367.920588502297
 20
9815.528891121696
 30
0.0
 11
6367.920588502297
 21
10225.52828930412
 31
0.0
  0
LINE
  5
26F4E
330
1F
100
AcDbEntity
  8
D-STR-DIM
  6
Continuous
100
AcDbLine
 10
6217.920389136343
 20
9815.528891121696
 30
0.0
 11
6217.920389136343
 21
10225.52828930412
 31
0.0
  0
CIRCLE
  5
26F4F
330
1F
100
AcDbEntity
  8
D-STR-DIM
  6
Continuous
100
AcDbCircle
 10
6367.920588502297
 20
10195.52868943092
 30
0.0
 40
5.999997974638371
  0
CIRCLE
  5
26F50
330
1F
100
AcDbEntity
  8
D-STR-DIM
  6
Continuous
100
AcDbCircle
 10
6217.920389136343
 20
10195.52868943092
 30
0.0
 40
5.999997974638371
  0
LINE
  5
26F51
330
1F
100
AcDbEntity
  8
D-STR-DIM
  6
Continuous
100
AcDbLine
 10
6367.920588502297
 20
10195.52868943092
 30
0.0
 11
6292.920588819317
 21
10195.52868943092
 31
0.0
  0
LINE
  5
26F52
330
1F
100
AcDbEntity
  8
D-STR-DIM
  6
Continuous
100
AcDbLine
 10
6217.920389136343
 20
10195.52868943092
 30
0.0
 11
6292.920588819317
 21
10195.52868943092
 31
0.0
  0
LINE
  5
26F53
330
1F
100
AcDbEntity
  8
D-STR-DIM
  6
Continuous
100
AcDbLine
 10
6717.920427022888
 20
9815.528891121696
 30
0.0
 11
6717.920427022888
 21
10225.52828930412
 31
0.0
  0
LINE
  5
26F54
330
1F
100
AcDbEntity
  8
D-STR-DIM
  6
Continuous
100
AcDbLine
 10
6717.920427022888
 20
10195.52868943092
 30
0.0
 11
6542.920387762591
 21
10195.52868943092
 31
0.0
  0
CIRCLE
  5
26F55
330
1F
100
AcDbEntity
  8
D-STR-DIM
  6
Continuous
100
AcDbCircle
 10
6717.920427022888
 20
10195.52868943092
 30
0.0
 40
5.999997974638371
  0
LINE
  5
26F56
330
1F
100
AcDbEntity
  8
D-STR-DIM
  6
Continuous
100
AcDbLine
 10
7937.920441866033
 20
9795.528891121696
 30
0.0
 11
7937.920441866033
 21
9420.528292706803
 31
0.0
  0
LINE
  5
26F57
330
1F
100
AcDbEntity
  8
D-STR-HTXT
  6
Continuous
100
AcDbLine
 10
7074.992625513532
 20
9552.598492148547
 30
0.0
 11
7737.921622711375
 21
10195.52768943092
 31
0.0
  0
LINE
  5
26F58
330
1F
100
AcDbEntity
  8
D-STR-HTXT
  6
Continuous
100
AcDbLine
 10
7249.028644777951
 20
9005.753694460032
 30
0.0
 11
7222.920404888279
 21
9036.869094328507
 31
0.0
  0
LINE
  5
26F59
330
1F
100
AcDbEntity
  8
D-BMK
  6
CENTER2
100
AcDbLine
 10
7217.920384909405
 20
9085.529094122827
 30
0.0
 11
7217.920384909405
 21
9005.528694460981
 31
0.0
  0
CIRCLE
  5
26F5A
330
1F
100
AcDbEntity
  8
D-STR-STR2
  6
Continuous
100
AcDbCircle
 10
7067.92042554346
 20
8545.528496405376
 30
0.0
 40
9.999997957730611
  0
LINE
  5
26F5B
330
1F
100
AcDbEntity
  8
D-BMK
  6
CENTER2
100
AcDbLine
 10
7107.920365374361
 20
8545.528496405376
 30
0.0
 11
7027.920365712517
 21
8545.528496405376
 31
0.0
  0
LINE
  5
26F5C
330
1F
100
AcDbEntity
  8
D-BMK
  6
CENTER2
100
AcDbLine
 10
7067.92042554346
 20
8505.529296574449
 30
0.0
 11
7067.92042554346
 21
8585.528696236295
 31
0.0
  0
LINE
  5
26F5D
330
1F
100
AcDbEntity
  8
D-BMK
  6
CENTER2
100
AcDbLine
 10
7257.920444740347
 20
9045.528894291903
 30
0.0
 11
7177.920445078505
 21
9045.528894291903
 31
0.0
  0
CIRCLE
  5
26F5E
330
1F
100
AcDbEntity
  8
D-STR-STR2
  6
Continuous
100
AcDbCircle
 10
7067.92042554346
 20
9545.529092178432
 30
0.0
 40
9.999997957730611
  0
LINE
  5
26F5F
330
1F
100
AcDbEntity
  8
D-STR-HTXT
  6
Continuous
100
AcDbLine
 10
7098.288465415127
 20
9585.871292007908
 30
0.0
 11
7074.991385513553
 21
9552.599492148543
 31
0.0
  0
LINE
  5
26F60
330
1F
100
AcDbEntity
  8
D-BMK
  6
CENTER2
100
AcDbLine
 10
7067.92042554346
 20
9585.52829200936
 30
0.0
 11
7067.92042554346
 21
9505.529092347511
 31
0.0
  0
LINE
  5
26F61
330
1F
100
AcDbEntity
  8
D-BMK
  6
CENTER2
100
AcDbLine
 10
7107.920365374361
 20
9545.529092178432
 30
0.0
 11
7027.920365712517
 21
9545.529092178432
 31
0.0
  0
CIRCLE
  5
26F62
330
1F
100
AcDbEntity
  8
D-STR-STR2
  6
Continuous
100
AcDbCircle
 10
7217.920384909405
 20
9045.528894291903
 30
0.0
 40
9.999997957730611
  0
LINE
  5
26F63
330
1F
100
AcDbEntity
  8
D-STR-DIM
  6
Continuous
100
AcDbLine
 10
7937.920441866033
 20
9045.528894291903
 30
0.0
 11
7937.920441866033
 21
8670.528295877009
 31
0.0
  0
TEXT
  5
26F64
330
1F
100
AcDbEntity
  8
D-STR-DIM
100
AcDbText
 10
7921.920381933658
 20
8583.668696244156
 30
0.0
 40
70.0
  1
750
 50
90.0
100
AcDbText
  0
LINE
  5
26F65
330
1F
100
AcDbEntity
  8
D-STR-DIM
  6
Continuous
100
AcDbLine
 10
7557.920383556787
 20
9045.528894291903
 30
0.0
 11
7967.920381739205
 21
9045.528894291903
 31
0.0
  0
TEXT
  5
26F66
330
1F
100
AcDbEntity
  8
D-STR-DIM
100
AcDbText
 10
7921.920381933658
 20
9333.668693073956
 30
0.0
 40
70.0
  1
750
 50
90.0
100
AcDbText
  0
LINE
  5
26F67
330
1F
100
AcDbEntity
  8
D-STR-DIM
  6
Continuous
100
AcDbLine
 10
7937.920441866033
 20
9045.528894291903
 30
0.0
 11
7937.920441866033
 21
9420.528292706803
 31
0.0
  0
CIRCLE
  5
26F68
330
1F
100
AcDbEntity
  8
D-STR-DIM
  6
Continuous
100
AcDbCircle
 10
7937.920441866033
 20
9045.528894291903
 30
0.0
 40
5.999997974638371
  0
LINE
  5
26F69
330
1F
100
AcDbEntity
  8
D-STR-DIM
  6
Continuous
100
AcDbLine
 10
7537.920383556782
 20
10195.52868943092
 30
0.0
 11
7377.920384233094
 21
10195.52868943092
 31
0.0
  0
TEXT
  5
26F6A
330
1F
100
AcDbEntity
  8
D-STR-DIM
100
AcDbText
 10
7097.288965419316
 20
10099.20868983806
 30
0.0
 40
70.0
  1
150
100
AcDbText
  0
LINE
  5
26F6B
330
1F
100
AcDbEntity
  8
D-STR-DIM
  6
Continuous
100
AcDbLine
 10
7217.920384909405
 20
10195.52868943092
 30
0.0
 11
7142.920405226433
 21
10195.52868943092
 31
0.0
  0
LINE
  5
26F6C
330
1F
100
AcDbEntity
  8
D-STR-DIM
  6
Continuous
100
AcDbLine
 10
7067.92042554346
 20
9815.528891121696
 30
0.0
 11
7067.92042554346
 21
10225.52828930412
 31
0.0
  0
LINE
  5
26F6D
330
1F
100
AcDbEntity
  8
D-STR-DIM
  6
Continuous
100
AcDbLine
 10
7067.92042554346
 20
10195.52868943092
 30
0.0
 11
6892.920486283194
 21
10195.52868943092
 31
0.0
  0
CIRCLE
  5
26F6E
330
1F
100
AcDbEntity
  8
D-STR-DIM
  6
Continuous
100
AcDbCircle
 10
7067.92042554346
 20
10195.52868943092
 30
0.0
 40
5.999997974638371
  0
LINE
  5
26F6F
330
1F
100
AcDbEntity
  8
D-STR-DIM
  6
Continuous
100
AcDbLine
 10
7067.92042554346
 20
10195.52868943092
 30
0.0
 11
7142.920405226433
 21
10195.52868943092
 31
0.0
  0
LINE
  5
26F70
330
1F
100
AcDbEntity
  8
D-STR-DIM
  6
Continuous
100
AcDbLine
 10
7217.920384909405
 20
9815.528891121696
 30
0.0
 11
7217.920384909405
 21
10225.52828930412
 31
0.0
  0
TEXT
  5
26F71
330
1F
100
AcDbEntity
  8
D-STR-DIM
100
AcDbText
 10
7281.06044464252
 20
10211.52848936329
 30
0.0
 40
70.0
  1
320
100
AcDbText
  0
LINE
  5
26F72
330
1F
100
AcDbEntity
  8
D-STR-DIM
  6
Continuous
100
AcDbLine
 10
7217.920384909405
 20
10195.52868943092
 30
0.0
 11
7377.920384233094
 21
10195.52868943092
 31
0.0
  0
CIRCLE
  5
26F73
330
1F
100
AcDbEntity
  8
D-STR-DIM
  6
Continuous
100
AcDbCircle
 10
7217.920384909405
 20
10195.52868943092
 30
0.0
 40
5.999997974638371
  0
LINE
  5
26F75
330
1F
100
AcDbEntity
  8
D-STR-DIM
  6
Continuous
100
AcDbLine
 10
7537.920383556782
 20
9815.528891121696
 30
0.0
 11
7537.920383556782
 21
10225.52828930412
 31
0.0
  0
CIRCLE
  5
26F76
330
1F
100
AcDbEntity
  8
D-STR-DIM
  6
Continuous
100
AcDbCircle
 10
7537.920383556782
 20
10195.52868943092
 30
0.0
 40
5.999997974638371
  0
CIRCLE
  5
26F77
330
1F
100
AcDbEntity
  8
D-STR-DIM
  6
Continuous
100
AcDbCircle
 10
7937.920441866033
 20
9795.528891121696
 30
0.0
 40
5.999997974638371
  0
TEXT
  5
26F78
330
1F
100
AcDbEntity
  8
D-STR-HTXT
100
AcDbText
 10
7939.060381861203
 20
10115.52828976908
 30
0.0
 40
70.0
  1
Ｍ20
100
AcDbText
  0
LINE
  5
2762D
330
1F
100
AcDbEntity
  8
D-STR-DIM
  6
Continuous
100
AcDbLine
 10
8237.920400597865
 20
1995.528924937218
 30
0.0
 11
8567.920381202981
 21
1995.528924937218
 31
0.0
  0
LINE
  5
2762E
330
1F
100
AcDbEntity
  8
D-STR-HTXT
  6
Continuous
100
AcDbLine
 10
7687.91122292274
 20
595.5289308549345
 30
0.0
 11
8495.686759094333
 21
595.5289308549345
 31
0.0
  0
LINE
  5
2762F
330
1F
100
AcDbEntity
  8
D-STR-DIM
  6
Continuous
100
AcDbLine
 10
7557.920383556787
 20
2495.528922823749
 30
0.0
 11
8567.920381202981
 21
2495.528922823749
 31
0.0
  0
LINE
  5
27630
330
1F
100
AcDbEntity
  8
D-STR-DIM
  6
Continuous
100
AcDbLine
 10
7557.920383556787
 20
995.5289291641584
 30
0.0
 11
8567.920381202981
 21
995.5289291641584
 31
0.0
  0
TEXT
  5
27631
330
1F
100
AcDbEntity
  8
D-STR-HTXT
100
AcDbText
 10
7665.051223019367
 20
515.5291311930887
 30
0.0
 40
70.0
  1
　インサート　Ｍ20
100
AcDbText
  0
LINE
  5
27634
330
1F
100
AcDbEntity
  8
D-STR-DIM
  6
Continuous
100
AcDbLine
 10
7567.92040342991
 20
4395.52911436987
 30
0.0
 11
9507.920375229714
 21
4395.52911436987
 31
0.0
  0
LINE
  5
27635
330
1F
100
AcDbEntity
  8
D-STR-DIM
  6
Continuous
100
AcDbLine
 10
7567.92040342991
 20
6695.528904647905
 30
0.0
 11
9507.920375229714
 21
6695.528904647905
 31
0.0
  0
TEXT
  5
27636
330
1F
100
AcDbEntity
  8
D-TTL-TXT
100
AcDbText
 10
7015.840054270608
 20
10724.60112715242
 30
0.0
 40
200.0
  1
（横断管路用タイプ）
100
AcDbText
  0
LWPOLYLINE
  5
2763A
330
1F
100
AcDbEntity
  8
D-TTL
  6
Continuous
100
AcDbPolyline
 90
        4
 70
     1
 43
0.0
 10
800.0
 20
11479.99995006277
 10
16419.99993279995
 20
11479.99995006277
 10
16419.99993279995
 20
399.9999976627478
 10
800.0
 20
399.9999976627478
  0
LWPOLYLINE
  5
2763B
330
1F
100
AcDbEntity
  8
D-TTL
  6
Continuous
100
AcDbPolyline
 90
        4
 70
     1
 43
0.0
 10
0.0
 20
11879.99995006277
 10
16819.99993279995
 20
11879.99995006277
 10
16819.99993279995
 20
-0.0000023372522264
 10
0.0
 20
-0.0000023372522264
  0
LINE
  5
2763C
330
1F
100
AcDbEntity
  8
D-STR-DIM
  6
Continuous
100
AcDbLine
 10
8337.920400175171
 20
6495.528905493294
 30
0.0
 11
8337.920400175171
 21
5545.529109508887
 31
0.0
  0
LINE
  5
2763D
330
1F
100
AcDbEntity
  8
D-STR-DIM
  6
Continuous
100
AcDbLine
 10
8037.920401443249
 20
6395.52850591599
 30
0.0
 11
8037.920401443249
 21
5545.529109508887
 31
0.0
  0
LINE
  5
2763E
330
1F
100
AcDbEntity
  8
D-STR-DIM
  6
Continuous
100
AcDbLine
 10
5497.920592179736
 20
5795.528708452155
 30
0.0
 11
5497.920592179736
 21
6070.528707289745
 31
0.0
  0
LINE
  5
2763F
330
1F
100
AcDbEntity
  8
D-STR
  6
Continuous
100
AcDbLine
 10
7342.920464380994
 20
4595.52911352448
 30
0.0
 11
7342.920464380994
 21
6495.528905493294
 31
0.0
  0
LINE
  5
27640
330
1F
100
AcDbEntity
  8
D-STR
  6
Continuous
100
AcDbLine
 10
6092.920589664707
 20
4595.52911352448
 30
0.0
 11
6092.920589664707
 21
6495.528905493294
 31
0.0
  0
LINE
  5
27641
330
1F
100
AcDbEntity
  8
D-STR
  6
Continuous
100
AcDbLine
 10
5897.920390488966
 20
4395.52911436987
 30
0.0
 11
5897.920390488966
 21
6695.528904647905
 31
0.0
  0
LINE
  5
27642
330
1F
100
AcDbEntity
  8
D-STR
  6
Continuous
100
AcDbLine
 10
7537.920383556786
 20
4395.52911436987
 30
0.0
 11
7537.920383556786
 21
6695.528904647905
 31
0.0
  0
LINE
  5
27643
330
1F
100
AcDbEntity
  8
D-STR
  6
Continuous
100
AcDbLine
 10
6117.920389559039
 20
4695.528513101788
 30
0.0
 11
6117.920389559039
 21
6395.52850591599
 31
0.0
  0
LINE
  5
27644
330
1F
100
AcDbEntity
  8
D-STR
  6
Continuous
100
AcDbLine
 10
7317.920484486673
 20
4695.528513101788
 30
0.0
 11
7317.920484486673
 21
6395.52850591599
 31
0.0
  0
LINE
  5
27645
330
1F
100
AcDbEntity
  8
D-STR-DIM
  6
Continuous
100
AcDbLine
 10
7787.920422499992
 20
6419.529105814544
 30
0.0
 11
7787.920422499992
 21
5549.029109494095
 31
0.0
  0
LINE
  5
27646
330
1F
100
AcDbEntity
  8
D-STR-DIM
  6
Continuous
100
AcDbLine
 10
4297.92079725206
 20
5720.528708769176
 30
0.0
 11
4297.92079725206
 21
5933.029307870947
 31
0.0
  0
LINE
  5
27647
330
1F
100
AcDbEntity
  8
D-STR
  6
Continuous
100
AcDbLine
 10
3257.920801648077
 20
5845.528508240808
 30
0.0
 11
3247.920801690347
 21
5835.528908283075
 31
0.0
  0
LINE
  5
27648
330
1F
100
AcDbEntity
  8
D-STR
  6
Continuous
100
AcDbLine
 10
3037.919402577973
 20
5845.528508240808
 30
0.0
 11
3047.919402535703
 21
5835.529908283072
 31
0.0
  0
LINE
  5
27649
330
1F
100
AcDbEntity
  8
D-STR-DIM
  6
Continuous
100
AcDbLine
 10
2937.920803000696
 20
5835.528908283075
 30
0.0
 11
2937.920803000696
 21
5840.52910826194
 31
0.0
  0
CIRCLE
  5
2764A
330
1F
100
AcDbEntity
  8
D-STR-DIM
  6
Continuous
100
AcDbCircle
 10
2937.920803000696
 20
5845.528508240808
 30
0.0
 40
5.999997974638371
  0
CIRCLE
  5
2764B
330
1F
100
AcDbEntity
  8
D-STR-DIM
  6
Continuous
100
AcDbCircle
 10
2937.920803000696
 20
5835.528908283075
 30
0.0
 40
5.999997974638371
  0
TEXT
  5
2764C
330
1F
100
AcDbEntity
  8
D-STR-DIM
100
AcDbText
 10
2921.920603068276
 20
5785.668908493829
 30
0.0
 40
70.0
  1
10
 50
90.0
100
AcDbText
  0
LINE
  5
2764D
330
1F
100
AcDbEntity
  8
D-STR
  6
Continuous
100
AcDbLine
 10
3787.920799407799
 20
6495.528905493294
 30
0.0
 11
3787.920799407799
 21
4595.52911352448
 31
0.0
  0
LINE
  5
2764E
330
1F
100
AcDbEntity
  8
D-STR
  6
Continuous
100
AcDbLine
 10
3037.920802578003
 20
5845.528508240808
 30
0.0
 11
3037.920802578003
 21
4595.52911352448
 31
0.0
  0
LINE
  5
2764F
330
1F
100
AcDbEntity
  8
D-STR
  6
Continuous
100
AcDbLine
 10
3257.920801648077
 20
5845.528508240808
 30
0.0
 11
3257.920801648077
 21
4595.52911352448
 31
0.0
  0
LINE
  5
27650
330
1F
100
AcDbEntity
  8
D-STR
  6
Continuous
100
AcDbLine
 10
3897.920798942836
 20
6695.528904647905
 30
0.0
 11
3897.920798942836
 21
4395.52911436987
 31
0.0
  0
LINE
  5
27651
330
1F
100
AcDbEntity
  8
D-STR
  6
Continuous
100
AcDbLine
 10
3797.92039936554
 20
6485.528505535566
 30
0.0
 11
3797.92039936554
 21
4605.52871348221
 31
0.0
  0
LINE
  5
27652
330
1F
100
AcDbEntity
  8
D-STR-DIM
  6
Continuous
100
AcDbLine
 10
5097.920793870508
 20
6695.528904647905
 30
0.0
 11
5097.920793870508
 21
5545.529109508887
 31
0.0
  0
LINE
  5
27653
330
1F
100
AcDbEntity
  8
D-STR
  6
Continuous
100
AcDbLine
 10
2497.920804860551
 20
6485.528505535566
 30
0.0
 11
2497.920804860551
 21
4605.52871348221
 31
0.0
  0
LINE
  5
27654
330
1F
100
AcDbEntity
  8
D-STR
  6
Continuous
100
AcDbLine
 10
2397.920805283244
 20
6695.528904647905
 30
0.0
 11
2397.920805283244
 21
4395.52911436987
 31
0.0
  0
LINE
  5
27655
330
1F
100
AcDbEntity
  8
D-STR
  6
Continuous
100
AcDbLine
 10
2507.920804818281
 20
6495.528905493294
 30
0.0
 11
2507.920804818281
 21
4595.52911352448
 31
0.0
  0
LINE
  5
27656
330
1F
100
AcDbEntity
  8
D-STR
  6
Continuous
100
AcDbLine
 10
3047.920802535733
 20
5835.528908283075
 30
0.0
 11
3247.920801690347
 21
5835.528908283075
 31
0.0
  0
TEXT
  5
27657
330
1F
100
AcDbEntity
  8
D-STR-DIM
100
AcDbText
 10
3061.060802480177
 20
5011.528711766078
 30
0.0
 40
70.0
  1
200
100
AcDbText
  0
LINE
  5
27658
330
1F
100
AcDbEntity
  8
D-STR-DIM
  6
Continuous
100
AcDbLine
 10
3247.920801690347
 20
4995.528911833706
 30
0.0
 11
3147.92080211304
 21
4995.528911833706
 31
0.0
  0
LINE
  5
27659
330
1F
100
AcDbEntity
  8
D-STR
  6
Continuous
100
AcDbLine
 10
3037.920802578003
 20
4595.52911352448
 30
0.0
 11
3257.920801648077
 21
4595.52911352448
 31
0.0
  0
LINE
  5
2765A
330
1F
100
AcDbEntity
  8
D-STR
  6
Continuous
100
AcDbLine
 10
3047.920802535733
 20
4605.52871348221
 30
0.0
 11
3247.920801690347
 21
4605.52871348221
 31
0.0
  0
LINE
  5
2765B
330
1F
100
AcDbEntity
  8
D-STR-DIM
  6
Continuous
100
AcDbLine
 10
3212.920401838303
 20
3995.529316060644
 30
0.0
 11
3147.92080211304
 21
3995.529316060644
 31
0.0
  0
TEXT
  5
2765C
330
1F
100
AcDbEntity
  8
D-STR-DIM
100
AcDbText
 10
3061.060802480177
 20
3899.209116467784
 30
0.0
 40
70.0
  1
130
100
AcDbText
  0
TEXT
  5
2765D
330
1F
100
AcDbEntity
  8
D-STR-DIM
100
AcDbText
 10
3029.060802615394
 20
3711.528517261097
 30
0.0
 40
70.0
  1
1500
100
AcDbText
  0
LINE
  5
2765E
330
1F
100
AcDbEntity
  8
D-STR-DIM
  6
Continuous
100
AcDbLine
 10
3897.920798942836
 20
3695.528917328728
 30
0.0
 11
3147.92080211304
 21
3695.528917328728
 31
0.0
  0
LINE
  5
2765F
330
1F
100
AcDbEntity
  8
D-STR
  6
Continuous
100
AcDbLine
 10
2397.920805283244
 20
4395.52911436987
 30
0.0
 11
3897.920798942836
 21
4395.52911436987
 31
0.0
  0
LINE
  5
27660
330
1F
100
AcDbEntity
  8
D-STR
  6
Continuous
100
AcDbLine
 10
2397.920805283244
 20
4595.52911352448
 30
0.0
 11
3897.920798942836
 21
4595.52911352448
 31
0.0
  0
LINE
  5
27661
330
1F
100
AcDbEntity
  8
D-STR-DIM
  6
Continuous
100
AcDbLine
 10
3082.920802387791
 20
4375.529114369871
 30
0.0
 11
3082.920802387791
 21
3965.528716187455
 31
0.0
  0
LINE
  5
27662
330
1F
100
AcDbEntity
  8
D-STR-DIM
  6
Continuous
100
AcDbLine
 10
2462.920805008493
 20
4375.529114369871
 30
0.0
 11
2462.920805008493
 21
3965.528716187455
 31
0.0
  0
LINE
  5
27663
330
1F
100
AcDbEntity
  8
D-STR-DIM
  6
Continuous
100
AcDbLine
 10
2397.920805283244
 20
4375.529114369871
 30
0.0
 11
2397.920805283244
 21
3665.529317455534
 31
0.0
  0
LINE
  5
27664
330
1F
100
AcDbEntity
  8
D-STR-DIM
  6
Continuous
100
AcDbLine
 10
2397.920805283244
 20
3695.528917328728
 30
0.0
 11
3147.92080211304
 21
3695.528917328728
 31
0.0
  0
CIRCLE
  5
27665
330
1F
100
AcDbEntity
  8
D-STR-DIM
  6
Continuous
100
AcDbCircle
 10
2397.920805283244
 20
3695.528917328728
 30
0.0
 40
5.999997974638371
  0
TEXT
  5
27666
330
1F
100
AcDbEntity
  8
D-STR-DIM
100
AcDbText
 10
2343.060605515097
 20
3899.209116467784
 30
0.0
 40
70.0
  1
65
100
AcDbText
  0
LINE
  5
27667
330
1F
100
AcDbEntity
  8
D-STR-HTXT
  6
Continuous
100
AcDbLine
 10
2147.920606339983
 20
4395.529114369868
 30
0.0
 11
1428.507331526794
 21
4395.529114369868
 31
0.0
  0
TEXT
  5
27668
330
1F
100
AcDbEntity
  8
D-STR-HTXT
100
AcDbText
 10
1358.011141417228
 20
4411.528914302234
 30
0.0
 40
70.0
  1
　インサート　Ｍ16
100
AcDbText
  0
TEXT
  5
27669
330
1F
100
AcDbEntity
  8
D-STR-HTXT
100
AcDbText
 10
1365.759608711545
 20
4315.528714708025
 30
0.0
 40
70.0
  1
　　（セラミック）
100
AcDbText
  0
TEXT
  5
2766A
330
1F
100
AcDbEntity
  8
D-STR-DIM
100
AcDbText
 10
2988.060802788714
 20
4899.208912240847
 30
0.0
 40
70.0
  1
10
100
AcDbText
  0
LINE
  5
2766B
330
1F
100
AcDbEntity
  8
D-STR-DIM
  6
Continuous
100
AcDbLine
 10
2937.920803000696
 20
4605.52871348221
 30
0.0
 11
2937.920803000696
 21
5220.529310882641
 31
0.0
  0
LINE
  5
2766C
330
1F
100
AcDbEntity
  8
D-STR
  6
Continuous
100
AcDbLine
 10
3047.920802535733
 20
5835.528908283075
 30
0.0
 11
3047.920802535733
 21
4605.52871348221
 31
0.0
  0
LINE
  5
2766D
330
1F
100
AcDbEntity
  8
D-BMK
  6
CENTER2
100
AcDbLine
 10
2502.920604839423
 20
4745.529312890438
 30
0.0
 11
2422.920805177572
 21
4745.529312890438
 31
0.0
  0
LINE
  5
2766E
330
1F
100
AcDbEntity
  8
D-STR
  6
Continuous
100
AcDbLine
 10
2397.920805283244
 20
4605.52871348221
 30
0.0
 11
2497.920804860551
 21
4605.52871348221
 31
0.0
  0
LINE
  5
2766F
330
1F
100
AcDbEntity
  8
D-STR
  6
Continuous
100
AcDbLine
 10
2397.920805283244
 20
4595.52911352448
 30
0.0
 11
2507.920804818281
 21
4595.52911352448
 31
0.0
  0
LINE
  5
27670
330
1F
100
AcDbEntity
  8
D-STR-DIM
  6
Continuous
100
AcDbLine
 10
2462.920805008493
 20
3995.529316060644
 30
0.0
 11
2772.920803698144
 21
3995.529316060644
 31
0.0
  0
LINE
  5
27671
330
1F
100
AcDbEntity
  8
D-STR-HTXT
  6
Continuous
100
AcDbLine
 10
2147.920606339983
 20
4395.529114369868
 30
0.0
 11
2456.231005036749
 21
4738.096312921854
 31
0.0
  0
LINE
  5
27672
330
1F
100
AcDbEntity
  8
D-STR-DIM
  6
Continuous
100
AcDbLine
 10
2462.920805008493
 20
3995.529316060644
 30
0.0
 11
2430.420605145875
 21
3995.529316060644
 31
0.0
  0
CIRCLE
  5
27673
330
1F
100
AcDbEntity
  8
D-STR-DIM
  6
Continuous
100
AcDbCircle
 10
2462.920805008493
 20
3995.529316060644
 30
0.0
 40
5.999997974638371
  0
CIRCLE
  5
27674
330
1F
100
AcDbEntity
  8
D-STR-DIM
  6
Continuous
100
AcDbCircle
 10
2397.920805283244
 20
3995.529316060644
 30
0.0
 40
5.999997974638371
  0
LINE
  5
27675
330
1F
100
AcDbEntity
  8
D-STR-DIM
  6
Continuous
100
AcDbLine
 10
2397.920805283244
 20
3995.529316060644
 30
0.0
 11
2430.420605145875
 21
3995.529316060644
 31
0.0
  0
LINE
  5
27676
330
1F
100
AcDbEntity
  8
D-BMK
  6
CENTER2
100
AcDbLine
 10
2462.920805008493
 20
4785.528512721365
 30
0.0
 11
2462.920805008493
 21
4705.529113059518
 31
0.0
  0
CIRCLE
  5
27677
330
1F
100
AcDbEntity
  8
D-STR-STR2
  6
Continuous
100
AcDbCircle
 10
2462.920805008493
 20
4745.529312890438
 30
0.0
 40
9.999997957730611
  0
LINE
  5
27678
330
1F
100
AcDbEntity
  8
D-STR-HTXT
  6
Continuous
100
AcDbLine
 10
2424.230205171989
 20
4713.083113027587
 30
0.0
 11
2456.231005036749
 21
4738.096312921854
 31
0.0
  0
LINE
  5
27679
330
1F
100
AcDbEntity
  8
D-STR-DIM
  6
Continuous
100
AcDbLine
 10
3082.920802387791
 20
3995.529316060644
 30
0.0
 11
2772.920803698144
 21
3995.529316060644
 31
0.0
  0
TEXT
  5
2767A
330
1F
100
AcDbEntity
  8
D-STR-DIM
100
AcDbText
 10
2686.060804065281
 20
4011.528915993014
 30
0.0
 40
70.0
  1
620
100
AcDbText
  0
LINE
  5
2767B
330
1F
100
AcDbEntity
  8
D-STR-DIM
  6
Continuous
100
AcDbLine
 10
3082.920802387791
 20
3995.529316060644
 30
0.0
 11
3147.92080211304
 21
3995.529316060644
 31
0.0
  0
CIRCLE
  5
2767C
330
1F
100
AcDbEntity
  8
D-STR-DIM
  6
Continuous
100
AcDbCircle
 10
3082.920802387791
 20
3995.529316060644
 30
0.0
 40
5.999997974638371
  0
LINE
  5
2767D
330
1F
100
AcDbEntity
  8
D-STR
  6
Continuous
100
AcDbLine
 10
2507.920804818281
 20
4695.528513101788
 30
0.0
 11
3037.920802578003
 21
4695.528513101788
 31
0.0
  0
LINE
  5
2767E
330
1F
100
AcDbEntity
  8
D-STR
  6
Continuous
100
AcDbLine
 10
2497.920804860551
 20
4605.52871348221
 30
0.0
 11
2507.920804818281
 21
4595.52911352448
 31
0.0
  0
LINE
  5
2767F
330
1F
100
AcDbEntity
  8
D-STR-DIM
  6
Continuous
100
AcDbLine
 10
3017.920802578003
 20
4605.52871348221
 30
0.0
 11
2907.920803127505
 21
4605.52871348221
 31
0.0
  0
LINE
  5
27680
330
1F
100
AcDbEntity
  8
D-STR-DIM
  6
Continuous
100
AcDbLine
 10
2937.920803000696
 20
4605.52871348221
 30
0.0
 11
2937.920803000696
 21
4600.529313503346
 31
0.0
  0
LINE
  5
27681
330
1F
100
AcDbEntity
  8
D-STR-DIM
  6
Continuous
100
AcDbLine
 10
2937.920803000696
 20
4595.52911352448
 30
0.0
 11
2937.920803000696
 21
4600.529313503346
 31
0.0
  0
CIRCLE
  5
27682
330
1F
100
AcDbEntity
  8
D-STR-DIM
  6
Continuous
100
AcDbCircle
 10
2937.920803000696
 20
4605.52871348221
 30
0.0
 40
5.999997974638371
  0
CIRCLE
  5
27683
330
1F
100
AcDbEntity
  8
D-STR-DIM
  6
Continuous
100
AcDbCircle
 10
2937.920803000696
 20
4595.52911352448
 30
0.0
 40
5.999997974638371
  0
TEXT
  5
27684
330
1F
100
AcDbEntity
  8
D-STR-DIM
100
AcDbText
 10
2921.920603068276
 20
4545.669113735235
 30
0.0
 40
70.0
  1
10
 50
90.0
100
AcDbText
  0
LINE
  5
27685
330
1F
100
AcDbEntity
  8
D-STR
  6
Continuous
100
AcDbLine
 10
3037.920802578003
 20
4595.52911352448
 30
0.0
 11
3047.920802535733
 21
4605.52871348221
 31
0.0
  0
LINE
  5
27686
330
1F
100
AcDbEntity
  8
D-BMK
  6
CENTER2
100
AcDbLine
 10
3082.920802387791
 20
4785.528512721365
 30
0.0
 11
3082.920802387791
 21
4705.529113059518
 31
0.0
  0
LINE
  5
27687
330
1F
100
AcDbEntity
  8
D-BMK
  6
CENTER2
100
AcDbLine
 10
3122.920402218726
 20
4745.529312890438
 30
0.0
 11
3042.920602556875
 21
4745.529312890438
 31
0.0
  0
CIRCLE
  5
27688
330
1F
100
AcDbEntity
  8
D-STR-STR2
  6
Continuous
100
AcDbCircle
 10
3082.920802387791
 20
4745.529312890438
 30
0.0
 40
9.999997957730611
  0
LINE
  5
27689
330
1F
100
AcDbEntity
  8
D-STR-DIM
  6
Continuous
100
AcDbLine
 10
2497.920804860551
 20
4995.528911833706
 30
0.0
 11
2447.920605071904
 21
4995.528911833706
 31
0.0
  0
CIRCLE
  5
2768A
330
1F
100
AcDbEntity
  8
D-STR-DIM
  6
Continuous
100
AcDbCircle
 10
2497.920804860551
 20
4995.528911833706
 30
0.0
 40
5.999997974638371
  0
TEXT
  5
2768B
330
1F
100
AcDbEntity
  8
D-STR-DIM
100
AcDbText
 10
2281.070405777125
 20
5011.528711766078
 30
0.0
 40
70.0
  1
100
100
AcDbText
  0
LINE
  5
2768C
330
1F
100
AcDbEntity
  8
D-STR-DIM
  6
Continuous
100
AcDbLine
 10
2447.920605071904
 20
4995.528911833706
 30
0.0
 11
2281.071405777169
 21
4995.528911833706
 31
0.0
  0
LINE
  5
2768D
330
1F
100
AcDbEntity
  8
D-STR-DIM
  6
Continuous
100
AcDbLine
 10
2397.920805283244
 20
4995.528911833706
 30
0.0
 11
2447.920605071904
 21
4995.528911833706
 31
0.0
  0
CIRCLE
  5
2768E
330
1F
100
AcDbEntity
  8
D-STR-DIM
  6
Continuous
100
AcDbCircle
 10
2397.920805283244
 20
4995.528911833706
 30
0.0
 40
5.999997974638371
  0
LINE
  5
2768F
330
1F
100
AcDbEntity
  8
D-STR-DIM
  6
Continuous
100
AcDbLine
 10
2937.920803000696
 20
5835.528908283075
 30
0.0
 11
2937.920803000696
 21
5220.529310882641
 31
0.0
  0
TEXT
  5
27690
330
1F
100
AcDbEntity
  8
D-STR-DIM
100
AcDbText
 10
2521.462604760989
 20
5011.528711766078
 30
0.0
 40
70.0
  1
10
100
AcDbText
  0
LINE
  5
27691
330
1F
100
AcDbEntity
  8
D-STR-DIM
  6
Continuous
100
AcDbLine
 10
2497.920804860551
 20
4995.528911833706
 30
0.0
 11
2502.920604839423
 21
4995.528911833706
 31
0.0
  0
LINE
  5
27692
330
1F
100
AcDbEntity
  8
D-STR-DIM
  6
Continuous
100
AcDbLine
 10
2507.920804818281
 20
4995.528911833706
 30
0.0
 11
2502.920604839423
 21
4995.528911833706
 31
0.0
  0
LINE
  5
27693
330
1F
100
AcDbEntity
  8
D-STR-DIM
  6
Continuous
100
AcDbLine
 10
2502.920604839423
 20
4995.528911833706
 30
0.0
 11
2631.182604297225
 21
4995.528911833706
 31
0.0
  0
CIRCLE
  5
27694
330
1F
100
AcDbEntity
  8
D-STR-DIM
  6
Continuous
100
AcDbCircle
 10
2507.920804818281
 20
4995.528911833706
 30
0.0
 40
5.999997974638371
  0
TEXT
  5
27695
330
1F
100
AcDbEntity
  8
D-STR-DIM
100
AcDbText
 10
2921.920603068276
 20
5101.669311385056
 30
0.0
 40
70.0
  1
1230
 50
90.0
100
AcDbText
  0
LINE
  5
27696
330
1F
100
AcDbEntity
  8
D-STR-DIM
  6
Continuous
100
AcDbLine
 10
3037.920802578003
 20
4995.528911833706
 30
0.0
 11
3042.920602556875
 21
4995.528911833706
 31
0.0
  0
LINE
  5
27697
330
1F
100
AcDbEntity
  8
D-STR-DIM
  6
Continuous
100
AcDbLine
 10
3047.920802535733
 20
4995.528911833706
 30
0.0
 11
3042.920602556875
 21
4995.528911833706
 31
0.0
  0
LINE
  5
27698
330
1F
100
AcDbEntity
  8
D-STR-DIM
  6
Continuous
100
AcDbLine
 10
3047.920802535733
 20
4995.528911833706
 30
0.0
 11
3147.92080211304
 21
4995.528911833706
 31
0.0
  0
CIRCLE
  5
27699
330
1F
100
AcDbEntity
  8
D-STR-DIM
  6
Continuous
100
AcDbCircle
 10
3037.920802578003
 20
4995.528911833706
 30
0.0
 40
5.999997974638371
  0
CIRCLE
  5
2769A
330
1F
100
AcDbEntity
  8
D-STR-DIM
  6
Continuous
100
AcDbCircle
 10
3047.920802535733
 20
4995.528911833706
 30
0.0
 40
5.999997974638371
  0
LINE
  5
2769B
330
1F
100
AcDbEntity
  8
D-BMK
  6
CENTER2
100
AcDbLine
 10
2757.920603761551
 20
5720.528708769176
 30
0.0
 11
2837.920403423403
 21
5720.528708769176
 31
0.0
  0
CIRCLE
  5
2769C
330
1F
100
AcDbEntity
  8
D-STR-STR2
  6
Continuous
100
AcDbCircle
 10
2797.920803592468
 20
5720.528708769176
 30
0.0
 40
9.999997957730611
  0
LINE
  5
2769D
330
1F
100
AcDbEntity
  8
D-BMK
  6
CENTER2
100
AcDbLine
 10
2797.920803592468
 20
5760.528708600097
 30
0.0
 11
2797.920803592468
 21
5680.528508938252
 31
0.0
  0
LINE
  5
2769E
330
1F
100
AcDbEntity
  8
D-STR-DIM
  6
Continuous
100
AcDbLine
 10
3017.920802578003
 20
5835.528908283075
 30
0.0
 11
2907.920803127505
 21
5835.528908283075
 31
0.0
  0
LINE
  5
2769F
330
1F
100
AcDbEntity
  8
D-BMK
  6
CENTER2
100
AcDbLine
 10
3082.920802387791
 20
5835.528908283075
 30
0.0
 11
3082.920802387791
 21
5755.528508621235
 31
0.0
  0
LINE
  5
276A0
330
1F
100
AcDbEntity
  8
D-BMK
  6
CENTER2
100
AcDbLine
 10
3122.920402218726
 20
5795.528708452155
 30
0.0
 11
3042.920602556875
 21
5795.528708452155
 31
0.0
  0
CIRCLE
  5
276A1
330
1F
100
AcDbEntity
  8
D-STR-STR2
  6
Continuous
100
AcDbCircle
 10
3082.920802387791
 20
5795.528708452155
 30
0.0
 40
9.999997957730611
  0
TEXT
  5
276A2
330
1F
100
AcDbEntity
  8
D-STR-DIM
100
AcDbText
 10
7921.920381933654
 20
2183.668924141963
 30
0.0
 40
70.0
  1
450
 50
90.0
100
AcDbText
  0
LINE
  5
276A3
330
1F
100
AcDbEntity
  8
D-STR-DIM
  6
Continuous
100
AcDbLine
 10
7937.920441865957
 20
2045.529324725871
 30
0.0
 11
7937.920441865957
 21
2270.52912377481
 31
0.0
  0
LINE
  5
276A4
330
1F
100
AcDbEntity
  8
D-STR
  6
Continuous
100
AcDbLine
 10
7317.920484486673
 20
2385.528923288712
 30
0.0
 11
7317.920484486673
 21
1855.52892552899
 31
0.0
  0
LINE
  5
276A5
330
1F
100
AcDbEntity
  8
D-STR
  6
Continuous
100
AcDbLine
 10
7217.920384909405
 20
2345.528723457792
 30
0.0
 11
7217.920384909405
 21
2025.528841476968
 31
0.0
  0
LINE
  5
276A6
330
1F
100
AcDbEntity
  8
D-STR-DIM
  6
Continuous
100
AcDbLine
 10
8237.920400597934
 20
2495.528922823749
 30
0.0
 11
8237.920400597934
 21
1745.528925993952
 31
0.0
  0
LINE
  5
276A7
330
1F
100
AcDbEntity
  8
D-BMK
  6
CENTER2
100
AcDbLine
 10
6717.920427022891
 20
1845.528725571261
 30
0.0
 11
6717.920427022891
 21
2245.529123880482
 31
0.0
  0
LINE
  5
276A8
330
1F
100
AcDbEntity
  8
D-STR
  6
Continuous
100
AcDbLine
 10
6117.920389559039
 20
2385.528923288712
 30
0.0
 11
6117.920389559039
 21
1855.52892552899
 31
0.0
  0
LINE
  5
276A9
330
1F
100
AcDbEntity
  8
D-STR
  6
Continuous
100
AcDbLine
 10
6217.920389136347
 20
2345.528723457792
 30
0.0
 11
6217.920389136347
 21
1895.529125359912
 31
0.0
  0
LINE
  5
276AA
330
1F
100
AcDbEntity
  8
D-STR-DIM
  6
Continuous
100
AcDbLine
 10
5497.920592179736
 20
2345.528723457792
 30
0.0
 11
5497.920592179736
 21
2045.529324725871
 31
0.0
  0
LINE
  5
276AB
330
1F
100
AcDbEntity
  8
D-STR
  6
Continuous
100
AcDbLine
 10
7537.920383556786
 20
2495.528922823749
 30
0.0
 11
7537.920383556786
 21
995.5289291641584
 31
0.0
  0
LINE
  5
276AC
330
1F
100
AcDbEntity
  8
D-STR
  6
Continuous
100
AcDbLine
 10
5897.920390488966
 20
2495.528922823749
 30
0.0
 11
5897.920390488966
 21
995.5289291641584
 31
0.0
  0
LINE
  5
276AD
330
1F
100
AcDbEntity
  8
D-STR-DIM
  6
Continuous
100
AcDbLine
 10
5877.920390488966
 20
1745.528925993952
 30
0.0
 11
5467.920592306546
 21
1745.528925993952
 31
0.0
  0
LINE
  5
276AE
330
1F
100
AcDbEntity
  8
D-STR-DIM
  6
Continuous
100
AcDbLine
 10
5877.920390488966
 20
1145.529128530115
 30
0.0
 11
5467.920592306546
 21
1145.529128530115
 31
0.0
  0
LINE
  5
276AF
330
1F
100
AcDbEntity
  8
D-STR-DIM
  6
Continuous
100
AcDbLine
 10
5877.920390488966
 20
995.5289291641584
 30
0.0
 11
5467.920592306546
 21
995.5289291641584
 31
0.0
  0
LINE
  5
276B0
330
1F
100
AcDbEntity
  8
D-STR-DIM
  6
Continuous
100
AcDbLine
 10
5497.920592179736
 20
1145.529128530115
 30
0.0
 11
5497.920592179736
 21
1445.528927262035
 31
0.0
  0
TEXT
  5
276B1
330
1F
100
AcDbEntity
  8
D-STR-DIM
100
AcDbText
 10
5481.920592247385
 20
983.669329214288
 30
0.0
 40
70.0
  1
150
 50
90.0
100
AcDbText
  0
LINE
  5
276B2
330
1F
100
AcDbEntity
  8
D-STR-DIM
  6
Continuous
100
AcDbLine
 10
5497.920592179736
 20
995.5289291641584
 30
0.0
 11
5497.920592179736
 21
1070.528928847138
 31
0.0
  0
CIRCLE
  5
276B3
330
1F
100
AcDbEntity
  8
D-STR-DIM
  6
Continuous
100
AcDbCircle
 10
5497.920592179736
 20
995.5289291641584
 30
0.0
 40
5.999997974638371
  0
CIRCLE
  5
276B4
330
1F
100
AcDbEntity
  8
D-STR-DIM
  6
Continuous
100
AcDbCircle
 10
5497.920592179736
 20
1145.529128530115
 30
0.0
 40
5.999997974638371
  0
LINE
  5
276B5
330
1F
100
AcDbEntity
  8
D-STR-DIM
  6
Continuous
100
AcDbLine
 10
5497.920592179736
 20
1145.529128530115
 30
0.0
 11
5497.920592179736
 21
1070.528928847138
 31
0.0
  0
LINE
  5
276B6
330
1F
100
AcDbEntity
  8
D-STR-DIM
  6
Continuous
100
AcDbLine
 10
5497.920592179736
 20
1745.528925993952
 30
0.0
 11
5497.920592179736
 21
2045.529324725871
 31
0.0
  0
TEXT
  5
276B7
330
1F
100
AcDbEntity
  8
D-STR-DIM
100
AcDbText
 10
5481.920592247385
 20
1358.668727629188
 30
0.0
 40
70.0
  1
600
 50
90.0
100
AcDbText
  0
LINE
  5
276B8
330
1F
100
AcDbEntity
  8
D-STR-DIM
  6
Continuous
100
AcDbLine
 10
5497.920592179736
 20
1745.528925993952
 30
0.0
 11
5497.920592179736
 21
1445.528927262035
 31
0.0
  0
CIRCLE
  5
276B9
330
1F
100
AcDbEntity
  8
D-STR-DIM
  6
Continuous
100
AcDbCircle
 10
5497.920592179736
 20
1745.528925993952
 30
0.0
 40
5.999997974638371
  0
TEXT
  5
276BA
330
1F
100
AcDbEntity
  8
D-STR-DIM
100
AcDbText
 10
5481.920592247385
 20
1958.669125093024
 30
0.0
 40
70.0
  1
600
 50
90.0
100
AcDbText
  0
LINE
  5
276BC
330
1F
100
AcDbEntity
  8
D-STR
  6
Continuous
100
AcDbLine
 10
7537.920383556786
 20
995.5289291641584
 30
0.0
 11
5897.920390488966
 21
995.5289291641584
 31
0.0
  0
LINE
  5
276BF
330
1F
100
AcDbEntity
  8
D-STR-DIM
  6
Continuous
100
AcDbLine
 10
7117.920425332115
 20
595.5289308549345
 30
0.0
 11
6917.920486177449
 21
595.5289308549345
 31
0.0
  0
LINE
  5
276C0
330
1F
100
AcDbEntity
  8
D-STR
  6
Continuous
100
AcDbLine
 10
6217.920389136347
 20
1595.529126627993
 30
0.0
 11
6217.920389136347
 21
1145.529128530115
 31
0.0
  0
LINE
  5
276C1
330
1F
100
AcDbEntity
  8
D-STR
  6
Continuous
100
AcDbLine
 10
6117.920389559039
 20
1635.528926458917
 30
0.0
 11
6117.920389559039
 21
1105.528928699195
 31
0.0
  0
LINE
  5
276C2
330
1F
100
AcDbEntity
  8
D-STR-STR2
  6
Continuous
100
AcDbLine
 10
6367.9205885023
 20
1095.528728741465
 30
0.0
 11
6467.920588079607
 21
1095.528728741465
 31
0.0
  0
LINE
  5
276C4
330
1F
100
AcDbEntity
  8
D-STR-DIM
  6
Continuous
100
AcDbLine
 10
6317.920588713649
 20
595.5289308549345
 30
0.0
 11
6517.92058786826
 21
595.5289308549345
 31
0.0
  0
TEXT
  5
276C5
330
1F
100
AcDbEntity
  8
D-STR-DIM
100
AcDbText
 10
6431.0603882354
 20
611.5291307873012
 30
0.0
 40
70.0
  1
400
100
AcDbText
  0
LINE
  5
276C6
330
1F
100
AcDbEntity
  8
D-STR-DIM
  6
Continuous
100
AcDbLine
 10
6317.920588713649
 20
975.5289291641584
 30
0.0
 11
6317.920588713649
 21
565.5289309817417
 31
0.0
  0
LINE
  5
276C7
330
1F
100
AcDbEntity
  8
D-STR-DIM
  6
Continuous
100
AcDbLine
 10
5897.920390488966
 20
975.5289291641584
 30
0.0
 11
5897.920390488966
 21
565.5289309817417
 31
0.0
  0
LINE
  5
276C8
330
1F
100
AcDbEntity
  8
D-STR-DIM
  6
Continuous
100
AcDbLine
 10
6317.920588713649
 20
595.5289308549345
 30
0.0
 11
6107.920589601304
 21
595.5289308549345
 31
0.0
  0
TEXT
  5
276C9
330
1F
100
AcDbEntity
  8
D-STR-DIM
100
AcDbText
 10
6031.060589926171
 20
611.5291307873012
 30
0.0
 40
70.0
  1
420
100
AcDbText
  0
LINE
  5
276CA
330
1F
100
AcDbEntity
  8
D-STR-DIM
  6
Continuous
100
AcDbLine
 10
5897.920390488966
 20
595.5289308549345
 30
0.0
 11
6107.920589601304
 21
595.5289308549345
 31
0.0
  0
CIRCLE
  5
276CB
330
1F
100
AcDbEntity
  8
D-STR-DIM
  6
Continuous
100
AcDbCircle
 10
5897.920390488966
 20
595.5289308549345
 30
0.0
 40
5.999997974638371
  0
CIRCLE
  5
276CC
330
1F
100
AcDbEntity
  8
D-STR-DIM
  6
Continuous
100
AcDbCircle
 10
6317.920588713649
 20
595.5289308549345
 30
0.0
 40
5.999997974638371
  0
LINE
  5
276CD
330
1F
100
AcDbEntity
  8
D-STR
  6
Continuous
100
AcDbLine
 10
6217.920389136347
 20
1145.529128530115
 30
0.0
 11
6092.920589664707
 21
1095.529328741462
 31
0.0
  0
LINE
  5
276CE
330
1F
100
AcDbEntity
  8
D-STR
  6
Continuous
100
AcDbLine
 10
6092.920589664707
 20
1095.528728741465
 30
0.0
 11
6092.920589664707
 21
995.5289291641584
 31
0.0
  0
LINE
  5
276CF
330
1F
100
AcDbEntity
  8
D-STR-STR2
  6
Continuous
100
AcDbLine
 10
6367.9205885023
 20
995.5289291641584
 30
0.0
 11
6367.9205885023
 21
1095.528728741465
 31
0.0
  0
LINE
  5
276D0
330
1F
100
AcDbEntity
  8
D-BMK
  6
CENTER2
100
AcDbLine
 10
6417.920588290951
 20
965.5291292909661
 30
0.0
 11
6417.920588290951
 21
1125.528928614656
 31
0.0
  0
LINE
  5
276D4
330
1F
100
AcDbEntity
  8
D-STR-DIM
  6
Continuous
100
AcDbLine
 10
6717.920427022891
 20
975.5289291641584
 30
0.0
 11
6717.920427022891
 21
565.5289309817417
 31
0.0
  0
LINE
  5
276D5
330
1F
100
AcDbEntity
  8
D-STR-DIM
  6
Continuous
100
AcDbLine
 10
6717.920427022891
 20
595.5289308549345
 30
0.0
 11
6917.920486177449
 21
595.5289308549345
 31
0.0
  0
LINE
  5
276D6
330
1F
100
AcDbEntity
  8
D-STR-DIM
  6
Continuous
100
AcDbLine
 10
6717.920427022891
 20
595.5289308549345
 30
0.0
 11
6517.92058786826
 21
595.5289308549345
 31
0.0
  0
CIRCLE
  5
276D7
330
1F
100
AcDbEntity
  8
D-STR-DIM
  6
Continuous
100
AcDbCircle
 10
6717.920427022891
 20
595.5289308549345
 30
0.0
 40
5.999997974638371
  0
TEXT
  5
276D8
330
1F
100
AcDbEntity
  8
D-STR-DIM
100
AcDbText
 10
6831.060466544652
 20
611.5291307873012
 30
0.0
 40
70.0
  1
400
100
AcDbText
  0
LINE
  5
276D9
330
1F
100
AcDbEntity
  8
D-STR-STR2
  6
Continuous
100
AcDbLine
 10
6467.920588079607
 20
1095.528728741465
 30
0.0
 11
6467.920588079607
 21
995.5289291641584
 31
0.0
  0
LINE
  5
276DA
330
1F
100
AcDbEntity
  8
D-STR-STR2
  6
Continuous
100
AcDbLine
 10
7067.92042554346
 20
1095.528728741465
 30
0.0
 11
7067.92042554346
 21
995.5289291641584
 31
0.0
  0
LINE
  5
276DB
330
1F
100
AcDbEntity
  8
D-STR-STR2
  6
Continuous
100
AcDbLine
 10
6967.920465966097
 20
995.5289291641584
 30
0.0
 11
6967.920465966097
 21
1095.528728741465
 31
0.0
  0
LINE
  5
276DC
330
1F
100
AcDbEntity
  8
D-BMK
  6
CENTER2
100
AcDbLine
 10
7017.920445754743
 20
965.5291292909661
 30
0.0
 11
7017.920445754743
 21
1125.528928614656
 31
0.0
  0
LINE
  5
276DE
330
1F
100
AcDbEntity
  8
D-STR-STR2
  6
Continuous
100
AcDbLine
 10
6967.920465966097
 20
1095.528728741465
 30
0.0
 11
7067.92042554346
 21
1095.528728741465
 31
0.0
  0
LINE
  5
276DF
330
1F
100
AcDbEntity
  8
D-STR
  6
Continuous
100
AcDbLine
 10
6092.920589664707
 20
1845.528725571261
 30
0.0
 11
6092.920589664707
 21
1645.528926416648
 31
0.0
  0
LINE
  5
276E0
330
1F
100
AcDbEntity
  8
D-STR
  6
Continuous
100
AcDbLine
 10
6217.920389136347
 20
1595.529126627993
 30
0.0
 11
6092.920589664707
 21
1645.528926416648
 31
0.0
  0
LINE
  5
276E1
330
1F
100
AcDbEntity
  8
D-STR
  6
Continuous
100
AcDbLine
 10
6217.920389136347
 20
1895.529125359912
 30
0.0
 11
6092.920589664707
 21
1845.528725571261
 31
0.0
  0
LINE
  5
276E5
330
1F
100
AcDbEntity
  8
D-BMK
  6
CENTER2
100
AcDbLine
 10
6917.920486177449
 20
2045.529324725871
 30
0.0
 11
6517.92058786826
 21
2045.529324725871
 31
0.0
  0
CIRCLE
  5
276E6
330
1F
100
AcDbEntity
  8
D-STR-STR2
  6
Continuous
100
AcDbCircle
 10
6717.920427022891
 20
2045.529324725871
 30
0.0
 40
149.999995365959
  0
CIRCLE
  5
276E7
330
1F
100
AcDbEntity
  8
D-STR-STR2
  6
Continuous
100
AcDbCircle
 10
6717.920427022891
 20
2045.529324725871
 30
0.0
 40
169.9999952814203
  0
CIRCLE
  5
276E8
330
1F
100
AcDbEntity
  8
D-STR-STR2
  6
Continuous
100
AcDbCircle
 10
6717.920427022891
 20
2045.529324725871
 30
0.0
 40
37.49999784148978
  0
LINE
  5
276E9
330
1F
100
AcDbEntity
  8
D-STR-HTXT
  6
Continuous
100
AcDbLine
 10
7317.92096448669
 20
1945.529325148564
 30
0.0
 11
7687.91122292274
 21
595.5289308549345
 31
0.0
  0
LINE
  5
276EA
330
1F
100
AcDbEntity
  8
D-STR
  6
Continuous
100
AcDbLine
 10
7217.920384909405
 20
1595.529126627993
 30
0.0
 11
7217.920384909405
 21
1145.529128530115
 31
0.0
  0
LINE
  5
276EB
330
1F
100
AcDbEntity
  8
D-STR
  6
Continuous
100
AcDbLine
 10
7317.920484486673
 20
1635.528926458917
 30
0.0
 11
7317.920484486673
 21
1105.528928699195
 31
0.0
  0
LINE
  5
276EC
330
1F
100
AcDbEntity
  8
D-STR-DIM
  6
Continuous
100
AcDbLine
 10
8237.920400597934
 20
995.5289291641584
 30
0.0
 11
8237.920400597934
 21
1745.528925993952
 31
0.0
  0
LINE
  5
276ED
330
1F
100
AcDbEntity
  8
D-STR-DIM
  6
Continuous
100
AcDbLine
 10
7937.920441865957
 20
995.5289291641584
 30
0.0
 11
7937.920441865957
 21
1520.529126945013
 31
0.0
  0
TEXT
  5
276EE
330
1F
100
AcDbEntity
  8
D-STR-HTXT
100
AcDbText
 10
7110.530383754213
 20
2711.528719123675
 30
0.0
 40
70.0
  1
　連結金具
100
AcDbText
  0
LINE
  5
276EF
330
1F
100
AcDbEntity
  8
D-STR-DIM
  6
Continuous
100
AcDbLine
 10
7537.920383556786
 20
975.5289291641584
 30
0.0
 11
7537.920383556786
 21
565.5289309817417
 31
0.0
  0
LINE
  5
276F0
330
1F
100
AcDbEntity
  8
D-STR-DIM
  6
Continuous
100
AcDbLine
 10
7117.920425332115
 20
975.5289291641584
 30
0.0
 11
7117.920425332115
 21
565.5289309817417
 31
0.0
  0
LINE
  5
276F1
330
1F
100
AcDbEntity
  8
D-STR-HTXT
  6
Continuous
100
AcDbLine
 10
7517.613731773902
 20
2695.528519191306
 30
0.0
 11
7133.390443657606
 21
2695.528519191306
 31
0.0
  0
LINE
  5
276F2
330
1F
100
AcDbEntity
  8
D-STR-DIM
  6
Continuous
100
AcDbLine
 10
7537.920383556786
 20
595.5289308549345
 30
0.0
 11
7327.920404444448
 21
595.5289308549345
 31
0.0
  0
LINE
  5
276F3
330
1F
100
AcDbEntity
  8
D-STR-DIM
  6
Continuous
100
AcDbLine
 10
7117.920425332115
 20
595.5289308549345
 30
0.0
 11
7327.920404444448
 21
595.5289308549345
 31
0.0
  0
CIRCLE
  5
276F4
330
1F
100
AcDbEntity
  8
D-STR-DIM
  6
Continuous
100
AcDbCircle
 10
7117.920425332115
 20
595.5289308549345
 30
0.0
 40
5.999997974638371
  0
TEXT
  5
276F5
330
1F
100
AcDbEntity
  8
D-STR-DIM
100
AcDbText
 10
7231.060464853875
 20
611.5291307873012
 30
0.0
 40
70.0
  1
420
100
AcDbText
  0
CIRCLE
  5
276F6
330
1F
100
AcDbEntity
  8
D-STR-DIM
  6
Continuous
100
AcDbCircle
 10
7537.920383556786
 20
595.5289308549345
 30
0.0
 40
5.999997974638371
  0
LINE
  5
276F7
330
1F
100
AcDbEntity
  8
D-STR
  6
Continuous
100
AcDbLine
 10
7342.920464380994
 20
1095.528728741465
 30
0.0
 11
7342.920464380994
 21
995.5289291641584
 31
0.0
  0
LINE
  5
276F8
330
1F
100
AcDbEntity
  8
D-STR
  6
Continuous
100
AcDbLine
 10
7217.919884909385
 20
1145.529128530115
 30
0.0
 11
7342.919844381005
 21
1095.529328741462
 31
0.0
  0
TEXT
  5
276FB
330
1F
100
AcDbEntity
  8
D-STR-HTXT
100
AcDbText
 10
7889.051242072554
 20
611.5291307873012
 30
0.0
 40
70.0
  1
引込金具
100
AcDbText
  0
CIRCLE
  5
276FC
330
1F
100
AcDbEntity
  8
D-STR-DIM
  6
Continuous
100
AcDbCircle
 10
7937.920441865957
 20
995.5289291641584
 30
0.0
 40
5.999997974638371
  0
CIRCLE
  5
276FD
330
1F
100
AcDbEntity
  8
D-STR-DIM
  6
Continuous
100
AcDbCircle
 10
8237.920400597934
 20
995.5289291641584
 30
0.0
 40
5.999997974638371
  0
LINE
  5
276FE
330
1F
100
AcDbEntity
  8
D-STR-DIM
  6
Continuous
100
AcDbLine
 10
7567.92040342991
 20
1995.528924937218
 30
0.0
 11
7907.92042199276
 21
1995.528924937218
 31
0.0
  0
LINE
  5
276FF
330
1F
100
AcDbEntity
  8
D-STR-DIM
  6
Continuous
100
AcDbLine
 10
7557.920383556787
 20
2045.529324725871
 30
0.0
 11
7967.920381739201
 21
2045.529324725871
 31
0.0
  0
LINE
  5
27700
330
1F
100
AcDbEntity
  8
D-STR
  6
Continuous
100
AcDbLine
 10
7342.920464380994
 20
1845.528725571261
 30
0.0
 11
7342.920464380994
 21
1645.528926416648
 31
0.0
  0
LINE
  5
27701
330
1F
100
AcDbEntity
  8
D-STR
  6
Continuous
100
AcDbLine
 10
7217.919884909385
 20
1595.529126627993
 30
0.0
 11
7342.920464380994
 21
1645.529326416647
 31
0.0
  0
LINE
  5
27702
330
1F
100
AcDbEntity
  8
D-STR-STR2
  6
Continuous
100
AcDbLine
 10
7317.920484486673
 20
2005.529124894947
 30
0.0
 11
7467.920423852611
 21
2005.529124894947
 31
0.0
  0
LINE
  5
27703
330
1F
100
AcDbEntity
  8
D-STR-STR2
  6
Continuous
100
AcDbLine
 10
7317.920484486673
 20
1985.528924979488
 30
0.0
 11
7467.920423852611
 21
1985.528924979488
 31
0.0
  0
LINE
  5
27704
330
1F
100
AcDbEntity
  8
D-STR
  6
Continuous
100
AcDbLine
 10
7297.92038457125
 20
2012.473524865596
 30
0.0
 11
7297.92038457125
 21
1978.584525008842
 31
0.0
  0
ARC
  5
27705
330
1F
100
AcDbEntity
  8
D-STR
  6
Continuous
100
AcDbCircle
 10
7257.920444740277
 20
1995.528924937218
 30
0.0
 40
29.99999787319182
100
AcDbArc
 50
83.97441100002668
 51
276.0255499999233
  0
LINE
  5
27706
330
1F
100
AcDbEntity
  8
D-STR
  6
Continuous
100
AcDbLine
 10
7307.920424528922
 20
2045.529324725871
 30
0.0
 11
7307.920424528922
 21
1945.529325148564
 31
0.0
  0
ARC
  5
27707
330
1F
100
AcDbEntity
  8
D-STR
  6
Continuous
100
AcDbCircle
 10
7257.920444740277
 20
1995.528924937218
 30
0.0
 40
49.99999778865302
100
AcDbArc
 50
83.97441100002668
 51
276.0255499999233
  0
LINE
  5
27708
330
1F
100
AcDbEntity
  8
D-STR
  6
Continuous
100
AcDbLine
 10
7217.920384909405
 20
1895.529125359912
 30
0.0
 11
7342.920464380994
 21
1845.528725571261
 31
0.0
  0
LINE
  5
27709
330
1F
100
AcDbEntity
  8
D-STR
  6
Continuous
100
AcDbLine
 10
7217.920384909405
 20
1965.529008397469
 30
0.0
 11
7217.920384909405
 21
1895.529125359912
 31
0.0
  0
LINE
  5
2770A
330
1F
100
AcDbEntity
  8
D-STR
  6
Continuous
100
AcDbLine
 10
7317.920484486673
 20
1945.529325148564
 30
0.0
 11
7307.920424528922
 21
1945.529325148564
 31
0.0
  0
LINE
  5
2770B
330
1F
100
AcDbEntity
  8
D-STR
  6
Continuous
100
AcDbLine
 10
7307.92104452891
 20
1950.529525127429
 30
0.0
 11
7263.169444718129
 21
1945.805725147397
 31
0.0
  0
LINE
  5
2770C
330
1F
100
AcDbEntity
  8
D-STR
  6
Continuous
100
AcDbLine
 10
7288.970244609071
 20
1968.640325050875
 30
0.0
 11
7261.069764726977
 21
1965.694925063324
 31
0.0
  0
LINE
  5
2770D
330
1F
100
AcDbEntity
  8
D-STR-HTXT
  6
Continuous
100
AcDbLine
 10
7335.295444413245
 20
1908.816125303749
 30
0.0
 11
7317.920484486673
 21
1945.529325148564
 31
0.0
  0
ARC
  5
2770E
330
1F
100
AcDbEntity
  8
D-STR
  6
Continuous
100
AcDbCircle
 10
7287.920464613475
 20
1978.584525008842
 30
0.0
 40
9.999997957730611
100
AcDbArc
 50
276.0255700000477
 51
0.0
  0
LINE
  5
2770F
330
1F
100
AcDbEntity
  8
D-STR
  6
Continuous
100
AcDbLine
 10
7307.920424528922
 20
2045.529324725871
 30
0.0
 11
7317.920484486673
 21
2045.529324725871
 31
0.0
  0
LINE
  5
27710
330
1F
100
AcDbEntity
  8
D-STR
  6
Continuous
100
AcDbLine
 10
7307.919804528935
 20
2040.528924747007
 30
0.0
 11
7263.168824718142
 21
2045.252724727039
 31
0.0
  0
LINE
  5
27711
330
1F
100
AcDbEntity
  8
D-STR
  6
Continuous
100
AcDbLine
 10
7288.969624609079
 20
2022.418124823558
 30
0.0
 11
7261.069264726953
 21
2025.363124811113
 31
0.0
  0
ARC
  5
27712
330
1F
100
AcDbEntity
  8
D-STR
  6
Continuous
100
AcDbCircle
 10
7287.920464613475
 20
2012.473524865596
 30
0.0
 40
9.999997957730611
100
AcDbArc
 50
0.0
 51
83.97441100002668
  0
LINE
  5
27713
330
1F
100
AcDbEntity
  8
D-STR-STR2
  6
Continuous
100
AcDbLine
 10
7467.920423852611
 20
2005.529124894947
 30
0.0
 11
7467.920423852611
 21
1985.528924979488
 31
0.0
  0
TEXT
  5
27714
330
1F
100
AcDbEntity
  8
D-STR-DIM
100
AcDbText
 10
8221.920400665506
 20
1626.668926496366
 30
0.0
 40
70.0
  1
1500
 50
90.0
100
AcDbText
  0
LINE
  5
27715
330
1F
100
AcDbEntity
  8
D-STR-DIM
  6
Continuous
100
AcDbLine
 10
7937.920441865957
 20
2045.529324725871
 30
0.0
 11
7937.920441865957
 21
1520.529126945013
 31
0.0
  0
TEXT
  5
27716
330
1F
100
AcDbEntity
  8
D-STR-DIM
100
AcDbText
 10
7921.920381933654
 20
1401.669127447429
 30
0.0
 40
70.0
  1
1050
 50
90.0
100
AcDbText
  0
LINE
  5
27717
330
1F
100
AcDbEntity
  8
D-STR-DIM
  6
Continuous
100
AcDbLine
 10
7967.920381739201
 20
1995.528924937218
 30
0.0
 11
8207.920420724677
 21
1995.528924937218
 31
0.0
  0
CIRCLE
  5
27718
330
1F
100
AcDbEntity
  8
D-STR-DIM
  6
Continuous
100
AcDbCircle
 10
7937.920441865957
 20
2045.529324725871
 30
0.0
 40
5.999997974638371
  0
LEADER
  5
27719
330
1F
100
AcDbEntity
  8
D-STR-HTXT
100
AcDbLeader
  3
20
 73
     0
 74
     0
 40
70.00000000000001
 41
219.3333333333334
 76
     3
 10
5985.603572893858
 20
2495.528922823749
 30
0.0
 10
5835.603572893859
 20
2755.33654395908
 30
0.0
 10
5781.201069974567
 20
2755.33654395908
 30
0.0
211
-1.0
221
0.0
231
0.0
210
0.0
220
0.0
230
-1.0
213
-34.40250291929169
223
0.0
233
0.0
1001
ACAD
1000
DSTYLE
1002
{
1070
    41
1040
30.0
1002
}
  0
MTEXT
  5
2771A
330
1F
100
AcDbEntity
  8
D-STR-HTXT
100
AcDbMText
 10
5561.462862977362
 20
2775.33654395908
 30
0.0
 40
70.0
 41
0.0
 71
     7
 72
     1
  1
\A1;目地側
 73
     1
 44
1.0
1001
ACAD
1000
MTEXTBEGIN
1070
    73
1070
     1
1070
    44
1040
1.0
1070
    74
1070
     0
1000
MTEXTEND
  0
LINE
  5
2771B
330
1F
100
AcDbEntity
  8
D-STR-DIM
  6
Continuous
100
AcDbLine
 10
5877.920390488966
 20
2345.528723457792
 30
0.0
 11
5467.920592306546
 21
2345.528723457792
 31
0.0
  0
LINE
  5
2771C
330
1F
100
AcDbEntity
  8
D-STR-DIM
  6
Continuous
100
AcDbLine
 10
5877.920390488966
 20
2495.528922823749
 30
0.0
 11
5467.920592306546
 21
2495.528922823749
 31
0.0
  0
LINE
  5
2771D
330
1F
100
AcDbEntity
  8
D-STR-DIM
  6
Continuous
100
AcDbLine
 10
5877.920390488966
 20
5795.528708452155
 30
0.0
 11
5467.920592306546
 21
5795.528708452155
 31
0.0
  0
LINE
  5
2771E
330
1F
100
AcDbEntity
  8
D-STR-DIM
  6
Continuous
100
AcDbLine
 10
5877.920390488966
 20
4595.52911352448
 30
0.0
 11
5467.920592306546
 21
4595.52911352448
 31
0.0
  0
LINE
  5
2771F
330
1F
100
AcDbEntity
  8
D-STR-DIM
  6
Continuous
100
AcDbLine
 10
5877.920390488966
 20
4745.529312890438
 30
0.0
 11
5467.920592306546
 21
4745.529312890438
 31
0.0
  0
LINE
  5
27720
330
1F
100
AcDbEntity
  8
D-STR-DIM
  6
Continuous
100
AcDbLine
 10
5867.92059061577
 20
4395.52911436987
 30
0.0
 11
3927.920398816037
 21
4395.52911436987
 31
0.0
  0
LINE
  5
27721
330
1F
100
AcDbEntity
  8
D-STR-DIM
  6
Continuous
100
AcDbLine
 10
3212.920401838303
 20
4375.529114369871
 30
0.0
 11
3212.920401838303
 21
3965.528716187455
 31
0.0
  0
LINE
  5
27722
330
1F
100
AcDbEntity
  8
D-STR-DIM
  6
Continuous
100
AcDbLine
 10
3832.920799217588
 20
4375.529114369871
 30
0.0
 11
3832.920799217588
 21
3965.528716187455
 31
0.0
  0
LINE
  5
27723
330
1F
100
AcDbEntity
  8
D-STR-DIM
  6
Continuous
100
AcDbLine
 10
3897.920798942836
 20
4375.529114369871
 30
0.0
 11
3897.920798942836
 21
3665.529317455534
 31
0.0
  0
CIRCLE
  5
27724
330
1F
100
AcDbEntity
  8
D-STR-DIM
  6
Continuous
100
AcDbCircle
 10
3897.920798942836
 20
3695.528917328728
 30
0.0
 40
5.999997974638371
  0
TEXT
  5
27725
330
1F
100
AcDbEntity
  8
D-STR-DIM
100
AcDbText
 10
3843.060599174685
 20
3899.209116467784
 30
0.0
 40
70.0
  1
65
100
AcDbText
  0
TEXT
  5
27726
330
1F
100
AcDbEntity
  8
D-STR-DIM
100
AcDbText
 10
5481.920592247385
 20
2333.66912350792
 30
0.0
 40
70.0
  1
150
 50
90.0
100
AcDbText
  0
LINE
  5
27727
330
1F
100
AcDbEntity
  8
D-STR-DIM
  6
Continuous
100
AcDbLine
 10
5497.920592179736
 20
2495.528922823749
 30
0.0
 11
5497.920592179736
 21
2420.528723140771
 31
0.0
  0
LINE
  5
27728
330
1F
100
AcDbEntity
  8
D-STR-DIM
  6
Continuous
100
AcDbLine
 10
5497.920592179736
 20
2345.528723457792
 30
0.0
 11
5497.920592179736
 21
2420.528723140771
 31
0.0
  0
CIRCLE
  5
27729
330
1F
100
AcDbEntity
  8
D-STR-DIM
  6
Continuous
100
AcDbCircle
 10
5497.920592179736
 20
2345.528723457792
 30
0.0
 40
5.999997974638371
  0
CIRCLE
  5
2772A
330
1F
100
AcDbEntity
  8
D-STR-DIM
  6
Continuous
100
AcDbCircle
 10
5497.920592179736
 20
2495.528922823749
 30
0.0
 40
5.999997974638371
  0
TEXT
  5
2772B
330
1F
100
AcDbEntity
  8
D-TTL-TXT
100
AcDbText
 10
5155.559073286503
 20
2960.985250406228
 30
0.0
 40
140.0
  1
 底　版　
100
AcDbText
  0
LINE
  5
2772C
330
1F
100
AcDbEntity
  8
D-STR-DIM
  6
Continuous
100
AcDbLine
 10
4297.92079725206
 20
4395.52911436987
 30
0.0
 11
4297.92079725206
 21
5058.02931156952
 31
0.0
  0
TEXT
  5
2772D
330
1F
100
AcDbEntity
  8
D-STR-DIM
100
AcDbText
 10
3198.060801901058
 20
4899.208912240847
 30
0.0
 40
70.0
  1
10
100
AcDbText
  0
LINE
  5
2772E
330
1F
100
AcDbEntity
  8
D-STR
  6
Continuous
100
AcDbLine
 10
3247.920801690347
 20
5835.528908283075
 30
0.0
 11
3247.920801690347
 21
4605.52871348221
 31
0.0
  0
LINE
  5
2772F
330
1F
100
AcDbEntity
  8
D-BMK
  6
CENTER2
100
AcDbLine
 10
3872.920399048518
 20
4745.529312890438
 30
0.0
 11
3792.920599386671
 21
4745.529312890438
 31
0.0
  0
LINE
  5
27730
330
1F
100
AcDbEntity
  8
D-STR
  6
Continuous
100
AcDbLine
 10
3897.920798942836
 20
4595.52911352448
 30
0.0
 11
3787.920799407799
 21
4595.52911352448
 31
0.0
  0
LINE
  5
27731
330
1F
100
AcDbEntity
  8
D-STR
  6
Continuous
100
AcDbLine
 10
3897.920798942836
 20
4605.52871348221
 30
0.0
 11
3797.92039936554
 21
4605.52871348221
 31
0.0
  0
LINE
  5
27732
330
1F
100
AcDbEntity
  8
D-STR-DIM
  6
Continuous
100
AcDbLine
 10
3832.920799217588
 20
3995.529316060644
 30
0.0
 11
3522.920800527936
 21
3995.529316060644
 31
0.0
  0
TEXT
  5
27733
330
1F
100
AcDbEntity
  8
D-STR-DIM
100
AcDbText
 10
3436.060800895074
 20
4011.528915993014
 30
0.0
 40
70.0
  1
620
100
AcDbText
  0
LINE
  5
27734
330
1F
100
AcDbEntity
  8
D-STR-DIM
  6
Continuous
100
AcDbLine
 10
3212.920401838303
 20
3995.529316060644
 30
0.0
 11
3522.920800527936
 21
3995.529316060644
 31
0.0
  0
CIRCLE
  5
27735
330
1F
100
AcDbEntity
  8
D-STR-DIM
  6
Continuous
100
AcDbCircle
 10
3212.920401838303
 20
3995.529316060644
 30
0.0
 40
5.999997974638371
  0
LINE
  5
27736
330
1F
100
AcDbEntity
  8
D-STR
  6
Continuous
100
AcDbLine
 10
3257.920801648077
 20
4695.528513101788
 30
0.0
 11
3787.920799407799
 21
4695.528513101788
 31
0.0
  0
LINE
  5
27737
330
1F
100
AcDbEntity
  8
D-STR
  6
Continuous
100
AcDbLine
 10
3247.920801690347
 20
4605.52971348221
 30
0.0
 11
3257.920801648077
 21
4595.52911352448
 31
0.0
  0
LINE
  5
27738
330
1F
100
AcDbEntity
  8
D-BMK
  6
CENTER2
100
AcDbLine
 10
3212.920401838303
 20
4785.528512721365
 30
0.0
 11
3212.920401838303
 21
4705.529113059518
 31
0.0
  0
CIRCLE
  5
27739
330
1F
100
AcDbEntity
  8
D-STR-STR2
  6
Continuous
100
AcDbCircle
 10
3212.920401838303
 20
4745.529312890438
 30
0.0
 40
9.999997957730611
  0
LINE
  5
2773A
330
1F
100
AcDbEntity
  8
D-BMK
  6
CENTER2
100
AcDbLine
 10
3252.920601669219
 20
4745.529312890438
 30
0.0
 11
3172.920802007368
 21
4745.529312890438
 31
0.0
  0
LINE
  5
2773B
330
1F
100
AcDbEntity
  8
D-STR
  6
Continuous
100
AcDbLine
 10
3797.92039936554
 20
4605.52971348221
 30
0.0
 11
3787.920799407799
 21
4595.52911352448
 31
0.0
  0
LINE
  5
2773C
330
1F
100
AcDbEntity
  8
D-STR-DIM
  6
Continuous
100
AcDbLine
 10
3832.920799217588
 20
3995.529316060644
 30
0.0
 11
3865.420599080215
 21
3995.529316060644
 31
0.0
  0
CIRCLE
  5
2773D
330
1F
100
AcDbEntity
  8
D-STR-DIM
  6
Continuous
100
AcDbCircle
 10
3832.920799217588
 20
3995.529316060644
 30
0.0
 40
5.999997974638371
  0
LINE
  5
2773E
330
1F
100
AcDbEntity
  8
D-STR-DIM
  6
Continuous
100
AcDbLine
 10
3897.920798942836
 20
3995.529316060644
 30
0.0
 11
3865.420599080215
 21
3995.529316060644
 31
0.0
  0
CIRCLE
  5
2773F
330
1F
100
AcDbEntity
  8
D-STR-DIM
  6
Continuous
100
AcDbCircle
 10
3897.920798942836
 20
3995.529316060644
 30
0.0
 40
5.999997974638371
  0
CIRCLE
  5
27740
330
1F
100
AcDbEntity
  8
D-STR-DIM
  6
Continuous
100
AcDbCircle
 10
4297.92079725206
 20
4395.52911436987
 30
0.0
 40
5.999997974638371
  0
LINE
  5
27741
330
1F
100
AcDbEntity
  8
D-BMK
  6
CENTER2
100
AcDbLine
 10
3832.920799217588
 20
4785.528512721365
 30
0.0
 11
3832.920799217588
 21
4705.529113059518
 31
0.0
  0
CIRCLE
  5
27742
330
1F
100
AcDbEntity
  8
D-STR-STR2
  6
Continuous
100
AcDbCircle
 10
3832.920799217588
 20
4745.529312890438
 30
0.0
 40
9.999997957730611
  0
LINE
  5
27743
330
1F
100
AcDbEntity
  8
D-STR-DIM
  6
Continuous
100
AcDbLine
 10
3797.92039936554
 20
4995.528911833706
 30
0.0
 11
3847.920599154189
 21
4995.528911833706
 31
0.0
  0
LINE
  5
27744
330
1F
100
AcDbEntity
  8
D-STR-DIM
  6
Continuous
100
AcDbLine
 10
3247.920801690347
 20
4995.528911833706
 30
0.0
 11
3252.920601669219
 21
4995.528911833706
 31
0.0
  0
LINE
  5
27745
330
1F
100
AcDbEntity
  8
D-STR-DIM
  6
Continuous
100
AcDbLine
 10
3257.920801648077
 20
4995.528911833706
 30
0.0
 11
3252.920601669219
 21
4995.528911833706
 31
0.0
  0
CIRCLE
  5
27746
330
1F
100
AcDbEntity
  8
D-STR-DIM
  6
Continuous
100
AcDbCircle
 10
3247.920801690347
 20
4995.528911833706
 30
0.0
 40
5.999997974638371
  0
CIRCLE
  5
27747
330
1F
100
AcDbEntity
  8
D-STR-DIM
  6
Continuous
100
AcDbCircle
 10
3257.920801648077
 20
4995.528911833706
 30
0.0
 40
5.999997974638371
  0
TEXT
  5
27748
330
1F
100
AcDbEntity
  8
D-STR-DIM
100
AcDbText
 10
3664.658599928793
 20
5011.528711766078
 30
0.0
 40
70.0
  1
10
100
AcDbText
  0
LINE
  5
27749
330
1F
100
AcDbEntity
  8
D-STR-DIM
  6
Continuous
100
AcDbLine
 10
3797.92039936554
 20
4995.528911833706
 30
0.0
 11
3792.920599386671
 21
4995.528911833706
 31
0.0
  0
LINE
  5
2774A
330
1F
100
AcDbEntity
  8
D-STR-DIM
  6
Continuous
100
AcDbLine
 10
3787.920799407799
 20
4995.528911833706
 30
0.0
 11
3792.920599386671
 21
4995.528911833706
 31
0.0
  0
LINE
  5
2774B
330
1F
100
AcDbEntity
  8
D-STR-DIM
  6
Continuous
100
AcDbLine
 10
3792.920599386671
 20
4995.528911833706
 30
0.0
 11
3664.658599928793
 21
4995.528911833706
 31
0.0
  0
CIRCLE
  5
2774C
330
1F
100
AcDbEntity
  8
D-STR-DIM
  6
Continuous
100
AcDbCircle
 10
3797.92039936554
 20
4995.528911833706
 30
0.0
 40
5.999997974638371
  0
CIRCLE
  5
2774D
330
1F
100
AcDbEntity
  8
D-STR-DIM
  6
Continuous
100
AcDbCircle
 10
3787.920799407799
 20
4995.528911833706
 30
0.0
 40
5.999997974638371
  0
LINE
  5
2774E
330
1F
100
AcDbEntity
  8
D-BMK
  6
CENTER2
100
AcDbLine
 10
3537.920600464538
 20
5720.528708769176
 30
0.0
 11
3457.920800802688
 21
5720.528708769176
 31
0.0
  0
LINE
  5
2774F
330
1F
100
AcDbEntity
  8
D-BMK
  6
CENTER2
100
AcDbLine
 10
3212.920401838303
 20
5835.528908283075
 30
0.0
 11
3212.920401838303
 21
5755.528508621235
 31
0.0
  0
CIRCLE
  5
27750
330
1F
100
AcDbEntity
  8
D-STR-STR2
  6
Continuous
100
AcDbCircle
 10
3212.920401838303
 20
5795.528708452155
 30
0.0
 40
9.999997957730611
  0
LINE
  5
27751
330
1F
100
AcDbEntity
  8
D-BMK
  6
CENTER2
100
AcDbLine
 10
3252.920601669219
 20
5795.528708452155
 30
0.0
 11
3172.920802007368
 21
5795.528708452155
 31
0.0
  0
CIRCLE
  5
27752
330
1F
100
AcDbEntity
  8
D-STR-STR2
  6
Continuous
100
AcDbCircle
 10
3497.920400633623
 20
5720.528708769176
 30
0.0
 40
9.999997957730611
  0
LINE
  5
27753
330
1F
100
AcDbEntity
  8
D-BMK
  6
CENTER2
100
AcDbLine
 10
3497.920400633623
 20
5760.528708600097
 30
0.0
 11
3497.920400633623
 21
5680.528508938252
 31
0.0
  0
LINE
  5
27754
330
1F
100
AcDbEntity
  8
D-STR-DIM
  6
Continuous
100
AcDbLine
 10
4297.92079725206
 20
5720.528708769176
 30
0.0
 11
4297.92079725206
 21
5058.02931156952
 31
0.0
  0
TEXT
  5
27755
330
1F
100
AcDbEntity
  8
D-STR-DIM
100
AcDbText
 10
3841.05099918316
 20
5011.528711766078
 30
0.0
 40
70.0
  1
100
100
AcDbText
  0
LINE
  5
27756
330
1F
100
AcDbEntity
  8
D-STR-DIM
  6
Continuous
100
AcDbLine
 10
3847.920599154189
 20
4995.528911833706
 30
0.0
 11
4014.77019844891
 21
4995.528911833706
 31
0.0
  0
LINE
  5
27757
330
1F
100
AcDbEntity
  8
D-STR-DIM
  6
Continuous
100
AcDbLine
 10
3897.920798942836
 20
4995.528911833706
 30
0.0
 11
3847.920599154189
 21
4995.528911833706
 31
0.0
  0
CIRCLE
  5
27758
330
1F
100
AcDbEntity
  8
D-STR-DIM
  6
Continuous
100
AcDbCircle
 10
3897.920798942836
 20
4995.528911833706
 30
0.0
 40
5.999997974638371
  0
TEXT
  5
27759
330
1F
100
AcDbEntity
  8
D-STR-DIM
100
AcDbText
 10
4281.920597319636
 20
4939.169312071935
 30
0.0
 40
70.0
  1
1325
 50
90.0
100
AcDbText
  0
LINE
  5
2775A
330
1F
100
AcDbEntity
  8
D-STR-DIM
  6
Continuous
100
AcDbLine
 10
3917.920798942836
 20
5720.528708769176
 30
0.0
 11
4327.920397125264
 21
5720.528708769176
 31
0.0
  0
CIRCLE
  5
2775B
330
1F
100
AcDbEntity
  8
D-STR-DIM
  6
Continuous
100
AcDbCircle
 10
4297.92079725206
 20
5720.528708769176
 30
0.0
 40
5.999997974638371
  0
LINE
  5
2775C
330
1F
100
AcDbEntity
  8
D-STR-DIM
  6
Continuous
100
AcDbLine
 10
5497.920592179736
 20
4745.529312890438
 30
0.0
 11
5497.920592179736
 21
5270.529110671297
 31
0.0
  0
LINE
  5
2775D
330
1F
100
AcDbEntity
  8
D-STR-DIM
  6
Continuous
100
AcDbLine
 10
5097.920793870508
 20
4395.52911436987
 30
0.0
 11
5097.920793870508
 21
5545.529109508887
 31
0.0
  0
CIRCLE
  5
2775E
330
1F
100
AcDbEntity
  8
D-STR-DIM
  6
Continuous
100
AcDbCircle
 10
5097.920793870508
 20
4395.52911436987
 30
0.0
 40
5.999997974638371
  0
TEXT
  5
2775F
330
1F
100
AcDbEntity
  8
D-STR-DIM
100
AcDbText
 10
5481.920592247313
 20
4583.668513574612
 30
0.0
 40
70.0
  1
150
 50
90.0
100
AcDbText
  0
LINE
  5
27760
330
1F
100
AcDbEntity
  8
D-STR-DIM
  6
Continuous
100
AcDbLine
 10
5497.920592179736
 20
4745.529312890438
 30
0.0
 11
5497.920592179736
 21
4670.52911320746
 31
0.0
  0
CIRCLE
  5
27761
330
1F
100
AcDbEntity
  8
D-STR-DIM
  6
Continuous
100
AcDbCircle
 10
5497.920592179736
 20
4595.52911352448
 30
0.0
 40
5.999997974638371
  0
LINE
  5
27762
330
1F
100
AcDbEntity
  8
D-STR-DIM
  6
Continuous
100
AcDbLine
 10
5497.920592179736
 20
4595.52911352448
 30
0.0
 11
5497.920592179736
 21
4670.52911320746
 31
0.0
  0
CIRCLE
  5
27763
330
1F
100
AcDbEntity
  8
D-STR-DIM
  6
Continuous
100
AcDbCircle
 10
5497.920592179736
 20
4745.529312890438
 30
0.0
 40
5.999997974638371
  0
TEXT
  5
27764
330
1F
100
AcDbEntity
  8
D-STR-DIM
100
AcDbText
 10
5081.920593938084
 20
5426.669110011302
 30
0.0
 40
70.0
  1
2300
 50
90.0
100
AcDbText
  0
TEXT
  5
27765
330
1F
100
AcDbEntity
  8
D-STR-DIM
100
AcDbText
 10
5481.920592247313
 20
5151.669111173713
 30
0.0
 40
70.0
  1
1050
 50
90.0
100
AcDbText
  0
LINE
  5
27766
330
1F
100
AcDbEntity
  8
D-STR-DIM
  6
Continuous
100
AcDbLine
 10
5497.920592179736
 20
5795.528708452155
 30
0.0
 11
5497.920592179736
 21
5270.529110671297
 31
0.0
  0
CIRCLE
  5
27767
330
1F
100
AcDbEntity
  8
D-STR-DIM
  6
Continuous
100
AcDbCircle
 10
5497.920592179736
 20
5795.528708452155
 30
0.0
 40
5.999997974638371
  0
LINE
  5
27768
330
1F
100
AcDbEntity
  8
D-STR-DIM
  6
Continuous
100
AcDbLine
 10
5897.920390488966
 20
4365.52851449668
 30
0.0
 11
5897.920390488966
 21
2525.529522696937
 31
0.0
  0
LINE
  5
27769
330
1F
100
AcDbEntity
  8
D-STR-DIM
  6
Continuous
100
AcDbLine
 10
7537.920383556786
 20
4365.52851449668
 30
0.0
 11
7537.920383556786
 21
2525.529522696937
 31
0.0
  0
LINE
  5
2776A
330
1F
100
AcDbEntity
  8
D-STR-DIM
  6
Continuous
100
AcDbLine
 10
7537.920383556786
 20
3695.528917328728
 30
0.0
 11
6717.920427022891
 21
3695.528917328728
 31
0.0
  0
LINE
  5
2776B
330
1F
100
AcDbEntity
  8
D-STR-DIM
  6
Continuous
100
AcDbLine
 10
7017.920445754743
 20
3195.529119864892
 30
0.0
 11
7277.920424655803
 21
3195.529119864892
 31
0.0
  0
LINE
  5
2776C
330
1F
100
AcDbEntity
  8
D-STR
  6
Continuous
100
AcDbLine
 10
7537.920383556786
 20
2495.528922823749
 30
0.0
 11
5897.920390488966
 21
2495.528922823749
 31
0.0
  0
LINE
  5
2776D
330
1F
100
AcDbEntity
  8
D-BMK
  6
CENTER2
100
AcDbLine
 10
7157.920485162984
 20
2345.528723457792
 30
0.0
 11
7077.920485501142
 21
2345.528723457792
 31
0.0
  0
LINE
  5
2776E
330
1F
100
AcDbEntity
  8
D-STR-DIM
  6
Continuous
100
AcDbLine
 10
6717.920427022891
 20
2895.528721132974
 30
0.0
 11
7127.920465289786
 21
2895.528721132974
 31
0.0
  0
TEXT
  5
2776F
330
1F
100
AcDbEntity
  8
D-STR-DIM
100
AcDbText
 10
7031.060405699246
 20
2911.52932106534
 30
0.0
 40
70.0
  1
820
100
AcDbText
  0
LINE
  5
27770
330
1F
100
AcDbEntity
  8
D-STR-DIM
  6
Continuous
100
AcDbLine
 10
7017.920445754743
 20
3001.275720685988
 30
0.0
 11
7017.920445754743
 21
3225.528719738084
 31
0.0
  0
LINE
  5
27771
330
1F
100
AcDbEntity
  8
D-STR-DIM
  6
Continuous
100
AcDbLine
 10
6417.920588290951
 20
3001.275720685988
 30
0.0
 11
6417.920588290951
 21
3225.528719738084
 31
0.0
  0
LINE
  5
27772
330
1F
100
AcDbEntity
  8
D-STR-STR2
  6
Continuous
100
AcDbLine
 10
6367.9205885023
 20
2395.529323246441
 30
0.0
 11
6467.920588079607
 21
2395.529323246441
 31
0.0
  0
LINE
  5
27773
330
1F
100
AcDbEntity
  8
D-STR-DIM
  6
Continuous
100
AcDbLine
 10
6717.920427022891
 20
2895.528721132974
 30
0.0
 11
6307.920588755915
 21
2895.528721132974
 31
0.0
  0
LINE
  5
27774
330
1F
100
AcDbEntity
  8
D-STR-DIM
  6
Continuous
100
AcDbLine
 10
6417.920588290951
 20
2865.52912125978
 30
0.0
 11
6417.920588290951
 21
2545.529522696938
 31
0.0
  0
LINE
  5
27775
330
1F
100
AcDbEntity
  8
D-STR
  6
Continuous
100
AcDbLine
 10
6217.920389136347
 20
2345.528723457792
 30
0.0
 11
6092.920589664707
 21
2395.528323246447
 31
0.0
  0
LINE
  5
27776
330
1F
100
AcDbEntity
  8
D-STR
  6
Continuous
100
AcDbLine
 10
6092.920589664707
 20
2495.528922823749
 30
0.0
 11
6092.920589664707
 21
2395.529323246441
 31
0.0
  0
LINE
  5
27777
330
1F
100
AcDbEntity
  8
D-STR-STR2
  6
Continuous
100
AcDbLine
 10
6367.9205885023
 20
2495.528922823749
 30
0.0
 11
6367.9205885023
 21
2395.529323246441
 31
0.0
  0
LINE
  5
27778
330
1F
100
AcDbEntity
  8
D-BMK
  6
CENTER2
100
AcDbLine
 10
6417.920588290951
 20
2525.529522696937
 30
0.0
 11
6417.920588290951
 21
2365.528723373253
 31
0.0
  0
LINE
  5
27779
330
1F
100
AcDbEntity
  8
D-BMK
  6
CENTER2
100
AcDbLine
 10
6357.92058854457
 20
2345.528723457792
 30
0.0
 11
6277.920388882733
 21
2345.528723457792
 31
0.0
  0
LINE
  5
2777A
330
1F
100
AcDbEntity
  8
D-BMK
  6
CENTER2
100
AcDbLine
 10
6317.920588713649
 20
2305.528923626868
 30
0.0
 11
6317.920588713649
 21
2385.528923288712
 31
0.0
  0
CIRCLE
  5
2777B
330
1F
100
AcDbEntity
  8
D-STR-STR2
  6
Continuous
100
AcDbCircle
 10
6317.920588713649
 20
2345.528723457792
 30
0.0
 40
9.999997957730611
  0
LINE
  5
2777C
330
1F
100
AcDbEntity
  8
D-STR-DIM
  6
Continuous
100
AcDbLine
 10
5897.920390488966
 20
2895.528721132974
 30
0.0
 11
6307.920588755915
 21
2895.528721132974
 31
0.0
  0
CIRCLE
  5
2777D
330
1F
100
AcDbEntity
  8
D-STR-DIM
  6
Continuous
100
AcDbCircle
 10
5897.920390488966
 20
2895.528721132974
 30
0.0
 40
5.999997974638371
  0
TEXT
  5
2777E
330
1F
100
AcDbEntity
  8
D-STR-DIM
100
AcDbText
 10
6231.060589080786
 20
2911.52932106534
 30
0.0
 40
70.0
  1
820
100
AcDbText
  0
LINE
  5
2777F
330
1F
100
AcDbEntity
  8
D-STR-DIM
  6
Continuous
100
AcDbLine
 10
7017.920445754743
 20
2865.52912125978
 30
0.0
 11
7017.920445754743
 21
2545.529522696938
 31
0.0
  0
LINE
  5
27780
330
1F
100
AcDbEntity
  8
D-STR-DIM
  6
Continuous
100
AcDbLine
 10
6717.920427022891
 20
2515.528922823749
 30
0.0
 11
6717.920427022891
 21
2925.529321006163
 31
0.0
  0
LINE
  5
27781
330
1F
100
AcDbEntity
  8
D-STR-STR2
  6
Continuous
100
AcDbLine
 10
6467.920588079607
 20
2395.529323246441
 30
0.0
 11
6467.920588079607
 21
2495.528922823749
 31
0.0
  0
LINE
  5
27782
330
1F
100
AcDbEntity
  8
D-STR-STR2
  6
Continuous
100
AcDbLine
 10
7067.92042554346
 20
2395.529323246441
 30
0.0
 11
7067.92042554346
 21
2495.528922823749
 31
0.0
  0
LINE
  5
27783
330
1F
100
AcDbEntity
  8
D-STR-STR2
  6
Continuous
100
AcDbLine
 10
6967.920465966097
 20
2495.528922823749
 30
0.0
 11
6967.920465966097
 21
2395.529323246441
 31
0.0
  0
LINE
  5
27784
330
1F
100
AcDbEntity
  8
D-BMK
  6
CENTER2
100
AcDbLine
 10
7017.920445754743
 20
2525.529522696937
 30
0.0
 11
7017.920445754743
 21
2365.528723373253
 31
0.0
  0
LINE
  5
27785
330
1F
100
AcDbEntity
  8
D-STR-STR2
  6
Continuous
100
AcDbLine
 10
6967.920465966097
 20
2395.529323246441
 30
0.0
 11
7067.92042554346
 21
2395.529323246441
 31
0.0
  0
CIRCLE
  5
27786
330
1F
100
AcDbEntity
  8
D-STR-DIM
  6
Continuous
100
AcDbCircle
 10
6717.920427022891
 20
2895.528721132974
 30
0.0
 40
5.999997974638371
  0
LINE
  5
27787
330
1F
100
AcDbEntity
  8
D-STR-DIM
  6
Continuous
100
AcDbLine
 10
5897.920390488966
 20
3695.528917328728
 30
0.0
 11
6717.920427022891
 21
3695.528917328728
 31
0.0
  0
LINE
  5
27788
330
1F
100
AcDbEntity
  8
D-STR-DIM
  6
Continuous
100
AcDbLine
 10
6417.920588290951
 20
3195.529119864892
 30
0.0
 11
6717.920427022891
 21
3195.529119864892
 31
0.0
  0
LINE
  5
27789
330
1F
100
AcDbEntity
  8
D-STR-DIM
  6
Continuous
100
AcDbLine
 10
5897.920390488966
 20
3195.529119864892
 30
0.0
 11
6157.920589389956
 21
3195.529119864892
 31
0.0
  0
TEXT
  5
2778A
330
1F
100
AcDbEntity
  8
D-STR-DIM
100
AcDbText
 10
6081.060589714823
 20
3211.528719797261
 30
0.0
 40
70.0
  1
520
100
AcDbText
  0
CIRCLE
  5
2778B
330
1F
100
AcDbEntity
  8
D-STR-DIM
  6
Continuous
100
AcDbCircle
 10
5897.920390488966
 20
3195.529119864892
 30
0.0
 40
5.999997974638371
  0
LINE
  5
2778C
330
1F
100
AcDbEntity
  8
D-STR-DIM
  6
Continuous
100
AcDbLine
 10
6417.920588290951
 20
3195.529119864892
 30
0.0
 11
6157.920589389956
 21
3195.529119864892
 31
0.0
  0
CIRCLE
  5
2778D
330
1F
100
AcDbEntity
  8
D-STR-DIM
  6
Continuous
100
AcDbCircle
 10
6417.920588290951
 20
3195.529119864892
 30
0.0
 40
5.999997974638371
  0
CIRCLE
  5
2778E
330
1F
100
AcDbEntity
  8
D-STR-DIM
  6
Continuous
100
AcDbCircle
 10
5897.920390488966
 20
3695.528917328728
 30
0.0
 40
5.999997974638371
  0
LINE
  5
2778F
330
1F
100
AcDbEntity
  8
D-STR-DIM
  6
Continuous
100
AcDbLine
 10
7017.920445754743
 20
3195.529119864892
 30
0.0
 11
6717.920427022891
 21
3195.529119864892
 31
0.0
  0
TEXT
  5
27790
330
1F
100
AcDbEntity
  8
D-STR-DIM
100
AcDbText
 10
6631.060587390006
 20
3211.528719797261
 30
0.0
 40
70.0
  1
600
100
AcDbText
  0
CIRCLE
  5
27791
330
1F
100
AcDbEntity
  8
D-STR-DIM
  6
Continuous
100
AcDbCircle
 10
7017.920445754743
 20
3195.529119864892
 30
0.0
 40
5.999997974638371
  0
TEXT
  5
27792
330
1F
100
AcDbEntity
  8
D-STR-DIM
100
AcDbText
 10
6599.060587525298
 20
3711.528517261097
 30
0.0
 40
70.0
  1
1640
100
AcDbText
  0
LINE
  5
27794
330
1F
100
AcDbEntity
  8
D-STR
  6
Continuous
100
AcDbLine
 10
7342.920464380994
 20
2495.528922823749
 30
0.0
 11
7342.920464380994
 21
2395.529323246441
 31
0.0
  0
LINE
  5
27795
330
1F
100
AcDbEntity
  8
D-STR
  6
Continuous
100
AcDbLine
 10
7217.920384909405
 20
2345.528723457792
 30
0.0
 11
7342.920464380994
 21
2395.529323246441
 31
0.0
  0
LINE
  5
27796
330
1F
100
AcDbEntity
  8
D-BMK
  6
CENTER2
100
AcDbLine
 10
7117.920425332115
 20
2305.528923626868
 30
0.0
 11
7117.920425332115
 21
2385.528923288712
 31
0.0
  0
CIRCLE
  5
27798
330
1F
100
AcDbEntity
  8
D-STR-STR2
  6
Continuous
100
AcDbCircle
 10
7117.920425332115
 20
2345.528723457792
 30
0.0
 40
9.999997957730611
  0
LINE
  5
27799
330
1F
100
AcDbEntity
  8
D-STR-DIM
  6
Continuous
100
AcDbLine
 10
7537.920383556786
 20
2895.528721132974
 30
0.0
 11
7127.920465289786
 21
2895.528721132974
 31
0.0
  0
CIRCLE
  5
2779A
330
1F
100
AcDbEntity
  8
D-STR-DIM
  6
Continuous
100
AcDbCircle
 10
7537.920383556786
 20
2895.528721132974
 30
0.0
 40
5.999997974638371
  0
LINE
  5
2779B
330
1F
100
AcDbEntity
  8
D-STR-DIM
  6
Continuous
100
AcDbLine
 10
7937.920441865957
 20
2495.528922823749
 30
0.0
 11
7937.920441865957
 21
2270.52912377481
 31
0.0
  0
CIRCLE
  5
2779C
330
1F
100
AcDbEntity
  8
D-STR-DIM
  6
Continuous
100
AcDbCircle
 10
7937.920441865957
 20
2495.528922823749
 30
0.0
 40
5.999997974638371
  0
CIRCLE
  5
2779D
330
1F
100
AcDbEntity
  8
D-STR-DIM
  6
Continuous
100
AcDbCircle
 10
8237.920400597934
 20
2495.528922823749
 30
0.0
 40
5.999997974638371
  0
LINE
  5
2779F
330
1F
100
AcDbEntity
  8
D-STR-DIM
  6
Continuous
100
AcDbLine
 10
7537.920383556786
 20
3195.529119864892
 30
0.0
 11
7277.920424655803
 21
3195.529119864892
 31
0.0
  0
TEXT
  5
277A0
330
1F
100
AcDbEntity
  8
D-STR-DIM
100
AcDbText
 10
7181.060485065159
 20
3211.528719797261
 30
0.0
 40
70.0
  1
520
100
AcDbText
  0
CIRCLE
  5
277A1
330
1F
100
AcDbEntity
  8
D-STR-DIM
  6
Continuous
100
AcDbCircle
 10
7537.920383556786
 20
3195.529119864892
 30
0.0
 40
5.999997974638371
  0
CIRCLE
  5
277A2
330
1F
100
AcDbEntity
  8
D-STR-DIM
  6
Continuous
100
AcDbCircle
 10
7537.920383556786
 20
3695.528917328728
 30
0.0
 40
5.999997974638371
  0
LINE
  5
277A3
330
1F
100
AcDbEntity
  8
D-STR
  6
Continuous
100
AcDbLine
 10
6217.920389136347
 20
4595.52911352448
 30
0.0
 11
7217.920384909408
 21
4595.52911352448
 31
0.0
  0
LINE
  5
277A4
330
1F
100
AcDbEntity
  8
D-STR
  6
Continuous
100
AcDbLine
 10
5897.920390488966
 20
4395.52911436987
 30
0.0
 11
7537.920383556786
 21
4395.52911436987
 31
0.0
  0
TEXT
  5
277A5
330
1F
100
AcDbEntity
  8
D-STR-HTXT
100
AcDbText
 10
6392.560588398148
 20
4115.528915553412
 30
0.0
 40
70.0
  1
　ピットバルブ　φ75
100
AcDbText
  0
LINE
  5
277A6
330
1F
100
AcDbEntity
  8
D-STR-HTXT
  6
Continuous
100
AcDbLine
 10
7283.525136964351
 20
4195.529315215256
 30
0.0
 11
6415.420388301526
 21
4195.529315215256
 31
0.0
  0
TEXT
  5
277A7
330
1F
100
AcDbEntity
  8
D-STR-DIM
100
AcDbText
 10
6823.060386578415
 20
4899.208912240847
 30
0.0
 40
70.0
  1
20
100
AcDbText
  0
LINE
  5
277A8
330
1F
100
AcDbEntity
  8
D-STR-DIM
  6
Continuous
100
AcDbLine
 10
6867.920506388803
 20
4615.52911352448
 30
0.0
 11
6867.920506388803
 21
5025.528711706898
 31
0.0
  0
LINE
  5
277A9
330
1F
100
AcDbEntity
  8
D-STR-DIM
  6
Continuous
100
AcDbLine
 10
6887.921086304238
 20
4615.52911352448
 30
0.0
 11
6887.921086304238
 21
5025.528711706898
 31
0.0
  0
TEXT
  5
277AA
330
1F
100
AcDbEntity
  8
D-STR-DIM
100
AcDbText
 10
6503.060387931033
 20
4899.208912240847
 30
0.0
 40
70.0
  1
20
100
AcDbText
  0
LINE
  5
277AB
330
1F
100
AcDbEntity
  8
D-STR-DIM
  6
Continuous
100
AcDbLine
 10
6547.920387741455
 20
4615.52911352448
 30
0.0
 11
6547.920387741455
 21
5025.528711706898
 31
0.0
  0
LINE
  5
277AC
330
1F
100
AcDbEntity
  8
D-STR-DIM
  6
Continuous
100
AcDbLine
 10
6567.92058765691
 20
4615.52911352448
 30
0.0
 11
6567.92058765691
 21
5025.528711706898
 31
0.0
  0
LINE
  5
277AD
330
1F
100
AcDbEntity
  8
D-STR-STR2
  6
Continuous
100
AcDbLine
 10
6367.9205885023
 20
4511.528313879545
 30
0.0
 11
6467.920588079607
 21
4511.528313879545
 31
0.0
  0
LINE
  5
277AE
330
1F
100
AcDbEntity
  8
D-STR-HTXT
  6
Continuous
100
AcDbLine
 10
6415.420388301526
 20
4195.529315215256
 30
0.0
 11
6680.420507181356
 21
4460.529714095115
 31
0.0
  0
LINE
  5
277AF
330
1F
100
AcDbEntity
  8
D-STR
  6
Continuous
100
AcDbLine
 10
6092.921789664673
 20
4595.528113524483
 30
0.0
 11
6217.921589136313
 21
4595.528113524483
 31
0.0
  0
LINE
  5
277B0
330
1F
100
AcDbEntity
  8
D-STR-STR2
  6
Continuous
100
AcDbLine
 10
6012.92039000287
 20
4735.528712932707
 30
0.0
 11
6012.92039000287
 21
4755.528912848171
 31
0.0
  0
LINE
  5
277B1
330
1F
100
AcDbEntity
  8
D-STR-STR2
  6
Continuous
100
AcDbLine
 10
6012.92039000287
 20
4755.528912848171
 30
0.0
 11
6092.920589664707
 21
4755.528912848171
 31
0.0
  0
LINE
  5
277B2
330
1F
100
AcDbEntity
  8
D-STR-STR2
  6
Continuous
100
AcDbLine
 10
6012.92039000287
 20
4735.528712932707
 30
0.0
 11
6092.920589664707
 21
4735.528712932707
 31
0.0
  0
LINE
  5
277B3
330
1F
100
AcDbEntity
  8
D-STR
  6
Continuous
100
AcDbLine
 10
6217.920389136347
 20
4595.52911352448
 30
0.0
 11
6117.921789559001
 21
4695.528513101788
 31
0.0
  0
LINE
  5
277B4
330
1F
100
AcDbEntity
  8
D-STR-STR2
  6
Continuous
100
AcDbLine
 10
6367.9205885023
 20
4595.52911352448
 30
0.0
 11
6367.9205885023
 21
4511.528313879545
 31
0.0
  0
LINE
  5
277B5
330
1F
100
AcDbEntity
  8
D-BMK
  6
CENTER2
100
AcDbLine
 10
6417.920588290951
 20
4625.528713397674
 30
0.0
 11
6417.920588290951
 21
4481.528714006355
 31
0.0
  0
LINE
  5
277B6
330
1F
100
AcDbEntity
  8
D-STR-STR2
  6
Continuous
100
AcDbLine
 10
6755.420466864322
 20
4525.529313820366
 30
0.0
 11
6755.420466864322
 21
4395.52911436987
 31
0.0
  0
LINE
  5
277B7
330
1F
100
AcDbEntity
  8
D-BMK
  6
CENTER2
100
AcDbLine
 10
6717.920427022818
 20
4625.528713397674
 30
0.0
 11
6717.920427022818
 21
4365.52851449668
 31
0.0
  0
LINE
  5
277B8
330
1F
100
AcDbEntity
  8
D-STR-STR2
  6
Continuous
100
AcDbLine
 10
6680.420507181356
 20
4525.529313820366
 30
0.0
 11
6680.420507181356
 21
4395.52911436987
 31
0.0
  0
LINE
  5
277B9
330
1F
100
AcDbEntity
  8
D-STR-HTXT
  6
Continuous
100
AcDbLine
 10
6647.148907321986
 20
4437.231714193596
 30
0.0
 11
6680.420507181356
 21
4460.528714095118
 31
0.0
  0
TEXT
  5
277BA
330
1F
100
AcDbEntity
  8
D-STR-HTXT
100
AcDbText
 10
6552.560587721837
 20
4211.528915147628
 30
0.0
 40
70.0
  1
　排水ピット
100
AcDbText
  0
TEXT
  5
277BB
330
1F
100
AcDbEntity
  8
D-STR-DIM
100
AcDbText
 10
6789.4204067206
 20
4635.733513354538
 30
0.0
 40
70.0
  1
70
 50
90.0
100
AcDbText
  0
LINE
  5
277BC
330
1F
100
AcDbEntity
  8
D-STR-STR2
  6
Continuous
100
AcDbLine
 10
6567.92058765691
 20
4525.529313820366
 30
0.0
 11
6867.920506388803
 21
4525.529313820366
 31
0.0
  0
LINE
  5
277BD
330
1F
100
AcDbEntity
  8
D-STR-STR2
  6
Continuous
100
AcDbLine
 10
6547.921787741415
 20
4595.52911352448
 30
0.0
 11
6567.921587656882
 21
4525.529313820366
 31
0.0
  0
LINE
  5
277BE
330
1F
100
AcDbEntity
  8
D-STR-STR2
  6
Continuous
100
AcDbLine
 10
6467.920588079607
 20
4511.528313879545
 30
0.0
 11
6467.920588079607
 21
4595.52911352448
 31
0.0
  0
LINE
  5
277BF
330
1F
100
AcDbEntity
  8
D-STR-DIM
  6
Continuous
100
AcDbLine
 10
6805.420466652972
 20
4560.529113672422
 30
0.0
 11
6805.420466652972
 21
4745.452912890764
 31
0.0
  0
LINE
  5
277C0
330
1F
100
AcDbEntity
  8
D-STR-STR2
  6
Continuous
100
AcDbLine
 10
6867.920986388817
 20
4525.52831382037
 30
0.0
 11
6887.921086304238
 21
4595.528113524483
 31
0.0
  0
LINE
  5
277C1
330
1F
100
AcDbEntity
  8
D-STR-DIM
  6
Continuous
100
AcDbLine
 10
6805.420466652972
 20
4525.529313820366
 30
0.0
 11
6805.420466652972
 21
4560.529113672422
 31
0.0
  0
LINE
  5
277C2
330
1F
100
AcDbEntity
  8
D-STR-DIM
  6
Continuous
100
AcDbLine
 10
6805.420466652972
 20
4595.52911352448
 30
0.0
 11
6805.420466652972
 21
4560.529113672422
 31
0.0
  0
CIRCLE
  5
277C3
330
1F
100
AcDbEntity
  8
D-STR-DIM
  6
Continuous
100
AcDbCircle
 10
6805.420466652972
 20
4525.529313820366
 30
0.0
 40
5.999997974638371
  0
CIRCLE
  5
277C4
330
1F
100
AcDbEntity
  8
D-STR-DIM
  6
Continuous
100
AcDbCircle
 10
6805.420466652972
 20
4595.52911352448
 30
0.0
 40
5.999997974638371
  0
LINE
  5
277C5
330
1F
100
AcDbEntity
  8
D-STR-STR2
  6
Continuous
100
AcDbLine
 10
7067.920425543388
 20
4511.528313879545
 30
0.0
 11
7067.920425543388
 21
4595.52911352448
 31
0.0
  0
LINE
  5
277C6
330
1F
100
AcDbEntity
  8
D-STR-STR2
  6
Continuous
100
AcDbLine
 10
6967.920465966097
 20
4595.52911352448
 30
0.0
 11
6967.920465966097
 21
4511.528313879545
 31
0.0
  0
LINE
  5
277C7
330
1F
100
AcDbEntity
  8
D-BMK
  6
CENTER2
100
AcDbLine
 10
7017.920445754743
 20
4625.528713397674
 30
0.0
 11
7017.920445754743
 21
4481.528714006355
 31
0.0
  0
LINE
  5
277C8
330
1F
100
AcDbEntity
  8
D-STR-STR2
  6
Continuous
100
AcDbLine
 10
6967.920465966097
 20
4511.528313879545
 30
0.0
 11
7067.920425543388
 21
4511.528313879545
 31
0.0
  0
LINE
  5
277C9
330
1F
100
AcDbEntity
  8
D-STR-DIM
  6
Continuous
100
AcDbLine
 10
6117.920389559039
 20
4995.528911833706
 30
0.0
 11
6105.420589611873
 21
4995.528911833706
 31
0.0
  0
LINE
  5
277CA
330
1F
100
AcDbEntity
  8
D-STR-DIM
  6
Continuous
100
AcDbLine
 10
6105.420589611873
 20
4995.528911833706
 30
0.0
 11
6247.290789012172
 21
4995.528911833706
 31
0.0
  0
LINE
  5
277CB
330
1F
100
AcDbEntity
  8
D-STR-DIM
  6
Continuous
100
AcDbLine
 10
6092.920589664707
 20
4995.528911833706
 30
0.0
 11
6105.420589611873
 21
4995.528911833706
 31
0.0
  0
CIRCLE
  5
277CC
330
1F
100
AcDbEntity
  8
D-STR-DIM
  6
Continuous
100
AcDbCircle
 10
6092.920589664707
 20
4995.528911833706
 30
0.0
 40
5.999997974638371
  0
TEXT
  5
277CD
330
1F
100
AcDbEntity
  8
D-STR-DIM
100
AcDbText
 10
6137.570989475928
 20
5011.528711766078
 30
0.0
 40
70.0
  1
25
100
AcDbText
  0
CIRCLE
  5
277CE
330
1F
100
AcDbEntity
  8
D-STR-DIM
  6
Continuous
100
AcDbCircle
 10
6117.920389559039
 20
4995.528911833706
 30
0.0
 40
5.999997974638371
  0
LINE
  5
277CF
330
1F
100
AcDbEntity
  8
D-STR-STR2
  6
Continuous
100
AcDbLine
 10
5997.920590066268
 20
5710.529108811442
 30
0.0
 11
5897.920390488966
 21
5710.529108811442
 31
0.0
  0
LINE
  5
277D0
330
1F
100
AcDbEntity
  8
D-STR-STR2
  6
Continuous
100
AcDbLine
 10
5997.920590066268
 20
5730.529108726903
 30
0.0
 11
5897.920390488966
 21
5730.529108726903
 31
0.0
  0
LINE
  5
277D1
330
1F
100
AcDbEntity
  8
D-STR-STR2
  6
Continuous
100
AcDbLine
 10
6012.92039000287
 20
5785.529108494422
 30
0.0
 11
6012.92039000287
 21
5805.529308409885
 31
0.0
  0
LINE
  5
277D2
330
1F
100
AcDbEntity
  8
D-STR-STR2
  6
Continuous
100
AcDbLine
 10
5997.920590066268
 20
5710.529108811442
 30
0.0
 11
5997.920590066268
 21
5730.529108726903
 31
0.0
  0
LINE
  5
277D3
330
1F
100
AcDbEntity
  8
D-STR-STR2
  6
Continuous
100
AcDbLine
 10
6012.92039000287
 20
5805.529308409885
 30
0.0
 11
6092.920589664707
 21
5805.529308409885
 31
0.0
  0
LINE
  5
277D4
330
1F
100
AcDbEntity
  8
D-STR-STR2
  6
Continuous
100
AcDbLine
 10
6012.92039000287
 20
5785.529108494422
 30
0.0
 11
6092.920589664707
 21
5785.529108494422
 31
0.0
  0
LINE
  5
277D5
330
1F
100
AcDbEntity
  8
D-STR-DIM
  6
Continuous
100
AcDbLine
 10
6867.920506388803
 20
4995.528911833706
 30
0.0
 11
6717.920427022818
 21
4995.528911833706
 31
0.0
  0
TEXT
  5
277D6
330
1F
100
AcDbEntity
  8
D-STR-DIM
100
AcDbText
 10
6599.060587525226
 20
5011.528711766078
 30
0.0
 40
70.0
  1
φ300
100
AcDbText
  0
LINE
  5
277D7
330
1F
100
AcDbEntity
  8
D-STR-DIM
  6
Continuous
100
AcDbLine
 10
6567.92058765691
 20
4995.528911833706
 30
0.0
 11
6717.920427022818
 21
4995.528911833706
 31
0.0
  0
LINE
  5
277D8
330
1F
100
AcDbEntity
  8
D-STR-DIM
  6
Continuous
100
AcDbLine
 10
6547.920387741455
 20
4995.528911833706
 30
0.0
 11
6557.920587699183
 21
4995.528911833706
 31
0.0
  0
LINE
  5
277D9
330
1F
100
AcDbEntity
  8
D-STR-DIM
  6
Continuous
100
AcDbLine
 10
6567.92058765691
 20
4995.528911833706
 30
0.0
 11
6557.920587699183
 21
4995.528911833706
 31
0.0
  0
CIRCLE
  5
277DA
330
1F
100
AcDbEntity
  8
D-STR-DIM
  6
Continuous
100
AcDbCircle
 10
6547.920387741455
 20
4995.528911833706
 30
0.0
 40
5.999997974638371
  0
CIRCLE
  5
277DB
330
1F
100
AcDbEntity
  8
D-STR-DIM
  6
Continuous
100
AcDbCircle
 10
6567.92058765691
 20
4995.528911833706
 30
0.0
 40
5.999997974638371
  0
LINE
  5
277DC
330
1F
100
AcDbEntity
  8
D-STR-DIM
  6
Continuous
100
AcDbLine
 10
6867.920506388803
 20
4995.528911833706
 30
0.0
 11
6877.920786346556
 21
4995.528911833706
 31
0.0
  0
LINE
  5
277DD
330
1F
100
AcDbEntity
  8
D-STR-DIM
  6
Continuous
100
AcDbLine
 10
6887.921086304238
 20
4995.528911833706
 30
0.0
 11
6877.920786346556
 21
4995.528911833706
 31
0.0
  0
CIRCLE
  5
277DE
330
1F
100
AcDbEntity
  8
D-STR-DIM
  6
Continuous
100
AcDbCircle
 10
6867.920506388803
 20
4995.528911833706
 30
0.0
 40
5.999997974638371
  0
CIRCLE
  5
277DF
330
1F
100
AcDbEntity
  8
D-STR-DIM
  6
Continuous
100
AcDbCircle
 10
6887.921086304238
 20
4995.528911833706
 30
0.0
 40
5.999997974638371
  0
LINE
  5
277E0
330
1F
100
AcDbEntity
  8
D-STR-DIM
  6
Continuous
100
AcDbLine
 10
8337.920400175171
 20
4595.52911352448
 30
0.0
 11
8337.920400175171
 21
5545.529109508887
 31
0.0
  0
LINE
  5
277E1
330
1F
100
AcDbEntity
  8
D-STR-DIM
  6
Continuous
100
AcDbLine
 10
8037.920401443249
 20
4695.529513101784
 30
0.0
 11
8037.920401443249
 21
5545.529109508887
 31
0.0
  0
LINE
  5
277E2
330
1F
100
AcDbEntity
  8
D-STR-DIM
  6
Continuous
100
AcDbLine
 10
7787.920422499992
 20
4678.529113173644
 30
0.0
 11
7787.920422499992
 21
5549.029109494095
 31
0.0
  0
TEXT
  5
277E3
330
1F
100
AcDbEntity
  8
D-STR-DIM
100
AcDbText
 10
7771.920442567644
 20
4539.246913762381
 30
0.0
 40
70.0
  1
83
 50
90.0
100
AcDbText
  0
LINE
  5
277E4
330
1F
100
AcDbEntity
  8
D-STR-DIM
  6
Continuous
100
AcDbLine
 10
7567.92040342991
 20
4695.529513101784
 30
0.0
 11
7757.920402626794
 21
4695.529513101784
 31
0.0
  0
LINE
  5
277E5
330
1F
100
AcDbEntity
  8
D-STR-DIM
  6
Continuous
100
AcDbLine
 10
7557.920383556787
 20
4678.529113173644
 30
0.0
 11
7817.92044237319
 21
4678.529113173644
 31
0.0
  0
LINE
  5
277E6
330
1F
100
AcDbEntity
  8
D-STR-DIM
  6
Continuous
100
AcDbLine
 10
7557.920383556787
 20
4595.52911352448
 30
0.0
 11
8367.92040004836
 21
4595.52911352448
 31
0.0
  0
LINE
  5
277E7
330
1F
100
AcDbEntity
  8
D-STR-STR2
  6
Continuous
100
AcDbLine
 10
7422.920464042839
 20
4668.535513215887
 30
0.0
 11
7422.920464042839
 21
4688.535513131347
 31
0.0
  0
LINE
  5
277E8
330
1F
100
AcDbEntity
  8
D-STR
  6
Continuous
100
AcDbLine
 10
7317.920484486673
 20
4695.529513101784
 30
0.0
 11
7217.920384909408
 21
4595.530113524477
 31
0.0
  0
LINE
  5
277E9
330
1F
100
AcDbEntity
  8
D-STR
  6
Continuous
100
AcDbLine
 10
7342.919224381017
 20
4595.528113524483
 30
0.0
 11
7217.919264909396
 21
4595.528113524483
 31
0.0
  0
LINE
  5
277EA
330
1F
100
AcDbEntity
  8
D-STR-STR2
  6
Continuous
100
AcDbLine
 10
7422.920464042839
 20
4668.535513215887
 30
0.0
 11
7342.920464380994
 21
4668.535513215887
 31
0.0
  0
LINE
  5
277EB
330
1F
100
AcDbEntity
  8
D-STR-STR2
  6
Continuous
100
AcDbLine
 10
7422.920464042839
 20
4688.535513131347
 30
0.0
 11
7342.920464380994
 21
4688.534513131351
 31
0.0
  0
LINE
  5
277EC
330
1F
100
AcDbEntity
  8
D-STR-DIM
  6
Continuous
100
AcDbLine
 10
8337.920400175171
 20
4395.52911436987
 30
0.0
 11
8337.920400175171
 21
4495.528713947176
 31
0.0
  0
TEXT
  5
277ED
330
1F
100
AcDbEntity
  8
D-STR-DIM
100
AcDbText
 10
8321.920400242815
 20
4408.668914314326
 30
0.0
 40
70.0
  1
200
 50
90.0
100
AcDbText
  0
CIRCLE
  5
277EE
330
1F
100
AcDbEntity
  8
D-STR-DIM
  6
Continuous
100
AcDbCircle
 10
8337.920400175171
 20
4395.52911436987
 30
0.0
 40
5.999997974638371
  0
LINE
  5
277EF
330
1F
100
AcDbEntity
  8
D-STR-DIM
  6
Continuous
100
AcDbLine
 10
8037.920401443249
 20
4695.529513101784
 30
0.0
 11
8037.920401443249
 21
4645.52991331313
 31
0.0
  0
CIRCLE
  5
277F0
330
1F
100
AcDbEntity
  8
D-STR-DIM
  6
Continuous
100
AcDbCircle
 10
7787.920422499992
 20
4678.529113173644
 30
0.0
 40
5.999997974638371
  0
TEXT
  5
277F1
330
1F
100
AcDbEntity
  8
D-STR-DIM
100
AcDbText
 10
8021.920421510902
 20
4541.814313751529
 30
0.0
 40
70.0
  1
100
 50
90.0
100
AcDbText
  0
LINE
  5
277F2
330
1F
100
AcDbEntity
  8
D-STR-DIM
  6
Continuous
100
AcDbLine
 10
7787.920422499992
 20
4595.52911352448
 30
0.0
 11
7787.920422499992
 21
4637.028513349065
 31
0.0
  0
LINE
  5
277F3
330
1F
100
AcDbEntity
  8
D-STR-DIM
  6
Continuous
100
AcDbLine
 10
7787.920422499992
 20
4637.028513349065
 30
0.0
 11
7787.920422499992
 21
4539.246913762381
 31
0.0
  0
CIRCLE
  5
277F4
330
1F
100
AcDbEntity
  8
D-STR-DIM
  6
Continuous
100
AcDbCircle
 10
7787.920422499992
 20
4595.52911352448
 30
0.0
 40
5.999997974638371
  0
LINE
  5
277F5
330
1F
100
AcDbEntity
  8
D-STR-DIM
  6
Continuous
100
AcDbLine
 10
7787.920422499992
 20
4678.529113173644
 30
0.0
 11
7787.920422499992
 21
4637.028513349065
 31
0.0
  0
LINE
  5
277F6
330
1F
100
AcDbEntity
  8
D-STR-DIM
  6
Continuous
100
AcDbLine
 10
8037.920401443249
 20
4595.52911352448
 30
0.0
 11
8037.920401443249
 21
4645.52991331313
 31
0.0
  0
CIRCLE
  5
277F7
330
1F
100
AcDbEntity
  8
D-STR-DIM
  6
Continuous
100
AcDbCircle
 10
8037.920401443249
 20
4595.52911352448
 30
0.0
 40
5.999997974638371
  0
LINE
  5
277F8
330
1F
100
AcDbEntity
  8
D-STR-DIM
  6
Continuous
100
AcDbLine
 10
7807.920422499993
 20
4695.529513101784
 30
0.0
 11
8067.920421316449
 21
4695.529513101784
 31
0.0
  0
CIRCLE
  5
277F9
330
1F
100
AcDbEntity
  8
D-STR-DIM
  6
Continuous
100
AcDbCircle
 10
8037.920401443249
 20
4695.529513101784
 30
0.0
 40
5.999997974638371
  0
LINE
  5
277FA
330
1F
100
AcDbEntity
  8
D-STR-DIM
  6
Continuous
100
AcDbLine
 10
8337.920400175171
 20
4595.52911352448
 30
0.0
 11
8337.920400175171
 21
4495.528713947176
 31
0.0
  0
CIRCLE
  5
277FB
330
1F
100
AcDbEntity
  8
D-STR-DIM
  6
Continuous
100
AcDbCircle
 10
8337.920400175171
 20
4595.52911352448
 30
0.0
 40
5.999997974638371
  0
TEXT
  5
277FC
330
1F
100
AcDbEntity
  8
D-STR-DIM
100
AcDbText
 10
7771.920442567644
 20
5430.169109996507
 30
0.0
 40
70.0
  1
1741
 50
90.0
100
AcDbText
  0
TEXT
  5
277FD
330
1F
100
AcDbEntity
  8
D-STR-DIM
100
AcDbText
 10
7188.54998503351
 20
5011.528711766078
 30
0.0
 40
70.0
  1
25
100
AcDbText
  0
LINE
  5
277FE
330
1F
100
AcDbEntity
  8
D-STR-DIM
  6
Continuous
100
AcDbLine
 10
7330.420404433811
 20
4995.528911833706
 30
0.0
 11
7188.550245033527
 21
4995.528911833706
 31
0.0
  0
LINE
  5
277FF
330
1F
100
AcDbEntity
  8
D-STR-DIM
  6
Continuous
100
AcDbLine
 10
7342.920464380994
 20
4995.528911833706
 30
0.0
 11
7330.420404433811
 21
4995.528911833706
 31
0.0
  0
LINE
  5
27800
330
1F
100
AcDbEntity
  8
D-STR-DIM
  6
Continuous
100
AcDbLine
 10
7317.920484486673
 20
4995.528911833706
 30
0.0
 11
7330.420404433811
 21
4995.528911833706
 31
0.0
  0
CIRCLE
  5
27801
330
1F
100
AcDbEntity
  8
D-STR-DIM
  6
Continuous
100
AcDbCircle
 10
7317.920484486673
 20
4995.528911833706
 30
0.0
 40
5.999997974638371
  0
CIRCLE
  5
27802
330
1F
100
AcDbEntity
  8
D-STR-DIM
  6
Continuous
100
AcDbCircle
 10
7342.920464380994
 20
4995.528911833706
 30
0.0
 40
5.999997974638371
  0
LINE
  5
27803
330
1F
100
AcDbEntity
  8
D-STR
  6
Continuous
100
AcDbLine
 10
7402.920364127417
 20
5570.529509403211
 30
0.0
 11
7402.920364127417
 21
5820.52910834648
 31
0.0
  0
LINE
  5
27804
330
1F
100
AcDbEntity
  8
D-STR
  6
Continuous
100
AcDbLine
 10
7317.92096448669
 20
5560.528909445482
 30
0.0
 11
7402.920364127417
 21
5570.529509403211
 31
0.0
  0
LINE
  5
27805
330
1F
100
AcDbEntity
  8
D-STR
  6
Continuous
100
AcDbLine
 10
7402.920984127407
 20
5820.52910834648
 30
0.0
 11
7317.919864486684
 21
5830.52870830421
 31
0.0
  0
LINE
  5
27806
330
1F
100
AcDbEntity
  8
D-STR
  6
Continuous
100
AcDbLine
 10
7452.920483916037
 20
5570.529509403211
 30
0.0
 11
7452.920483916037
 21
5820.52910834648
 31
0.0
  0
LINE
  5
27807
330
1F
100
AcDbEntity
  8
D-STR
  6
Continuous
100
AcDbLine
 10
7452.920983916057
 20
5570.529509403211
 30
0.0
 11
7537.919763556725
 21
5560.528909445482
 31
0.0
  0
LINE
  5
27808
330
1F
100
AcDbEntity
  8
D-STR
  6
Continuous
100
AcDbLine
 10
7537.920383556786
 20
5830.52870830421
 30
0.0
 11
7452.920483916037
 21
5820.52910834648
 31
0.0
  0
TEXT
  5
27809
330
1F
100
AcDbEntity
  8
D-STR-DIM
100
AcDbText
 10
8021.920421510902
 20
5426.669110011302
 30
0.0
 40
70.0
  1
1700
 50
90.0
100
AcDbText
  0
TEXT
  5
2780A
330
1F
100
AcDbEntity
  8
D-STR-DIM
100
AcDbText
 10
8321.920400242815
 20
5426.669110011302
 30
0.0
 40
70.0
  1
1900
 50
90.00001500002756
100
AcDbText
  0
TEXT
  5
2780B
330
1F
100
AcDbEntity
  8
D-STR-DIM
100
AcDbText
 10
3061.060802480177
 20
7111.528502889502
 30
0.0
 40
70.0
  1
700
100
AcDbText
  0
TEXT
  5
2780C
330
1F
100
AcDbEntity
  8
D-STR-DIM
100
AcDbText
 10
3061.060802480177
 20
7411.528901621419
 30
0.0
 40
70.0
  1
950
100
AcDbText
  0
LINE
  5
2780D
330
1F
100
AcDbEntity
  8
D-STR-DIM
  6
Continuous
100
AcDbLine
 10
3497.920400633623
 20
7095.528702957134
 30
0.0
 11
3147.92080211304
 21
7095.528702957134
 31
0.0
  0
LINE
  5
2780E
330
1F
100
AcDbEntity
  8
D-STR-DIM
  6
Continuous
100
AcDbLine
 10
3622.920800105243
 20
7395.529101689051
 30
0.0
 11
3147.92080211304
 21
7395.529101689051
 31
0.0
  0
LINE
  5
2780F
330
1F
100
AcDbEntity
  8
D-STR
  6
Continuous
100
AcDbLine
 10
3037.920802578003
 20
6495.528905493294
 30
0.0
 11
3257.920801648077
 21
6495.528905493294
 31
0.0
  0
LINE
  5
27810
330
1F
100
AcDbEntity
  8
D-STR
  6
Continuous
100
AcDbLine
 10
3037.920802578003
 20
5845.528508240808
 30
0.0
 11
3257.920801648077
 21
5845.528508240808
 31
0.0
  0
TEXT
  5
27811
330
1F
100
AcDbEntity
  8
D-STR-DIM
100
AcDbText
 10
3061.060802480177
 20
6036.528707433463
 30
0.0
 40
70.0
  1
700
100
AcDbText
  0
LINE
  5
27812
330
1F
100
AcDbEntity
  8
D-STR-STR2
  6
Continuous
100
AcDbLine
 10
2797.920803592468
 20
5895.529108029459
 30
0.0
 11
3497.920400633623
 21
5895.529108029459
 31
0.0
  0
LINE
  5
27813
330
1F
100
AcDbEntity
  8
D-STR-STR2
  6
Continuous
100
AcDbLine
 10
2797.920803592468
 20
6395.52850591599
 30
0.0
 11
3497.920400633623
 21
6395.52850591599
 31
0.0
  0
LINE
  5
27814
330
1F
100
AcDbEntity
  8
D-STR-HTXT
  6
Continuous
100
AcDbLine
 10
3572.740200317334
 20
6895.527903802523
 30
0.0
 11
2807.141803553452
 21
6574.395705159933
 31
0.0
  0
LINE
  5
27815
330
1F
100
AcDbEntity
  8
D-STR-DIM
  6
Continuous
100
AcDbLine
 10
3497.920400633623
 20
6020.529107501094
 30
0.0
 11
3147.92080211304
 21
6020.529107501094
 31
0.0
  0
LINE
  5
27816
330
1F
100
AcDbEntity
  8
D-STR
  6
Continuous
100
AcDbLine
 10
2397.920805283244
 20
6695.528904647905
 30
0.0
 11
3897.920798942836
 21
6695.528904647905
 31
0.0
  0
LINE
  5
27817
330
1F
100
AcDbEntity
  8
D-STR
  6
Continuous
100
AcDbLine
 10
2397.920805283244
 20
6495.528905493294
 30
0.0
 11
3897.920798942836
 21
6495.528905493294
 31
0.0
  0
TEXT
  5
27818
330
1F
100
AcDbEntity
  8
D-TTL-TXT
100
AcDbText
 10
2723.328584883794
 20
7729.863457582604
 30
0.0
 40
140.0
  1
側壁（車道側）
100
AcDbText
  0
TEXT
  5
27819
330
1F
100
AcDbEntity
  8
D-STR-HTXT
100
AcDbText
 10
1732.142822505557
 20
5961.528507750478
 30
0.0
 40
70.0
  1
　連結金具
100
AcDbText
  0
LINE
  5
2781A
330
1F
100
AcDbEntity
  8
D-STR-HTXT
  6
Continuous
100
AcDbLine
 10
2147.920606339983
 20
5945.528907818112
 30
0.0
 11
1797.216145565864
 21
5945.528907818112
 31
0.0
  0
LINE
  5
2781B
330
1F
100
AcDbEntity
  8
D-STR-DIM
  6
Continuous
100
AcDbLine
 10
2797.920803592468
 20
6715.528904647905
 30
0.0
 11
2797.920803592468
 21
7125.528502830326
 31
0.0
  0
LINE
  5
2781C
330
1F
100
AcDbEntity
  8
D-STR-DIM
  6
Continuous
100
AcDbLine
 10
2672.920804120837
 20
6715.528904647905
 30
0.0
 11
2672.920804120837
 21
7425.528901562241
 31
0.0
  0
LINE
  5
2781D
330
1F
100
AcDbEntity
  8
D-STR-DIM
  6
Continuous
100
AcDbLine
 10
2397.920805283244
 20
6715.528904647905
 30
0.0
 11
2397.920805283244
 21
7425.528901562241
 31
0.0
  0
LINE
  5
2781E
330
1F
100
AcDbEntity
  8
D-STR
  6
Continuous
100
AcDbLine
 10
2397.920805283244
 20
6495.528905493294
 30
0.0
 11
2507.920804818281
 21
6495.528905493294
 31
0.0
  0
LINE
  5
2781F
330
1F
100
AcDbEntity
  8
D-STR
  6
Continuous
100
AcDbLine
 10
2397.920805283244
 20
6485.528505535566
 30
0.0
 11
2497.920804860551
 21
6485.528505535566
 31
0.0
  0
LINE
  5
27820
330
1F
100
AcDbEntity
  8
D-BMK
  6
CENTER2
100
AcDbLine
 10
2422.920805177572
 20
6345.528706127337
 30
0.0
 11
2502.920604839423
 21
6345.528706127337
 31
0.0
  0
LINE
  5
27821
330
1F
100
AcDbEntity
  8
D-BMK
  6
CENTER2
100
AcDbLine
 10
2367.920805410053
 20
6195.52850676138
 30
0.0
 11
2511.920804801317
 21
6195.52850676138
 31
0.0
  0
LINE
  5
27822
330
1F
100
AcDbEntity
  8
D-STR-DIM
  6
Continuous
100
AcDbLine
 10
2397.920805283244
 20
6020.529107501094
 30
0.0
 11
2597.920804437857
 21
6020.529107501094
 31
0.0
  0
LINE
  5
27823
330
1F
100
AcDbEntity
  8
D-STR-DIM
  6
Continuous
100
AcDbLine
 10
1997.920406974033
 20
6195.52850676138
 30
0.0
 11
1997.920406974033
 21
6345.528706127337
 31
0.0
  0
TEXT
  5
27824
330
1F
100
AcDbEntity
  8
D-STR-DIM
100
AcDbText
 10
1981.920807041592
 20
6258.66910649449
 30
0.0
 40
70.0
  1
300
 50
90.0
100
AcDbText
  0
LINE
  5
27825
330
1F
100
AcDbEntity
  8
D-STR-DIM
  6
Continuous
100
AcDbLine
 10
2337.920805283244
 20
6195.52850676138
 30
0.0
 11
1967.920807100829
 21
6195.52850676138
 31
0.0
  0
LINE
  5
27826
330
1F
100
AcDbEntity
  8
D-STR-HTXT
  6
Continuous
100
AcDbLine
 10
2147.920606339983
 20
5945.528907818112
 30
0.0
 11
2397.920805283244
 21
6195.528506761377
 31
0.0
  0
CIRCLE
  5
27827
330
1F
100
AcDbEntity
  8
D-STR-DIM
  6
Continuous
100
AcDbCircle
 10
1997.920406974033
 20
6195.52850676138
 30
0.0
 40
5.999997974638371
  0
CIRCLE
  5
27828
330
1F
100
AcDbEntity
  8
D-STR-DIM
  6
Continuous
100
AcDbCircle
 10
2397.920805283244
 20
6020.529107501094
 30
0.0
 40
5.999997974638371
  0
LINE
  5
27829
330
1F
100
AcDbEntity
  8
D-STR-STR2
  6
Continuous
100
AcDbLine
 10
2481.920604928128
 20
6245.52930655003
 30
0.0
 11
2481.920604928128
 21
6145.528906972726
 31
0.0
  0
LINE
  5
2782A
330
1F
100
AcDbEntity
  8
D-STR-STR2
  6
Continuous
100
AcDbLine
 10
2481.920604928128
 20
6145.528906972726
 30
0.0
 11
2397.920805283244
 21
6145.528906972726
 31
0.0
  0
LINE
  5
2782B
330
1F
100
AcDbEntity
  8
D-STR-STR2
  6
Continuous
100
AcDbLine
 10
2397.920805283244
 20
6245.52930655003
 30
0.0
 11
2481.920604928128
 21
6245.52930655003
 31
0.0
  0
LINE
  5
2782C
330
1F
100
AcDbEntity
  8
D-STR-HTXT
  6
Continuous
100
AcDbLine
 10
2364.649205423873
 20
6172.231706859854
 30
0.0
 11
2397.920805283244
 21
6195.528506761377
 31
0.0
  0
LINE
  5
2782D
330
1F
100
AcDbEntity
  8
D-STR-DIM
  6
Continuous
100
AcDbLine
 10
2377.920805283244
 20
6495.528905493294
 30
0.0
 11
1967.920807100829
 21
6495.528905493294
 31
0.0
  0
CIRCLE
  5
2782E
330
1F
100
AcDbEntity
  8
D-STR-DIM
  6
Continuous
100
AcDbCircle
 10
1997.920406974033
 20
6495.528905493294
 30
0.0
 40
5.999997974638371
  0
LINE
  5
2782F
330
1F
100
AcDbEntity
  8
D-STR-DIM
  6
Continuous
100
AcDbLine
 10
1997.920406974033
 20
6495.528905493294
 30
0.0
 11
1997.920406974033
 21
6345.528706127337
 31
0.0
  0
CIRCLE
  5
27830
330
1F
100
AcDbEntity
  8
D-STR-STR2
  6
Continuous
100
AcDbCircle
 10
2462.920805008493
 20
6345.528706127337
 30
0.0
 40
9.999997957730611
  0
LINE
  5
27831
330
1F
100
AcDbEntity
  8
D-BMK
  6
CENTER2
100
AcDbLine
 10
2462.920805008493
 20
6385.528905958257
 30
0.0
 11
2462.920805008493
 21
6305.528506296414
 31
0.0
  0
LINE
  5
27832
330
1F
100
AcDbEntity
  8
D-STR-STR2
  6
Continuous
100
AcDbLine
 10
2797.920803592468
 20
6395.52850591599
 30
0.0
 11
2797.920803592468
 21
5895.529108029459
 31
0.0
  0
LINE
  5
27833
330
1F
100
AcDbEntity
  8
D-STR-DIM
  6
Continuous
100
AcDbLine
 10
2797.920803592468
 20
6020.529107501094
 30
0.0
 11
3147.92080211304
 21
6020.529107501094
 31
0.0
  0
TEXT
  5
27834
330
1F
100
AcDbEntity
  8
D-STR-DIM
100
AcDbText
 10
2561.812404590473
 20
5924.208907908233
 30
0.0
 40
70.0
  1
400
100
AcDbText
  0
LINE
  5
27835
330
1F
100
AcDbEntity
  8
D-STR-DIM
  6
Continuous
100
AcDbLine
 10
2797.920803592468
 20
6020.529107501094
 30
0.0
 11
2597.920804437857
 21
6020.529107501094
 31
0.0
  0
CIRCLE
  5
27836
330
1F
100
AcDbEntity
  8
D-STR-DIM
  6
Continuous
100
AcDbCircle
 10
2797.920803592468
 20
6020.529107501094
 30
0.0
 40
5.999997974638371
  0
LINE
  5
27837
330
1F
100
AcDbEntity
  8
D-BMK
  6
CENTER2
100
AcDbLine
 10
2632.920604289921
 20
6145.528906972726
 30
0.0
 11
2712.920603951763
 21
6145.528906972726
 31
0.0
  0
LINE
  5
27838
330
1F
100
AcDbEntity
  8
D-BMK
  6
CENTER2
100
AcDbLine
 10
2672.920804120837
 20
6185.529106803645
 30
0.0
 11
2672.920804120837
 21
6105.528707141803
 31
0.0
  0
CIRCLE
  5
27839
330
1F
100
AcDbEntity
  8
D-STR-STR2
  6
Continuous
100
AcDbCircle
 10
2672.920804120837
 20
6145.528906972726
 30
0.0
 40
9.999997957730611
  0
LINE
  5
2783A
330
1F
100
AcDbEntity
  8
D-STR-DIM
  6
Continuous
100
AcDbLine
 10
3017.920802578003
 20
5845.528508240808
 30
0.0
 11
2907.920803127505
 21
5845.528508240808
 31
0.0
  0
LINE
  5
2783B
330
1F
100
AcDbEntity
  8
D-STR-DIM
  6
Continuous
100
AcDbLine
 10
2937.920803000696
 20
5845.528508240808
 30
0.0
 11
2937.920803000696
 21
5840.52910826194
 31
0.0
  0
LINE
  5
2783C
330
1F
100
AcDbEntity
  8
D-BMK
  6
CENTER2
100
AcDbLine
 10
2757.920603761551
 20
6570.529105176276
 30
0.0
 11
2837.920403423403
 21
6570.529105176276
 31
0.0
  0
LINE
  5
2783D
330
1F
100
AcDbEntity
  8
D-STR-HTXT
  6
Continuous
100
AcDbLine
 10
2841.300003409088
 20
6596.372705067039
 30
0.0
 11
2807.141803553452
 21
6574.396705159928
 31
0.0
  0
LINE
  5
2783E
330
1F
100
AcDbEntity
  8
D-STR
  6
Continuous
100
AcDbLine
 10
2507.920804818281
 20
6395.52850591599
 30
0.0
 11
3037.920802578003
 21
6395.52850591599
 31
0.0
  0
LINE
  5
2783F
330
1F
100
AcDbEntity
  8
D-BMK
  6
CENTER2
100
AcDbLine
 10
2797.920803592468
 20
6610.529305007196
 30
0.0
 11
2797.920803592468
 21
6530.528905345352
 31
0.0
  0
LINE
  5
27840
330
1F
100
AcDbEntity
  8
D-STR
  6
Continuous
100
AcDbLine
 10
2507.920804818281
 20
6495.528905493294
 30
0.0
 11
2497.919404860521
 21
6485.528505535566
 31
0.0
  0
CIRCLE
  5
27841
330
1F
100
AcDbEntity
  8
D-STR-STR2
  6
Continuous
100
AcDbCircle
 10
2797.920803592468
 20
6570.529105176276
 30
0.0
 40
9.999997957730611
  0
TEXT
  5
27842
330
1F
100
AcDbEntity
  8
D-STR-DIM
100
AcDbText
 10
2448.560805069178
 20
7411.528901621419
 30
0.0
 40
70.0
  1
275
100
AcDbText
  0
LINE
  5
27843
330
1F
100
AcDbEntity
  8
D-STR-DIM
  6
Continuous
100
AcDbLine
 10
2397.920805283244
 20
7395.529101689051
 30
0.0
 11
2535.42080470204
 21
7395.529101689051
 31
0.0
  0
CIRCLE
  5
27844
330
1F
100
AcDbEntity
  8
D-STR-DIM
  6
Continuous
100
AcDbCircle
 10
2397.920805283244
 20
7395.529101689051
 30
0.0
 40
5.999997974638371
  0
LINE
  5
27845
330
1F
100
AcDbEntity
  8
D-STR-DIM
  6
Continuous
100
AcDbLine
 10
2797.920803592468
 20
7095.528702957134
 30
0.0
 11
3147.92080211304
 21
7095.528702957134
 31
0.0
  0
TEXT
  5
27846
330
1F
100
AcDbEntity
  8
D-STR-DIM
100
AcDbText
 10
2623.908604328012
 20
7111.528502889502
 30
0.0
 40
70.0
  1
125
100
AcDbText
  0
CIRCLE
  5
27847
330
1F
100
AcDbEntity
  8
D-STR-DIM
  6
Continuous
100
AcDbCircle
 10
2797.920803592468
 20
7095.528702957134
 30
0.0
 40
5.999997974638371
  0
LINE
  5
27848
330
1F
100
AcDbEntity
  8
D-STR-DIM
  6
Continuous
100
AcDbLine
 10
2672.920804120837
 20
7095.528702957134
 30
0.0
 11
2735.420803856654
 21
7095.528702957134
 31
0.0
  0
CIRCLE
  5
27849
330
1F
100
AcDbEntity
  8
D-STR-DIM
  6
Continuous
100
AcDbCircle
 10
2672.920804120837
 20
7095.528702957134
 30
0.0
 40
5.999997974638371
  0
LINE
  5
2784A
330
1F
100
AcDbEntity
  8
D-STR-DIM
  6
Continuous
100
AcDbLine
 10
2797.920803592468
 20
7095.528702957134
 30
0.0
 11
2735.420803856654
 21
7095.528702957134
 31
0.0
  0
LINE
  5
2784B
330
1F
100
AcDbEntity
  8
D-STR-DIM
  6
Continuous
100
AcDbLine
 10
2672.920804120837
 20
7395.529101689051
 30
0.0
 11
3147.92080211304
 21
7395.529101689051
 31
0.0
  0
LINE
  5
2784C
330
1F
100
AcDbEntity
  8
D-STR-DIM
  6
Continuous
100
AcDbLine
 10
2672.920804120837
 20
7395.529101689051
 30
0.0
 11
2535.42080470204
 21
7395.529101689051
 31
0.0
  0
CIRCLE
  5
2784D
330
1F
100
AcDbEntity
  8
D-STR-DIM
  6
Continuous
100
AcDbCircle
 10
2672.920804120837
 20
7395.529101689051
 30
0.0
 40
5.999997974638371
  0
LINE
  5
27852
330
1F
100
AcDbEntity
  8
D-STR-DIM
  6
Continuous
100
AcDbLine
 10
5877.920390488966
 20
6495.528905493294
 30
0.0
 11
5467.920592306546
 21
6495.528905493294
 31
0.0
  0
LINE
  5
27853
330
1F
100
AcDbEntity
  8
D-STR-DIM
  6
Continuous
100
AcDbLine
 10
5877.920390488966
 20
6345.528706127337
 30
0.0
 11
5467.920592306546
 21
6345.528706127337
 31
0.0
  0
LINE
  5
27854
330
1F
100
AcDbEntity
  8
D-STR-DIM
  6
Continuous
100
AcDbLine
 10
5867.92059061577
 20
6695.528904647905
 30
0.0
 11
3927.920398816037
 21
6695.528904647905
 31
0.0
  0
LINE
  5
27857
330
1F
100
AcDbEntity
  8
D-STR-DIM
  6
Continuous
100
AcDbLine
 10
3897.920798942836
 20
6769.529104335113
 30
0.0
 11
3897.920798942836
 21
6725.528504521102
 31
0.0
  0
LINE
  5
27858
330
1F
100
AcDbEntity
  8
D-STR-DIM
  6
Continuous
100
AcDbLine
 10
3622.920800105243
 20
6769.529104335113
 30
0.0
 11
3622.920800105243
 21
6725.528504521102
 31
0.0
  0
LINE
  5
27859
330
1F
100
AcDbEntity
  8
D-STR-HTXT
  6
Continuous
100
AcDbLine
 10
3572.741200317302
 20
6895.527903802523
 30
0.0
 11
3500.164400624129
 21
6580.273905135084
 31
0.0
  0
LINE
  5
2785A
330
1F
100
AcDbEntity
  8
D-STR-DIM
  6
Continuous
100
AcDbLine
 10
3497.920400633623
 20
6715.528904647905
 30
0.0
 11
3497.920400633623
 21
7125.528502830326
 31
0.0
  0
LINE
  5
2785B
330
1F
100
AcDbEntity
  8
D-STR
  6
Continuous
100
AcDbLine
 10
3897.920798942836
 20
6485.528505535566
 30
0.0
 11
3797.92039936554
 21
6485.528505535566
 31
0.0
  0
LINE
  5
2785C
330
1F
100
AcDbEntity
  8
D-STR
  6
Continuous
100
AcDbLine
 10
3897.920798942836
 20
6495.528905493294
 30
0.0
 11
3787.920799407799
 21
6495.528905493294
 31
0.0
  0
LINE
  5
2785D
330
1F
100
AcDbEntity
  8
D-BMK
  6
CENTER2
100
AcDbLine
 10
3792.920599386671
 20
6345.528706127337
 30
0.0
 11
3872.920399048518
 21
6345.528706127337
 31
0.0
  0
LINE
  5
2785E
330
1F
100
AcDbEntity
  8
D-BMK
  6
CENTER2
100
AcDbLine
 10
3927.920398816037
 20
6195.52850676138
 30
0.0
 11
3783.920399424704
 21
6195.52850676138
 31
0.0
  0
LINE
  5
2785F
330
1F
100
AcDbEntity
  8
D-STR-DIM
  6
Continuous
100
AcDbLine
 10
3897.920798942836
 20
6020.529107501094
 30
0.0
 11
3697.920399788236
 21
6020.529107501094
 31
0.0
  0
LINE
  5
27860
330
1F
100
AcDbEntity
  8
D-STR-STR2
  6
Continuous
100
AcDbLine
 10
3497.920400633623
 20
6395.52850591599
 30
0.0
 11
3497.920400633623
 21
5895.529108029459
 31
0.0
  0
TEXT
  5
27861
330
1F
100
AcDbEntity
  8
D-STR-DIM
100
AcDbText
 10
3570.872800325251
 20
5924.208907908233
 30
0.0
 40
70.0
  1
400
100
AcDbText
  0
LINE
  5
27862
330
1F
100
AcDbEntity
  8
D-STR-DIM
  6
Continuous
100
AcDbLine
 10
3497.920400633623
 20
6020.529107501094
 30
0.0
 11
3697.920399788236
 21
6020.529107501094
 31
0.0
  0
CIRCLE
  5
27863
330
1F
100
AcDbEntity
  8
D-STR-DIM
  6
Continuous
100
AcDbCircle
 10
3497.920400633623
 20
6020.529107501094
 30
0.0
 40
5.999997974638371
  0
LINE
  5
27864
330
1F
100
AcDbEntity
  8
D-BMK
  6
CENTER2
100
AcDbLine
 10
3662.920599936173
 20
6145.528906972726
 30
0.0
 11
3582.920600274327
 21
6145.528906972726
 31
0.0
  0
LINE
  5
27865
330
1F
100
AcDbEntity
  8
D-BMK
  6
CENTER2
100
AcDbLine
 10
3622.920800105243
 20
6185.529106803645
 30
0.0
 11
3622.920800105243
 21
6105.528707141803
 31
0.0
  0
CIRCLE
  5
27866
330
1F
100
AcDbEntity
  8
D-STR-STR2
  6
Continuous
100
AcDbCircle
 10
3622.920800105243
 20
6145.528906972726
 30
0.0
 40
9.999997957730611
  0
LINE
  5
27867
330
1F
100
AcDbEntity
  8
D-BMK
  6
CENTER2
100
AcDbLine
 10
3537.920600464538
 20
6570.529105176276
 30
0.0
 11
3457.920800802688
 21
6570.529105176276
 31
0.0
  0
LINE
  5
27868
330
1F
100
AcDbEntity
  8
D-STR
  6
Continuous
100
AcDbLine
 10
3257.920801648077
 20
6395.52850591599
 30
0.0
 11
3787.920799407799
 21
6395.52850591599
 31
0.0
  0
LINE
  5
27869
330
1F
100
AcDbEntity
  8
D-BMK
  6
CENTER2
100
AcDbLine
 10
3497.920400633623
 20
6610.529305007196
 30
0.0
 11
3497.920400633623
 21
6530.528905345352
 31
0.0
  0
LINE
  5
2786A
330
1F
100
AcDbEntity
  8
D-STR
  6
Continuous
100
AcDbLine
 10
3787.919399407766
 20
6495.529905493295
 30
0.0
 11
3797.919399365499
 21
6485.529505535564
 31
0.0
  0
LINE
  5
2786B
330
1F
100
AcDbEntity
  8
D-STR-HTXT
  6
Continuous
100
AcDbLine
 10
3502.26420061525
 20
6620.836104963629
 30
0.0
 11
3500.164400624129
 21
6580.273905135084
 31
0.0
  0
CIRCLE
  5
2786C
330
1F
100
AcDbEntity
  8
D-STR-STR2
  6
Continuous
100
AcDbCircle
 10
3497.920400633623
 20
6570.529105176276
 30
0.0
 40
9.999997957730611
  0
LINE
  5
2786D
330
1F
100
AcDbEntity
  8
D-STR-DIM
  6
Continuous
100
AcDbLine
 10
4297.92079725206
 20
6145.528906972726
 30
0.0
 11
4297.92079725206
 21
6358.028506074501
 31
0.0
  0
TEXT
  5
2786E
330
1F
100
AcDbEntity
  8
D-STR-DIM
100
AcDbText
 10
4281.920597319636
 20
6271.168906441653
 30
0.0
 40
70.0
  1
425
 50
90.0
100
AcDbText
  0
LINE
  5
2786F
330
1F
100
AcDbEntity
  8
D-STR-DIM
  6
Continuous
100
AcDbLine
 10
3917.920798942836
 20
6145.528906972726
 30
0.0
 11
4327.920397125264
 21
6145.528906972726
 31
0.0
  0
CIRCLE
  5
27870
330
1F
100
AcDbEntity
  8
D-STR-DIM
  6
Continuous
100
AcDbCircle
 10
3897.920798942836
 20
6020.529107501094
 30
0.0
 40
5.999997974638371
  0
LINE
  5
27871
330
1F
100
AcDbEntity
  8
D-STR-STR2
  6
Continuous
100
AcDbLine
 10
3813.920599297889
 20
6245.52930655003
 30
0.0
 11
3813.920599297889
 21
6145.528906972726
 31
0.0
  0
LINE
  5
27872
330
1F
100
AcDbEntity
  8
D-STR-STR2
  6
Continuous
100
AcDbLine
 10
3897.920798942836
 20
6245.52930655003
 30
0.0
 11
3813.920599297889
 21
6245.52930655003
 31
0.0
  0
LINE
  5
27873
330
1F
100
AcDbEntity
  8
D-STR-STR2
  6
Continuous
100
AcDbLine
 10
3813.920599297889
 20
6145.528906972726
 30
0.0
 11
3897.920798942836
 21
6145.528906972726
 31
0.0
  0
LINE
  5
27874
330
1F
100
AcDbEntity
  8
D-STR-DIM
  6
Continuous
100
AcDbLine
 10
4297.92079725206
 20
6145.528906972726
 30
0.0
 11
4297.92079725206
 21
5933.029307870947
 31
0.0
  0
TEXT
  5
27875
330
1F
100
AcDbEntity
  8
D-STR-DIM
100
AcDbText
 10
4394.240796844896
 20
5846.1685082381
 30
0.0
 40
70.0
  1
425
 50
90.0
100
AcDbText
  0
CIRCLE
  5
27876
330
1F
100
AcDbEntity
  8
D-STR-DIM
  6
Continuous
100
AcDbCircle
 10
4297.92079725206
 20
6145.528906972726
 30
0.0
 40
5.999997974638371
  0
LINE
  5
27877
330
1F
100
AcDbEntity
  8
D-STR-DIM
  6
Continuous
100
AcDbLine
 10
3917.920798942836
 20
6570.529105176276
 30
0.0
 11
4327.920397125264
 21
6570.529105176276
 31
0.0
  0
CIRCLE
  5
27878
330
1F
100
AcDbEntity
  8
D-STR-STR2
  6
Continuous
100
AcDbCircle
 10
3832.920799217588
 20
6345.528706127337
 30
0.0
 40
9.999997957730611
  0
LINE
  5
27879
330
1F
100
AcDbEntity
  8
D-BMK
  6
CENTER2
100
AcDbLine
 10
3832.920799217588
 20
6385.528905958257
 30
0.0
 11
3832.920799217588
 21
6305.528506296414
 31
0.0
  0
TEXT
  5
2787A
330
1F
100
AcDbEntity
  8
D-STR-DIM
100
AcDbText
 10
4394.240796844896
 20
6522.927505377484
 30
0.0
 40
70.0
  1
125
 50
90.0
100
AcDbText
  0
LINE
  5
2787B
330
1F
100
AcDbEntity
  8
D-STR-DIM
  6
Continuous
100
AcDbLine
 10
4297.92079725206
 20
6570.529105176276
 30
0.0
 11
4297.92079725206
 21
6358.028506074501
 31
0.0
  0
CIRCLE
  5
2787C
330
1F
100
AcDbEntity
  8
D-STR-DIM
  6
Continuous
100
AcDbCircle
 10
4297.92079725206
 20
6570.529105176276
 30
0.0
 40
5.999997974638371
  0
CIRCLE
  5
2787D
330
1F
100
AcDbEntity
  8
D-STR-DIM
  6
Continuous
100
AcDbCircle
 10
4297.92079725206
 20
6695.528904647905
 30
0.0
 40
5.999997974638371
  0
LINE
  5
2787E
330
1F
100
AcDbEntity
  8
D-STR-DIM
  6
Continuous
100
AcDbLine
 10
4297.92079725206
 20
6695.528904647905
 30
0.0
 11
4297.92079725206
 21
6633.028504912094
 31
0.0
  0
LINE
  5
2787F
330
1F
100
AcDbEntity
  8
D-STR-DIM
  6
Continuous
100
AcDbLine
 10
4297.92079725206
 20
6570.529105176276
 30
0.0
 11
4297.92079725206
 21
6633.028504912094
 31
0.0
  0
LINE
  5
27880
330
1F
100
AcDbEntity
  8
D-STR-DIM
  6
Continuous
100
AcDbLine
 10
3897.920798942836
 20
7395.529101689051
 30
0.0
 11
3760.42079952404
 21
7395.529101689051
 31
0.0
  0
TEXT
  5
27881
330
1F
100
AcDbEntity
  8
D-STR-DIM
100
AcDbText
 10
3673.560599891182
 20
7411.528901621419
 30
0.0
 40
70.0
  1
275
100
AcDbText
  0
LINE
  5
27882
330
1F
100
AcDbEntity
  8
D-STR-HTXT
  6
Continuous
100
AcDbLine
 10
4382.974107990317
 20
6895.528903802518
 30
0.0
 11
3572.740200317334
 21
6895.528903802518
 31
0.0
  0
TEXT
  5
27883
330
1F
100
AcDbEntity
  8
D-STR-HTXT
100
AcDbText
 10
3549.879800413972
 20
6911.528503734891
 30
0.0
 40
70.0
  1
　インサート　Ｍ16
100
AcDbText
  0
TEXT
  5
27884
330
1F
100
AcDbEntity
  8
D-STR-HTXT
100
AcDbText
 10
3549.879800413972
 20
6815.528504140679
 30
0.0
 40
70.0
  1
　（取付ボックス用）
100
AcDbText
  0
LINE
  5
27885
330
1F
100
AcDbEntity
  8
D-STR-DIM
  6
Continuous
100
AcDbLine
 10
3622.920800105243
 20
6978.718103450886
 30
0.0
 11
3622.920800105243
 21
7425.528901562241
 31
0.0
  0
TEXT
  5
27886
330
1F
100
AcDbEntity
  8
D-STR-DIM
100
AcDbText
 10
3512.657200571288
 20
7111.528502889502
 30
0.0
 40
70.0
  1
125
100
AcDbText
  0
CIRCLE
  5
27887
330
1F
100
AcDbEntity
  8
D-STR-DIM
  6
Continuous
100
AcDbCircle
 10
3622.920800105243
 20
7095.528702957134
 30
0.0
 40
5.999997974638371
  0
LINE
  5
27888
330
1F
100
AcDbEntity
  8
D-STR-DIM
  6
Continuous
100
AcDbLine
 10
3497.920400633623
 20
7095.528702957134
 30
0.0
 11
3560.42040036944
 21
7095.528702957134
 31
0.0
  0
CIRCLE
  5
27889
330
1F
100
AcDbEntity
  8
D-STR-DIM
  6
Continuous
100
AcDbCircle
 10
3497.920400633623
 20
7095.528702957134
 30
0.0
 40
5.999997974638371
  0
LINE
  5
2788A
330
1F
100
AcDbEntity
  8
D-STR-DIM
  6
Continuous
100
AcDbLine
 10
3622.920800105243
 20
7095.528702957134
 30
0.0
 11
3560.42040036944
 21
7095.528702957134
 31
0.0
  0
LINE
  5
2788B
330
1F
100
AcDbEntity
  8
D-STR-DIM
  6
Continuous
100
AcDbLine
 10
3622.920800105243
 20
7395.529101689051
 30
0.0
 11
3760.42079952404
 21
7395.529101689051
 31
0.0
  0
CIRCLE
  5
2788C
330
1F
100
AcDbEntity
  8
D-STR-DIM
  6
Continuous
100
AcDbCircle
 10
3622.920800105243
 20
7395.529101689051
 30
0.0
 40
5.999997974638371
  0
LINE
  5
2788D
330
1F
100
AcDbEntity
  8
D-STR-DIM
  6
Continuous
100
AcDbLine
 10
3897.920798942836
 20
6978.718103450886
 30
0.0
 11
3897.920798942836
 21
7425.528901562241
 31
0.0
  0
CIRCLE
  5
2788E
330
1F
100
AcDbEntity
  8
D-STR-DIM
  6
Continuous
100
AcDbCircle
 10
3897.920798942836
 20
7395.529101689051
 30
0.0
 40
5.999997974638371
  0
CIRCLE
  5
2788F
330
1F
100
AcDbEntity
  8
D-STR-DIM
  6
Continuous
100
AcDbCircle
 10
5097.920793870508
 20
6695.528904647905
 30
0.0
 40
5.999997974638371
  0
LINE
  5
27890
330
1F
100
AcDbEntity
  8
D-STR-DIM
  6
Continuous
100
AcDbLine
 10
5497.920592179736
 20
6345.528706127337
 30
0.0
 11
5497.920592179736
 21
6070.528707289745
 31
0.0
  0
TEXT
  5
27891
330
1F
100
AcDbEntity
  8
D-STR-DIM
100
AcDbText
 10
5481.920592247313
 20
5983.669107656897
 30
0.0
 40
70.0
  1
550
 50
90.0
100
AcDbText
  0
TEXT
  5
27892
330
1F
100
AcDbEntity
  8
D-STR-DIM
100
AcDbText
 10
5481.920592247313
 20
6333.669306177467
 30
0.0
 40
70.0
  1
150
 50
90.0
100
AcDbText
  0
LINE
  5
27893
330
1F
100
AcDbEntity
  8
D-STR-DIM
  6
Continuous
100
AcDbLine
 10
5497.920592179736
 20
6495.528905493294
 30
0.0
 11
5497.920592179736
 21
6420.528905810314
 31
0.0
  0
CIRCLE
  5
27894
330
1F
100
AcDbEntity
  8
D-STR-DIM
  6
Continuous
100
AcDbCircle
 10
5497.920592179736
 20
6495.528905493294
 30
0.0
 40
5.999997974638371
  0
CIRCLE
  5
27895
330
1F
100
AcDbEntity
  8
D-STR-DIM
  6
Continuous
100
AcDbCircle
 10
5497.920592179736
 20
6345.528706127337
 30
0.0
 40
5.999997974638371
  0
LINE
  5
27896
330
1F
100
AcDbEntity
  8
D-STR-DIM
  6
Continuous
100
AcDbLine
 10
5497.920592179736
 20
6345.528706127337
 30
0.0
 11
5497.920592179736
 21
6420.528905810314
 31
0.0
  0
TEXT
  5
27897
330
1F
100
AcDbEntity
  8
D-TTL-TXT
100
AcDbText
 10
5044.881874478726
 20
7147.927937792832
 30
0.0
 40
100.0
  1
　車　道　側　
100
AcDbText
  0
TEXT
  5
27898
330
1F
100
AcDbEntity
  8
D-TTL-TXT
100
AcDbText
 10
5155.559073286504
 20
7379.336506474999
 30
0.0
 40
140.0
  1
 断面図
100
AcDbText
  0
LINE
  5
278A2
330
1F
100
AcDbEntity
  8
D-STR
  6
Continuous
100
AcDbLine
 10
5897.920390488966
 20
6695.528904647905
 30
0.0
 11
7537.920383556786
 21
6695.528904647905
 31
0.0
  0
LINE
  5
278A3
330
1F
100
AcDbEntity
  8
D-STR
  6
Continuous
100
AcDbLine
 10
6217.920389136347
 20
6495.528905493294
 30
0.0
 11
7217.920384909408
 21
6495.528905493294
 31
0.0
  0
LINE
  5
278A4
330
1F
100
AcDbEntity
  8
D-STR-DIM
  6
Continuous
100
AcDbLine
 10
7317.920484486673
 20
7395.529101689051
 30
0.0
 11
6717.920427022891
 21
7395.529101689051
 31
0.0
  0
LINE
  5
278A5
330
1F
100
AcDbEntity
  8
D-STR-DIM
  6
Continuous
100
AcDbLine
 10
7217.919884909385
 20
7095.528702957129
 30
0.0
 11
6717.920047022835
 21
7095.528702957129
 31
0.0
  0
LINE
  5
278A6
330
1F
100
AcDbEntity
  8
D-STR-DIM
  6
Continuous
100
AcDbLine
 10
6217.920389136347
 20
6715.528904647905
 30
0.0
 11
6217.920389136347
 21
7125.528502830322
 31
0.0
  0
LINE
  5
278A7
330
1F
100
AcDbEntity
  8
D-STR-DIM
  6
Continuous
100
AcDbLine
 10
6117.920389559039
 20
6715.528904647905
 30
0.0
 11
6117.920389559039
 21
7425.528901562237
 31
0.0
  0
LINE
  5
278A8
330
1F
100
AcDbEntity
  8
D-STR-DIM
  6
Continuous
100
AcDbLine
 10
6137.92038955904
 20
6395.52850591599
 30
0.0
 11
6447.920588164146
 21
6395.52850591599
 31
0.0
  0
LINE
  5
278A9
330
1F
100
AcDbEntity
  8
D-STR-DIM
  6
Continuous
100
AcDbLine
 10
6137.92038955904
 20
5895.529108029459
 30
0.0
 11
6447.920588164146
 21
5895.529108029459
 31
0.0
  0
LINE
  5
278AA
330
1F
100
AcDbEntity
  8
D-STR-DIM
  6
Continuous
100
AcDbLine
 10
6417.920588290951
 20
6395.52850591599
 30
0.0
 11
6417.920588290951
 21
6145.528906972726
 31
0.0
  0
LINE
  5
278AB
330
1F
100
AcDbEntity
  8
D-DCR-HCH
  6
Continuous
100
AcDbLine
 10
5897.920390488966
 20
6127.323307049679
 30
0.0
 11
6117.920389559039
 21
6347.324306119746
 31
0.0
  0
LINE
  5
278AC
330
1F
100
AcDbEntity
  8
D-DCR-HCH
  6
Continuous
100
AcDbLine
 10
5897.920390488966
 20
6217.126106670086
 30
0.0
 11
6076.322789734848
 21
6395.52850591599
 31
0.0
  0
LINE
  5
278AD
330
1F
100
AcDbEntity
  8
D-STR-STR2
  6
Continuous
100
AcDbLine
 10
6117.920389559039
 20
6245.52930655003
 30
0.0
 11
6033.920389914088
 21
6245.52930655003
 31
0.0
  0
LINE
  5
278AE
330
1F
100
AcDbEntity
  8
D-STR-STR2
  6
Continuous
100
AcDbLine
 10
6033.920389914088
 20
6145.528906972726
 30
0.0
 11
6117.920389559039
 21
6145.528906972726
 31
0.0
  0
LINE
  5
278AF
330
1F
100
AcDbEntity
  8
D-BMK
  6
CENTER2
100
AcDbLine
 10
6147.920589432226
 20
6195.52850676138
 30
0.0
 11
6003.920190040902
 21
6195.52850676138
 31
0.0
  0
LINE
  5
278B0
330
1F
100
AcDbEntity
  8
D-STR
  6
DASHED1
100
AcDbLine
 10
6117.920389559039
 20
5895.529108029459
 30
0.0
 11
5897.920390488966
 21
5895.529108029459
 31
0.0
  0
LINE
  5
278B1
330
1F
100
AcDbEntity
  8
D-DCR-HCH
  6
Continuous
100
AcDbLine
 10
6025.336389950328
 20
5895.529108029459
 30
0.0
 11
6117.920389559039
 21
5988.113507638111
 31
0.0
  0
LINE
  5
278B2
330
1F
100
AcDbEntity
  8
D-DCR-HCH
  6
Continuous
100
AcDbLine
 10
5935.533990329947
 20
5895.529108029459
 30
0.0
 11
6117.920389559039
 21
6077.916107258523
 31
0.0
  0
LINE
  5
278B3
330
1F
100
AcDbEntity
  8
D-DCR-HCH
  6
Continuous
100
AcDbLine
 10
5897.920390488966
 20
5947.71790780886
 30
0.0
 11
6117.920389559039
 21
6167.718906878927
 31
0.0
  0
LINE
  5
278B4
330
1F
100
AcDbEntity
  8
D-DCR-HCH
  6
Continuous
100
AcDbLine
 10
5897.920390488966
 20
6037.520707429266
 30
0.0
 11
6117.920389559039
 21
6257.521706499337
 31
0.0
  0
LINE
  5
278B5
330
1F
100
AcDbEntity
  8
D-STR-STR2
  6
Continuous
100
AcDbLine
 10
5997.920590066268
 20
6135.529307014992
 30
0.0
 11
5897.920390488966
 21
6135.529307014992
 31
0.0
  0
LINE
  5
278B6
330
1F
100
AcDbEntity
  8
D-STR-STR2
  6
Continuous
100
AcDbLine
 10
5997.920590066268
 20
6155.529306930453
 30
0.0
 11
5897.920390488966
 21
6155.529306930453
 31
0.0
  0
LINE
  5
278B7
330
1F
100
AcDbEntity
  8
D-STR-STR2
  6
Continuous
100
AcDbLine
 10
6033.920389914088
 20
6245.52930655003
 30
0.0
 11
6033.920389914088
 21
6145.528906972726
 31
0.0
  0
LINE
  5
278B8
330
1F
100
AcDbEntity
  8
D-STR-STR2
  6
Continuous
100
AcDbLine
 10
5997.920590066268
 20
6135.529307014992
 30
0.0
 11
5997.920590066268
 21
6155.529306930453
 31
0.0
  0
LINE
  5
278B9
330
1F
100
AcDbEntity
  8
D-STR-DIM
  6
Continuous
100
AcDbLine
 10
6417.920588290951
 20
5895.529108029459
 30
0.0
 11
6417.920588290951
 21
6145.528906972726
 31
0.0
  0
TEXT
  5
278BA
330
1F
100
AcDbEntity
  8
D-STR-DIM
100
AcDbText
 10
6401.920388358532
 20
6058.669307339875
 30
0.0
 40
70.0
  1
500
 50
90.0
100
AcDbText
  0
LINE
  5
278BB
330
1F
100
AcDbEntity
  8
D-STR
  6
Continuous
100
AcDbLine
 10
6115.138589570786
 20
5895.529108029459
 30
0.0
 11
6117.920389559039
 21
5898.310708017703
 31
0.0
  0
CIRCLE
  5
278BC
330
1F
100
AcDbEntity
  8
D-STR-DIM
  6
Continuous
100
AcDbCircle
 10
6417.920588290951
 20
5895.529108029459
 30
0.0
 40
5.999997974638371
  0
LINE
  5
278BD
330
1F
100
AcDbEntity
  8
D-STR
  6
Continuous
100
AcDbLine
 10
6092.919389664672
 20
6495.528905493294
 30
0.0
 11
6217.920389136347
 21
6495.528905493294
 31
0.0
  0
LINE
  5
278BE
330
1F
100
AcDbEntity
  8
D-STR
  6
DASHED1
100
AcDbLine
 10
6117.920389559039
 20
6395.52850591599
 30
0.0
 11
5897.920390488966
 21
6395.52850591599
 31
0.0
  0
LINE
  5
278BF
330
1F
100
AcDbEntity
  8
D-DCR-HCH
  6
Continuous
100
AcDbLine
 10
5897.920390488966
 20
6306.928706290499
 30
0.0
 11
5986.520590114389
 21
6395.52850591599
 31
0.0
  0
LINE
  5
278C0
330
1F
100
AcDbEntity
  8
D-STR-STR2
  6
Continuous
100
AcDbLine
 10
6012.92039000287
 20
6335.529306169603
 30
0.0
 11
6012.92039000287
 21
6355.529306085067
 31
0.0
  0
LINE
  5
278C1
330
1F
100
AcDbEntity
  8
D-STR-STR2
  6
Continuous
100
AcDbLine
 10
6012.92039000287
 20
6355.529306085067
 30
0.0
 11
6092.920589664707
 21
6355.529306085067
 31
0.0
  0
LINE
  5
278C2
330
1F
100
AcDbEntity
  8
D-STR-STR2
  6
Continuous
100
AcDbLine
 10
6012.92039000287
 20
6335.529306169603
 30
0.0
 11
6092.920589664707
 21
6335.529306169603
 31
0.0
  0
LINE
  5
278C3
330
1F
100
AcDbEntity
  8
D-STR-STR2
  6
Continuous
100
AcDbLine
 10
5997.920590066268
 20
6580.528705134006
 30
0.0
 11
5897.920390488966
 21
6580.528705134006
 31
0.0
  0
LINE
  5
278C4
330
1F
100
AcDbEntity
  8
D-STR-STR2
  6
Continuous
100
AcDbLine
 10
5997.920590066268
 20
6560.528505218546
 30
0.0
 11
5897.920390488966
 21
6560.528505218546
 31
0.0
  0
LINE
  5
278C5
330
1F
100
AcDbEntity
  8
D-STR-STR2
  6
Continuous
100
AcDbLine
 10
5997.920590066268
 20
6560.528505218546
 30
0.0
 11
5997.920590066268
 21
6580.528705134006
 31
0.0
  0
LINE
  5
278C6
330
1F
100
AcDbEntity
  8
D-STR
  6
Continuous
100
AcDbLine
 10
6117.920389559039
 20
6395.529505915988
 30
0.0
 11
6217.920389136347
 21
6495.529905493295
 31
0.0
  0
LINE
  5
278C7
330
1F
100
AcDbEntity
  8
D-STR-DIM
  6
Continuous
100
AcDbLine
 10
6417.920588290951
 20
6495.528905493294
 30
0.0
 11
6417.920588290951
 21
6445.52930570464
 31
0.0
  0
LINE
  5
278C8
330
1F
100
AcDbEntity
  8
D-STR-DIM
  6
Continuous
100
AcDbLine
 10
6417.920588290951
 20
6395.52850591599
 30
0.0
 11
6417.920588290951
 21
6445.52930570464
 31
0.0
  0
CIRCLE
  5
278C9
330
1F
100
AcDbEntity
  8
D-STR-DIM
  6
Continuous
100
AcDbCircle
 10
6417.920588290951
 20
6495.528905493294
 30
0.0
 40
5.999997974638371
  0
CIRCLE
  5
278CA
330
1F
100
AcDbEntity
  8
D-STR-DIM
  6
Continuous
100
AcDbCircle
 10
6417.920588290951
 20
6395.52850591599
 30
0.0
 40
5.999997974638371
  0
TEXT
  5
278CB
330
1F
100
AcDbEntity
  8
D-STR-DIM
100
AcDbText
 10
6514.240387883798
 20
6375.259906001666
 30
0.0
 40
70.0
  1
100
 50
90.0
100
AcDbText
  0
LINE
  5
278CC
330
1F
100
AcDbEntity
  8
D-STR-DIM
  6
Continuous
100
AcDbLine
 10
6117.920389559039
 20
7395.529101689051
 30
0.0
 11
6717.920427022891
 21
7395.529101689051
 31
0.0
  0
LINE
  5
278CD
330
1F
100
AcDbEntity
  8
D-STR-DIM
  6
Continuous
100
AcDbLine
 10
6217.920389136347
 20
7095.528702957129
 30
0.0
 11
6717.920047022835
 21
7095.528702957129
 31
0.0
  0
TEXT
  5
278CE
330
1F
100
AcDbEntity
  8
D-STR-DIM
100
AcDbText
 10
6066.175389777753
 20
7111.528502889497
 30
0.0
 40
70.0
  1
100
100
AcDbText
  0
LINE
  5
278CF
330
1F
100
AcDbEntity
  8
D-STR-DIM
  6
Continuous
100
AcDbLine
 10
6117.920389559039
 20
7095.528702957129
 30
0.0
 11
6167.920389347695
 21
7095.528702957129
 31
0.0
  0
LINE
  5
278D0
330
1F
100
AcDbEntity
  8
D-STR-DIM
  6
Continuous
100
AcDbLine
 10
6217.920389136347
 20
7095.528702957129
 30
0.0
 11
6167.920389347695
 21
7095.528702957129
 31
0.0
  0
CIRCLE
  5
278D1
330
1F
100
AcDbEntity
  8
D-STR-DIM
  6
Continuous
100
AcDbCircle
 10
6117.920389559039
 20
7095.528702957129
 30
0.0
 40
5.999997974638371
  0
CIRCLE
  5
278D2
330
1F
100
AcDbEntity
  8
D-STR-DIM
  6
Continuous
100
AcDbCircle
 10
6217.920389136347
 20
7095.528702957129
 30
0.0
 40
5.999997974638371
  0
TEXT
  5
278D3
330
1F
100
AcDbEntity
  8
D-STR-DIM
100
AcDbText
 10
5931.060590348865
 20
7411.528901621419
 30
0.0
 40
70.0
  1
220
100
AcDbText
  0
LINE
  5
278D4
330
1F
100
AcDbEntity
  8
D-STR-DIM
  6
Continuous
100
AcDbLine
 10
6117.920389559039
 20
7395.529101689051
 30
0.0
 11
6007.920390024003
 21
7395.529101689051
 31
0.0
  0
LINE
  5
278D5
330
1F
100
AcDbEntity
  8
D-STR-DIM
  6
Continuous
100
AcDbLine
 10
5897.920390488966
 20
7395.529101689051
 30
0.0
 11
6007.920390024003
 21
7395.529101689051
 31
0.0
  0
CIRCLE
  5
278D6
330
1F
100
AcDbEntity
  8
D-STR-DIM
  6
Continuous
100
AcDbCircle
 10
5897.920390488966
 20
7395.529101689051
 30
0.0
 40
5.999997974638371
  0
CIRCLE
  5
278D7
330
1F
100
AcDbEntity
  8
D-STR-DIM
  6
Continuous
100
AcDbCircle
 10
6117.920389559039
 20
7395.529101689051
 30
0.0
 40
5.999997974638371
  0
TEXT
  5
278D8
330
1F
100
AcDbEntity
  8
D-STR-DIM
100
AcDbText
 10
6599.060587525298
 20
7111.528502889497
 30
0.0
 40
70.0
  1
1000
100
AcDbText
  0
TEXT
  5
278D9
330
1F
100
AcDbEntity
  8
D-STR-DIM
100
AcDbText
 10
6599.060587525298
 20
7411.528901621419
 30
0.0
 40
70.0
  1
1200
100
AcDbText
  0
LINE
  5
278DA
330
1F
100
AcDbEntity
  8
D-STR-DIM
  6
Continuous
100
AcDbLine
 10
7217.919884909385
 20
6715.528904647905
 30
0.0
 11
7217.919884909385
 21
7125.528502830322
 31
0.0
  0
LINE
  5
278DB
330
1F
100
AcDbEntity
  8
D-STR-DIM
  6
Continuous
100
AcDbLine
 10
7317.920484486673
 20
6715.528904647905
 30
0.0
 11
7317.920484486673
 21
7425.528901562237
 31
0.0
  0
TEXT
  5
278DC
330
1F
100
AcDbEntity
  8
D-STR-DIM
100
AcDbText
 10
7771.920442567644
 20
6444.846505707527
 30
0.0
 40
70.0
  1
76
 50
90.0
100
AcDbText
  0
LINE
  5
278DD
330
1F
100
AcDbEntity
  8
D-STR-DIM
  6
Continuous
100
AcDbLine
 10
7567.92040342991
 20
6395.52850591599
 30
0.0
 11
7757.920402626794
 21
6395.52850591599
 31
0.0
  0
LINE
  5
278DE
330
1F
100
AcDbEntity
  8
D-STR-DIM
  6
Continuous
100
AcDbLine
 10
7557.920383556787
 20
6419.529105814544
 30
0.0
 11
7817.92044237319
 21
6419.529105814544
 31
0.0
  0
LINE
  5
278DF
330
1F
100
AcDbEntity
  8
D-STR-DIM
  6
Continuous
100
AcDbLine
 10
7557.920383556787
 20
6495.528905493294
 30
0.0
 11
8367.92040004836
 21
6495.528905493294
 31
0.0
  0
LINE
  5
278E0
330
1F
100
AcDbEntity
  8
D-STR
  6
Continuous
100
AcDbLine
 10
7452.920483916037
 20
6070.528707289745
 30
0.0
 11
7452.920483916037
 21
6320.528506233011
 31
0.0
  0
LINE
  5
278E1
330
1F
100
AcDbEntity
  8
D-STR
  6
Continuous
100
AcDbLine
 10
7402.920364127417
 20
6070.528707289745
 30
0.0
 11
7402.920364127417
 21
6320.528506233011
 31
0.0
  0
LINE
  5
278E2
330
1F
100
AcDbEntity
  8
D-STR-DIM
  6
Continuous
100
AcDbLine
 10
7402.920364127417
 20
5940.528707839247
 30
0.0
 11
7427.920364021741
 21
5940.528707839247
 31
0.0
  0
TEXT
  5
278E3
330
1F
100
AcDbEntity
  8
D-STR-DIM
100
AcDbText
 10
7373.060444253617
 20
5844.208508246385
 30
0.0
 40
70.0
  1
50
100
AcDbText
  0
LINE
  5
278E4
330
1F
100
AcDbEntity
  8
D-BMK
  6
CENTER2
100
AcDbLine
 10
7287.920464613475
 20
6195.52850676138
 30
0.0
 11
7431.920664004806
 21
6195.52850676138
 31
0.0
  0
TEXT
  5
278E5
330
1F
100
AcDbEntity
  8
D-STR-DIM
100
AcDbText
 10
7183.982625052816
 20
5956.529307771616
 30
0.0
 40
70.0
  1
85
100
AcDbText
  0
LINE
  5
278E6
330
1F
100
AcDbEntity
  8
D-STR-DIM
  6
Continuous
100
AcDbLine
 10
7360.420424307008
 20
5940.528707839247
 30
0.0
 11
7174.842465091424
 21
5940.528707839247
 31
0.0
  0
LINE
  5
278E7
330
1F
100
AcDbEntity
  8
D-STR-DIM
  6
Continuous
100
AcDbLine
 10
7402.920364127417
 20
5940.528707839247
 30
0.0
 11
7360.420424307008
 21
5940.528707839247
 31
0.0
  0
CIRCLE
  5
278E8
330
1F
100
AcDbEntity
  8
D-STR-DIM
  6
Continuous
100
AcDbCircle
 10
7402.920364127417
 20
5940.528707839247
 30
0.0
 40
5.999997974638371
  0
LINE
  5
278E9
330
1F
100
AcDbEntity
  8
D-STR-DIM
  6
Continuous
100
AcDbLine
 10
7402.920364127417
 20
6050.528707289744
 30
0.0
 11
7402.920364127417
 21
5910.528907966054
 31
0.0
  0
CIRCLE
  5
278EA
330
1F
100
AcDbEntity
  8
D-STR-DIM
  6
Continuous
100
AcDbCircle
 10
7317.920484486673
 20
5940.528707839247
 30
0.0
 40
5.999997974638371
  0
LINE
  5
278EB
330
1F
100
AcDbEntity
  8
D-STR
  6
Continuous
100
AcDbLine
 10
7317.919864486684
 20
6060.529107332015
 30
0.0
 11
7402.919264127413
 21
6070.528707289745
 31
0.0
  0
LINE
  5
278EC
330
1F
100
AcDbEntity
  8
D-STR-DIM
  6
Continuous
100
AcDbLine
 10
7317.920484486673
 20
5940.528707839247
 30
0.0
 11
7360.420424307008
 21
5940.528707839247
 31
0.0
  0
LINE
  5
278ED
330
1F
100
AcDbEntity
  8
D-STR-STR2
  6
Continuous
100
AcDbLine
 10
7401.920644131606
 20
6245.52930655003
 30
0.0
 11
7401.920644131606
 21
6145.528906972726
 31
0.0
  0
LINE
  5
278EE
330
1F
100
AcDbEntity
  8
D-STR-STR2
  6
Continuous
100
AcDbLine
 10
7317.920484486673
 20
6245.52930655003
 30
0.0
 11
7401.920644131606
 21
6245.52930655003
 31
0.0
  0
LINE
  5
278EF
330
1F
100
AcDbEntity
  8
D-STR-STR2
  6
Continuous
100
AcDbLine
 10
7401.920644131606
 20
6145.528906972726
 30
0.0
 11
7317.920484486673
 21
6145.528906972726
 31
0.0
  0
TEXT
  5
278F0
330
1F
100
AcDbEntity
  8
D-STR-DIM
100
AcDbText
 10
7563.673243447924
 20
5956.529307771616
 30
0.0
 40
70.0
  1
85
100
AcDbText
  0
LINE
  5
278F1
330
1F
100
AcDbEntity
  8
D-STR-DIM
  6
Continuous
100
AcDbLine
 10
7495.420423736374
 20
5940.528707839247
 30
0.0
 11
7682.533402945475
 21
5940.528707839247
 31
0.0
  0
LINE
  5
278F2
330
1F
100
AcDbEntity
  8
D-STR
  6
Continuous
100
AcDbLine
 10
7452.920483916037
 20
6070.528707289745
 30
0.0
 11
7537.920383556786
 21
6060.529107332015
 31
0.0
  0
CIRCLE
  5
278F3
330
1F
100
AcDbEntity
  8
D-STR-DIM
  6
Continuous
100
AcDbCircle
 10
7537.920383556786
 20
5940.528707839247
 30
0.0
 40
5.999997974638371
  0
LINE
  5
278F4
330
1F
100
AcDbEntity
  8
D-STR-DIM
  6
Continuous
100
AcDbLine
 10
7452.920483916037
 20
5940.528707839247
 30
0.0
 11
7495.420423736374
 21
5940.528707839247
 31
0.0
  0
LINE
  5
278F5
330
1F
100
AcDbEntity
  8
D-STR-DIM
  6
Continuous
100
AcDbLine
 10
7452.920483916037
 20
5940.528707839247
 30
0.0
 11
7427.920364021741
 21
5940.528707839247
 31
0.0
  0
CIRCLE
  5
278F6
330
1F
100
AcDbEntity
  8
D-STR-DIM
  6
Continuous
100
AcDbCircle
 10
7452.920483916037
 20
5940.528707839247
 30
0.0
 40
5.999997974638371
  0
LINE
  5
278F7
330
1F
100
AcDbEntity
  8
D-STR-DIM
  6
Continuous
100
AcDbLine
 10
7537.920383556786
 20
5940.528707839247
 30
0.0
 11
7495.420423736374
 21
5940.528707839247
 31
0.0
  0
LINE
  5
278F8
330
1F
100
AcDbEntity
  8
D-STR-DIM
  6
Continuous
100
AcDbLine
 10
7452.920483916037
 20
6050.528707289744
 30
0.0
 11
7452.920483916037
 21
5910.528907966054
 31
0.0
  0
LINE
  5
278F9
330
1F
100
AcDbEntity
  8
D-STR
  6
Continuous
100
AcDbLine
 10
7217.920384909408
 20
6495.528905493294
 30
0.0
 11
7317.920484486673
 21
6395.529505915988
 31
0.0
  0
LINE
  5
278FA
330
1F
100
AcDbEntity
  8
D-STR
  6
Continuous
100
AcDbLine
 10
7342.921084380981
 20
6495.528905493294
 30
0.0
 11
7217.919884909385
 21
6495.528905493294
 31
0.0
  0
LINE
  5
278FB
330
1F
100
AcDbEntity
  8
D-STR-STR2
  6
Continuous
100
AcDbLine
 10
7422.906964042907
 20
6409.535505856783
 30
0.0
 11
7422.906964042907
 21
6429.535505772244
 31
0.0
  0
LINE
  5
278FC
330
1F
100
AcDbEntity
  8
D-STR
  6
Continuous
100
AcDbLine
 10
7402.920364127417
 20
6320.528506233011
 30
0.0
 11
7317.920484486673
 21
6330.527906190746
 31
0.0
  0
LINE
  5
278FD
330
1F
100
AcDbEntity
  8
D-STR-STR2
  6
Continuous
100
AcDbLine
 10
7422.906964042907
 20
6429.535505772244
 30
0.0
 11
7342.906964381064
 21
6429.534505772249
 31
0.0
  0
LINE
  5
278FE
330
1F
100
AcDbEntity
  8
D-STR-STR2
  6
Continuous
100
AcDbLine
 10
7422.906964042907
 20
6409.535505856783
 30
0.0
 11
7342.906964381064
 21
6409.534505856787
 31
0.0
  0
LINE
  5
278FF
330
1F
100
AcDbEntity
  8
D-STR
  6
Continuous
100
AcDbLine
 10
7537.921003556774
 20
6330.527906190746
 30
0.0
 11
7452.919863916045
 21
6320.528506233011
 31
0.0
  0
LINE
  5
27900
330
1F
100
AcDbEntity
  8
D-STR-DIM
  6
Continuous
100
AcDbLine
 10
7787.920422499992
 20
6457.529505653917
 30
0.0
 11
7787.920422499992
 21
6554.56610524375
 31
0.0
  0
LINE
  5
27901
330
1F
100
AcDbEntity
  8
D-STR-DIM
  6
Continuous
100
AcDbLine
 10
7807.920422499993
 20
6395.52850591599
 30
0.0
 11
8067.920421316449
 21
6395.52850591599
 31
0.0
  0
LINE
  5
27902
330
1F
100
AcDbEntity
  8
D-STR-DIM
  6
Continuous
100
AcDbLine
 10
7787.920422499992
 20
6419.529105814544
 30
0.0
 11
7787.920422499992
 21
6457.529505653917
 31
0.0
  0
LINE
  5
27903
330
1F
100
AcDbEntity
  8
D-STR-DIM
  6
Continuous
100
AcDbLine
 10
7787.920422499992
 20
6495.528905493294
 30
0.0
 11
7787.920422499992
 21
6457.529505653917
 31
0.0
  0
CIRCLE
  5
27904
330
1F
100
AcDbEntity
  8
D-STR-DIM
  6
Continuous
100
AcDbCircle
 10
7787.920422499992
 20
6419.529105814544
 30
0.0
 40
5.999997974638371
  0
CIRCLE
  5
27905
330
1F
100
AcDbEntity
  8
D-STR-DIM
  6
Continuous
100
AcDbCircle
 10
7787.920422499992
 20
6495.528905493294
 30
0.0
 40
5.999997974638371
  0
LINE
  5
27906
330
1F
100
AcDbEntity
  8
D-STR-DIM
  6
Continuous
100
AcDbLine
 10
8037.920401443249
 20
6395.52850591599
 30
0.0
 11
8037.920401443249
 21
6445.52930570464
 31
0.0
  0
LINE
  5
27907
330
1F
100
AcDbEntity
  8
D-STR-DIM
  6
Continuous
100
AcDbLine
 10
8037.920401443249
 20
6495.528905493294
 30
0.0
 11
8037.920401443249
 21
6445.52930570464
 31
0.0
  0
CIRCLE
  5
27908
330
1F
100
AcDbEntity
  8
D-STR-DIM
  6
Continuous
100
AcDbCircle
 10
8037.920401443249
 20
6395.52850591599
 30
0.0
 40
5.999997974638371
  0
CIRCLE
  5
27909
330
1F
100
AcDbEntity
  8
D-STR-DIM
  6
Continuous
100
AcDbCircle
 10
8037.920401443249
 20
6495.528905493294
 30
0.0
 40
5.999997974638371
  0
TEXT
  5
2790A
330
1F
100
AcDbEntity
  8
D-STR-DIM
100
AcDbText
 10
8021.920421510902
 20
6340.610706148127
 30
0.0
 40
70.0
  1
100
 50
90.0
100
AcDbText
  0
LINE
  5
2790B
330
1F
100
AcDbEntity
  8
D-STR-DIM
  6
Continuous
100
AcDbLine
 10
8337.920400175171
 20
6495.528905493294
 30
0.0
 11
8337.920400175171
 21
6595.528505070603
 31
0.0
  0
TEXT
  5
2790C
330
1F
100
AcDbEntity
  8
D-STR-DIM
100
AcDbText
 10
8321.920400242815
 20
6508.668905437753
 30
0.0
 40
70.0
  1
200
 50
90.0
100
AcDbText
  0
CIRCLE
  5
2790D
330
1F
100
AcDbEntity
  8
D-STR-DIM
  6
Continuous
100
AcDbCircle
 10
8337.920400175171
 20
6495.528905493294
 30
0.0
 40
5.999997974638371
  0
LINE
  5
2790E
330
1F
100
AcDbEntity
  8
D-STR-DIM
  6
Continuous
100
AcDbLine
 10
8337.920400175171
 20
6695.528904647905
 30
0.0
 11
8337.920400175171
 21
6595.528505070603
 31
0.0
  0
CIRCLE
  5
2790F
330
1F
100
AcDbEntity
  8
D-STR-DIM
  6
Continuous
100
AcDbCircle
 10
8337.920400175171
 20
6695.528904647905
 30
0.0
 40
5.999997974638371
  0
LINE
  5
27910
330
1F
100
AcDbEntity
  8
D-STR-DIM
  6
Continuous
100
AcDbLine
 10
7217.919884909385
 20
7095.528702957129
 30
0.0
 11
7267.919864698029
 21
7095.528702957129
 31
0.0
  0
TEXT
  5
27911
330
1F
100
AcDbEntity
  8
D-STR-DIM
100
AcDbText
 10
7164.089065136924
 20
7111.528502889497
 30
0.0
 40
70.0
  1
100
100
AcDbText
  0
CIRCLE
  5
27912
330
1F
100
AcDbEntity
  8
D-STR-DIM
  6
Continuous
100
AcDbCircle
 10
7217.919884909385
 20
7095.528702957129
 30
0.0
 40
5.999997974638371
  0
LINE
  5
27913
330
1F
100
AcDbEntity
  8
D-STR-DIM
  6
Continuous
100
AcDbLine
 10
7317.919864486684
 20
7095.528702957129
 30
0.0
 11
7267.919864698029
 21
7095.528702957129
 31
0.0
  0
CIRCLE
  5
27914
330
1F
100
AcDbEntity
  8
D-STR-DIM
  6
Continuous
100
AcDbCircle
 10
7317.919864486684
 20
7095.528702957129
 30
0.0
 40
5.999997974638371
  0
LINE
  5
27915
330
1F
100
AcDbEntity
  8
D-STR-DIM
  6
Continuous
100
AcDbLine
 10
7317.920484486673
 20
7395.529101689051
 30
0.0
 11
7427.920364021741
 21
7395.529101689051
 31
0.0
  0
TEXT
  5
27916
330
1F
100
AcDbEntity
  8
D-STR-DIM
100
AcDbText
 10
7331.060424431169
 20
7411.528901621419
 30
0.0
 40
70.0
  1
220
100
AcDbText
  0
CIRCLE
  5
27917
330
1F
100
AcDbEntity
  8
D-STR-DIM
  6
Continuous
100
AcDbCircle
 10
7317.920484486673
 20
7395.529101689051
 30
0.0
 40
5.999997974638371
  0
LINE
  5
27918
330
1F
100
AcDbEntity
  8
D-STR-DIM
  6
Continuous
100
AcDbLine
 10
7537.920383556786
 20
7395.529101689051
 30
0.0
 11
7427.920364021741
 21
7395.529101689051
 31
0.0
  0
CIRCLE
  5
27919
330
1F
100
AcDbEntity
  8
D-STR-DIM
  6
Continuous
100
AcDbCircle
 10
7537.920383556786
 20
7395.529101689051
 30
0.0
 40
5.999997974638371
  0
TEXT
  5
2791A
330
1F
100
AcDbEntity
  8
D-TTL-TXT
100
AcDbText
 10
7653.046518270705
 20
7147.927937792832
 30
0.0
 40
100.0
  1
　民　地　側　
100
AcDbText
  0
TEXT
  5
2792D
330
1F
100
AcDbEntity
  8
D-TTL-TXT
100
AcDbText
 10
5155.559073286504
 20
10105.36421222322
 30
0.0
 40
140.0
  1
 頂　版　
100
AcDbText
  0
CIRCLE
  5
2793D
330
1F
100
AcDbEntity
  8
D-STR-DIM
  6
Continuous
100
AcDbCircle
 10
5897.920390488966
 20
10195.52868943092
 30
0.0
 40
5.999997974638371
  0
TEXT
  5
27950
330
1F
100
AcDbEntity
  8
D-STR-DIM
100
AcDbText
 10
11334.24036750995
 20
5770.669108557235
 30
0.0
 40
70.0
  1
10
 50
90.0
100
AcDbText
  0
LINE
  5
27951
330
1F
100
AcDbEntity
  8
D-BMK
  6
CENTER2
100
AcDbLine
 10
10662.92017034753
 20
5860.529308177404
 30
0.0
 11
10662.92017034753
 21
5530.529309572291
 31
0.0
  0
LINE
  5
27952
330
1F
100
AcDbEntity
  8
D-STR
  6
Continuous
100
AcDbLine
 10
10927.92016922739
 20
6495.528905493294
 30
0.0
 11
10927.92016922739
 21
4595.52911352448
 31
0.0
  0
LINE
  5
27953
330
1F
100
AcDbEntity
  8
D-STR
  6
Continuous
100
AcDbLine
 10
11037.92016876243
 20
6695.528904647905
 30
0.0
 11
11037.92016876243
 21
4395.52911436987
 31
0.0
  0
LINE
  5
27954
330
1F
100
AcDbEntity
  8
D-STR
  6
Continuous
100
AcDbLine
 10
10937.92016918512
 20
6485.528505535566
 30
0.0
 11
10937.92016918512
 21
4605.52871348221
 31
0.0
  0
LINE
  5
27955
330
1F
100
AcDbEntity
  8
D-STR-DIM
  6
Continuous
100
AcDbLine
 10
9137.920356793678
 20
5695.529308874847
 30
0.0
 11
9137.920356793678
 21
5945.528907818112
 31
0.0
  0
LINE
  5
27956
330
1F
100
AcDbEntity
  8
D-BMK
  6
CENTER2
100
AcDbLine
 10
9912.920313517785
 20
5860.529308177404
 30
0.0
 11
9912.920313517785
 21
5530.529309572291
 31
0.0
  0
LINE
  5
27957
330
1F
100
AcDbEntity
  8
D-STR
  6
Continuous
100
AcDbLine
 10
9637.920354680209
 20
6485.528505535566
 30
0.0
 11
9637.920354680209
 21
4605.52871348221
 31
0.0
  0
LINE
  5
27958
330
1F
100
AcDbEntity
  8
D-STR
  6
Continuous
100
AcDbLine
 10
10387.92029150998
 20
6485.528505535566
 30
0.0
 11
10387.92029150998
 21
4605.52871348221
 31
0.0
  0
LINE
  5
27959
330
1F
100
AcDbEntity
  8
D-STR
  6
Continuous
100
AcDbLine
 10
10187.92035235539
 20
6485.528505535566
 30
0.0
 11
10187.92035235539
 21
4605.52871348221
 31
0.0
  0
LINE
  5
2795A
330
1F
100
AcDbEntity
  8
D-STR
  6
Continuous
100
AcDbLine
 10
9537.920315102885
 20
6695.528904647905
 30
0.0
 11
9537.920315102885
 21
4395.52911436987
 31
0.0
  0
LINE
  5
2795B
330
1F
100
AcDbEntity
  8
D-STR
  6
Continuous
100
AcDbLine
 10
10177.92031239765
 20
6495.528905493294
 30
0.0
 11
10177.92031239765
 21
4595.52911352448
 31
0.0
  0
LINE
  5
2795C
330
1F
100
AcDbEntity
  8
D-STR
  6
Continuous
100
AcDbLine
 10
9647.92033463793
 20
6495.528905493294
 30
0.0
 11
9647.92033463793
 21
4595.52911352448
 31
0.0
  0
LINE
  5
2795D
330
1F
100
AcDbEntity
  8
D-STR
  6
Continuous
100
AcDbLine
 10
10397.92033146772
 20
6495.528905493294
 30
0.0
 11
10397.92033146772
 21
4595.52911352448
 31
0.0
  0
TEXT
  5
27961
330
1F
100
AcDbEntity
  8
D-STR-DIM
100
AcDbText
 10
8521.920387397408
 20
2158.669124247635
 30
0.0
 40
59.99999974638362
  1
500
 50
90.0
100
AcDbText
  0
LINE
  5
27962
330
1F
100
AcDbEntity
  8
D-STR-DIM
  6
Continuous
100
AcDbLine
 10
8537.92038132979
 20
1995.528924937218
 30
0.0
 11
8537.92038132979
 21
2245.529123880482
 31
0.0
  0
LINE
  5
27963
330
1F
100
AcDbEntity
  8
D-STR-DIM
  6
Continuous
100
AcDbLine
 10
8537.92038132979
 20
995.5289291641584
 30
0.0
 11
8537.92038132979
 21
1495.529127050688
 31
0.0
  0
CIRCLE
  5
27964
330
1F
100
AcDbEntity
  8
D-STR-DIM
  6
Continuous
100
AcDbCircle
 10
8537.92038132979
 20
995.5289291641584
 30
0.0
 40
5.999997974638371
  0
LINE
  5
27965
330
1F
100
AcDbEntity
  8
D-STR-DIM
  6
Continuous
100
AcDbLine
 10
8537.92038132979
 20
1995.528924937218
 30
0.0
 11
8537.92038132979
 21
1495.529127050688
 31
0.0
  0
TEXT
  5
27966
330
1F
100
AcDbEntity
  8
D-STR-DIM
100
AcDbText
 10
8521.920387397408
 20
1376.669127553101
 30
0.0
 40
59.99999974638362
  1
1000
 50
90.0
100
AcDbText
  0
CIRCLE
  5
27967
330
1F
100
AcDbEntity
  8
D-STR-DIM
  6
Continuous
100
AcDbCircle
 10
8537.92038132979
 20
1995.528924937218
 30
0.0
 40
5.999997974638371
  0
CIRCLE
  5
27968
330
1F
100
AcDbEntity
  8
D-STR-DIM
  6
Continuous
100
AcDbCircle
 10
8537.92038132979
 20
1995.528924937218
 30
0.0
 40
5.999997974638371
  0
LINE
  5
27969
330
1F
100
AcDbEntity
  8
D-STR-DIM
  6
Continuous
100
AcDbLine
 10
10817.92016977689
 20
5830.52870830421
 30
0.0
 11
11267.9203677903
 21
5830.52870830421
 31
0.0
  0
LINE
  5
2796A
330
1F
100
AcDbEntity
  8
D-STR-DIM
  6
Continuous
100
AcDbLine
 10
10817.92016977689
 20
5820.52910834648
 30
0.0
 11
11267.9203677903
 21
5820.52910834648
 31
0.0
  0
TEXT
  5
2796B
330
1F
100
AcDbEntity
  8
D-STR-DIM
100
AcDbText
 10
10981.05036900283
 20
5011.528711766078
 30
0.0
 40
70.0
  1
100
100
AcDbText
  0
LINE
  5
2796C
330
1F
100
AcDbEntity
  8
D-STR-DIM
  6
Continuous
100
AcDbLine
 10
10817.92016977689
 20
5560.528909445482
 30
0.0
 11
11267.9203677903
 21
5560.528909445482
 31
0.0
  0
LINE
  5
2796D
330
1F
100
AcDbEntity
  8
D-STR-DIM
  6
Continuous
100
AcDbLine
 10
10817.92016977689
 20
5570.529509403211
 30
0.0
 11
11267.9203677903
 21
5570.529509403211
 31
0.0
  0
LINE
  5
2796E
330
1F
100
AcDbEntity
  8
D-STR-DIM
  6
Continuous
100
AcDbLine
 10
10987.92016897378
 20
4995.528911833706
 30
0.0
 11
11154.77016826856
 21
4995.528911833706
 31
0.0
  0
CIRCLE
  5
2796F
330
1F
100
AcDbEntity
  8
D-STR-DIM
  6
Continuous
100
AcDbCircle
 10
11037.92016876243
 20
4995.528911833706
 30
0.0
 40
5.999997974638371
  0
CIRCLE
  5
27970
330
1F
100
AcDbEntity
  8
D-STR-DIM
  6
Continuous
100
AcDbCircle
 10
11037.92016876243
 20
3995.529316060644
 30
0.0
 40
5.999997974638371
  0
CIRCLE
  5
27971
330
1F
100
AcDbEntity
  8
D-STR-DIM
  6
Continuous
100
AcDbCircle
 10
11037.92016876243
 20
3695.528917328728
 30
0.0
 40
5.999997974638371
  0
TEXT
  5
27972
330
1F
100
AcDbEntity
  8
D-STR-DIM
100
AcDbText
 10
10983.06016899435
 20
3899.209116467784
 30
0.0
 40
70.0
  1
65
100
AcDbText
  0
LINE
  5
27973
330
1F
100
AcDbEntity
  8
D-STR-DIM
  6
Continuous
100
AcDbLine
 10
11037.92016876243
 20
4375.529114369871
 30
0.0
 11
11037.92016876243
 21
3665.529317455534
 31
0.0
  0
LINE
  5
27974
330
1F
100
AcDbEntity
  8
D-STR-DIM
  6
Continuous
100
AcDbLine
 10
10972.92016903718
 20
4375.529114369871
 30
0.0
 11
10972.92016903718
 21
3965.528716187455
 31
0.0
  0
LINE
  5
27975
330
1F
100
AcDbEntity
  8
D-STR-DIM
  6
Continuous
100
AcDbLine
 10
9537.920315102885
 20
4375.529114369871
 30
0.0
 11
9537.920315102885
 21
3665.529317455534
 31
0.0
  0
LINE
  5
27976
330
1F
100
AcDbEntity
  8
D-STR-DIM
  6
Continuous
100
AcDbLine
 10
9602.920314828139
 20
4375.529114369871
 30
0.0
 11
9602.920314828139
 21
3965.528716187455
 31
0.0
  0
LINE
  5
27977
330
1F
100
AcDbEntity
  8
D-STR-DIM
  6
Continuous
100
AcDbLine
 10
10237.92033214403
 20
4375.529114369871
 30
0.0
 11
10237.92033214403
 21
3965.528716187455
 31
0.0
  0
LINE
  5
27978
330
1F
100
AcDbEntity
  8
D-STR-DIM
  6
Continuous
100
AcDbLine
 10
10337.92031172133
 20
4375.529114369871
 30
0.0
 11
10337.92031172133
 21
3965.528716187455
 31
0.0
  0
LINE
  5
27979
330
1F
100
AcDbEntity
  8
D-STR-DIM
  6
Continuous
100
AcDbLine
 10
9537.920315102885
 20
3695.528917328728
 30
0.0
 11
10287.92031193268
 21
3695.528917328728
 31
0.0
  0
LINE
  5
2797A
330
1F
100
AcDbEntity
  8
D-STR-DIM
  6
Continuous
100
AcDbLine
 10
8537.92038132979
 20
2495.528922823749
 30
0.0
 11
8537.92038132979
 21
2245.529123880482
 31
0.0
  0
CIRCLE
  5
2797B
330
1F
100
AcDbEntity
  8
D-STR-DIM
  6
Continuous
100
AcDbCircle
 10
8537.92038132979
 20
2495.528922823749
 30
0.0
 40
5.999997974638371
  0
CIRCLE
  5
2797C
330
1F
100
AcDbEntity
  8
D-STR-DIM
  6
Continuous
100
AcDbCircle
 10
9537.920315102885
 20
3695.528917328728
 30
0.0
 40
5.999997974638371
  0
TEXT
  5
2797D
330
1F
100
AcDbEntity
  8
D-STR-DIM
100
AcDbText
 10
9483.060355334748
 20
3899.209116467784
 30
0.0
 40
70.0
  1
65
100
AcDbText
  0
TEXT
  5
2797E
330
1F
100
AcDbEntity
  8
D-STR-DIM
100
AcDbText
 10
10169.06033243512
 20
3711.528517261097
 30
0.0
 40
70.0
  1
1500
100
AcDbText
  0
LINE
  5
2797F
330
1F
100
AcDbEntity
  8
D-STR-DIM
  6
Continuous
100
AcDbLine
 10
11037.92016876243
 20
3695.528917328728
 30
0.0
 11
10287.92031193268
 21
3695.528917328728
 31
0.0
  0
TEXT
  5
27980
330
1F
100
AcDbEntity
  8
D-STR-DIM
100
AcDbText
 10
10201.06031229982
 20
3899.209116467784
 30
0.0
 40
70.0
  1
100
100
AcDbText
  0
TEXT
  5
27981
330
1F
100
AcDbEntity
  8
D-STR-DIM
100
AcDbText
 10
9661.46235458064
 20
5011.528711766078
 30
0.0
 40
70.0
  1
10
100
AcDbText
  0
LINE
  5
27982
330
1F
100
AcDbEntity
  8
D-STR-DIM
  6
Continuous
100
AcDbLine
 10
9642.920314659059
 20
4995.528911833706
 30
0.0
 11
9771.182674116911
 21
4995.528911833706
 31
0.0
  0
LINE
  5
27983
330
1F
100
AcDbEntity
  8
D-STR
  6
Continuous
100
AcDbLine
 10
10177.92031239765
 20
4695.528513101788
 30
0.0
 11
9647.92033463793
 21
4695.528513101788
 31
0.0
  0
LINE
  5
27984
330
1F
100
AcDbEntity
  8
D-STR-DIM
  6
Continuous
100
AcDbLine
 10
9602.920314828139
 20
3995.529316060644
 30
0.0
 11
9920.420353486093
 21
3995.529316060644
 31
0.0
  0
LINE
  5
27985
330
1F
100
AcDbEntity
  8
D-STR
  6
Continuous
100
AcDbLine
 10
11037.92016876243
 20
4595.52911352448
 30
0.0
 11
9537.920315102885
 21
4595.52911352448
 31
0.0
  0
LINE
  5
27986
330
1F
100
AcDbEntity
  8
D-STR
  6
Continuous
100
AcDbLine
 10
11037.92016876243
 20
4395.52911436987
 30
0.0
 11
9537.920315102885
 21
4395.52911436987
 31
0.0
  0
LINE
  5
27987
330
1F
100
AcDbEntity
  8
D-STR-DIM
  6
Continuous
100
AcDbLine
 10
9137.920356793678
 20
4595.52911352448
 30
0.0
 11
9137.920356793678
 21
5145.529111199667
 31
0.0
  0
LINE
  5
27988
330
1F
100
AcDbEntity
  8
D-STR-DIM
  6
Continuous
100
AcDbLine
 10
9537.920315102885
 20
3995.529316060644
 30
0.0
 11
9570.420354965525
 21
3995.529316060644
 31
0.0
  0
CIRCLE
  5
27989
330
1F
100
AcDbEntity
  8
D-STR-DIM
  6
Continuous
100
AcDbCircle
 10
9537.920315102885
 20
3995.529316060644
 30
0.0
 40
5.999997974638371
  0
LINE
  5
2798A
330
1F
100
AcDbEntity
  8
D-STR-DIM
  6
Continuous
100
AcDbLine
 10
9602.920314828139
 20
3995.529316060644
 30
0.0
 11
9570.420354965525
 21
3995.529316060644
 31
0.0
  0
CIRCLE
  5
2798B
330
1F
100
AcDbEntity
  8
D-STR-DIM
  6
Continuous
100
AcDbCircle
 10
9602.920314828139
 20
3995.529316060644
 30
0.0
 40
5.999997974638371
  0
LINE
  5
2798C
330
1F
100
AcDbEntity
  8
D-STR-DIM
  6
Continuous
100
AcDbLine
 10
9517.920315102886
 20
4595.52911352448
 30
0.0
 11
9107.920336920477
 21
4595.52911352448
 31
0.0
  0
CIRCLE
  5
2798D
330
1F
100
AcDbEntity
  8
D-STR-DIM
  6
Continuous
100
AcDbCircle
 10
9137.920356793678
 20
4595.52911352448
 30
0.0
 40
5.999997974638371
  0
CIRCLE
  5
2798E
330
1F
100
AcDbEntity
  8
D-STR-STR2
  6
Continuous
100
AcDbCircle
 10
9602.920314828139
 20
4678.529113173644
 30
0.0
 40
9.999997957730611
  0
LINE
  5
2798F
330
1F
100
AcDbEntity
  8
D-BMK
  6
CENTER2
100
AcDbLine
 10
9602.920314828139
 20
4718.529313004565
 30
0.0
 11
9602.920314828139
 21
4638.528913342724
 31
0.0
  0
LINE
  5
27990
330
1F
100
AcDbEntity
  8
D-STR
  6
Continuous
100
AcDbLine
 10
9537.920315102885
 20
4605.52871348221
 30
0.0
 11
9637.920354680209
 21
4605.52871348221
 31
0.0
  0
LINE
  5
27991
330
1F
100
AcDbEntity
  8
D-STR
  6
Continuous
100
AcDbLine
 10
9537.920315102885
 20
4595.52911352448
 30
0.0
 11
9647.92033463793
 21
4595.52911352448
 31
0.0
  0
LINE
  5
27992
330
1F
100
AcDbEntity
  8
D-BMK
  6
CENTER2
100
AcDbLine
 10
9562.920314997212
 20
4678.529113173644
 30
0.0
 11
9642.920314659059
 21
4678.529113173644
 31
0.0
  0
LINE
  5
27993
330
1F
100
AcDbEntity
  8
D-STR
  6
Continuous
100
AcDbLine
 10
9637.920354680209
 20
4605.52871348221
 30
0.0
 11
9647.92033463793
 21
4595.528113524483
 31
0.0
  0
TEXT
  5
27994
330
1F
100
AcDbEntity
  8
D-STR-DIM
100
AcDbText
 10
9121.920336861244
 20
5026.669111702078
 30
0.0
 40
70.0
  1
1100
 50
90.0
100
AcDbText
  0
LINE
  5
27995
330
1F
100
AcDbEntity
  8
D-STR-DIM
  6
Continuous
100
AcDbLine
 10
9137.920356793678
 20
5695.529308874847
 30
0.0
 11
9137.920356793678
 21
5145.529111199667
 31
0.0
  0
TEXT
  5
27996
330
1F
100
AcDbEntity
  8
D-STR-DIM
100
AcDbText
 10
9421.070755596756
 20
5011.528711766078
 30
0.0
 40
70.0
  1
100
100
AcDbText
  0
LINE
  5
27997
330
1F
100
AcDbEntity
  8
D-STR-DIM
  6
Continuous
100
AcDbLine
 10
9537.920315102885
 20
4995.528911833706
 30
0.0
 11
9587.920374891561
 21
4995.528911833706
 31
0.0
  0
LINE
  5
27998
330
1F
100
AcDbEntity
  8
D-STR-DIM
  6
Continuous
100
AcDbLine
 10
9587.920374891561
 20
4995.528911833706
 30
0.0
 11
9421.070335596764
 21
4995.528911833706
 31
0.0
  0
CIRCLE
  5
27999
330
1F
100
AcDbEntity
  8
D-STR-DIM
  6
Continuous
100
AcDbCircle
 10
9537.920315102885
 20
4995.528911833706
 30
0.0
 40
5.999997974638371
  0
LINE
  5
2799A
330
1F
100
AcDbEntity
  8
D-STR-DIM
  6
Continuous
100
AcDbLine
 10
9637.920354680209
 20
4995.528911833706
 30
0.0
 11
9642.920314659059
 21
4995.528911833706
 31
0.0
  0
LINE
  5
2799B
330
1F
100
AcDbEntity
  8
D-STR-DIM
  6
Continuous
100
AcDbLine
 10
9637.920354680209
 20
4995.528911833706
 30
0.0
 11
9587.920374891561
 21
4995.528911833706
 31
0.0
  0
LINE
  5
2799C
330
1F
100
AcDbEntity
  8
D-STR-DIM
  6
Continuous
100
AcDbLine
 10
9647.92033463793
 20
4995.528911833706
 30
0.0
 11
9642.920314659059
 21
4995.528911833706
 31
0.0
  0
CIRCLE
  5
2799D
330
1F
100
AcDbEntity
  8
D-STR-DIM
  6
Continuous
100
AcDbCircle
 10
9647.92033463793
 20
4995.528911833706
 30
0.0
 40
5.999997974638371
  0
CIRCLE
  5
2799E
330
1F
100
AcDbEntity
  8
D-STR-DIM
  6
Continuous
100
AcDbCircle
 10
9637.920354680209
 20
4995.528911833706
 30
0.0
 40
5.999997974638371
  0
LINE
  5
2799F
330
1F
100
AcDbEntity
  8
D-STR-DIM
  6
Continuous
100
AcDbLine
 10
9517.920315102886
 20
5695.529308874847
 30
0.0
 11
9107.920336920477
 21
5695.529308874847
 31
0.0
  0
CIRCLE
  5
279A0
330
1F
100
AcDbEntity
  8
D-STR-DIM
  6
Continuous
100
AcDbCircle
 10
9137.920356793678
 20
5695.529308874847
 30
0.0
 40
5.999997974638371
  0
TEXT
  5
279A1
330
1F
100
AcDbEntity
  8
D-STR-DIM
100
AcDbText
 10
10338.06027172076
 20
4899.208912240847
 30
0.0
 40
70.0
  1
10
100
AcDbText
  0
TEXT
  5
279A2
330
1F
100
AcDbEntity
  8
D-STR-DIM
100
AcDbText
 10
10128.06029260835
 20
4899.208912240847
 30
0.0
 40
70.0
  1
10
100
AcDbText
  0
LINE
  5
279A3
330
1F
100
AcDbEntity
  8
D-STR
  6
Continuous
100
AcDbLine
 10
10387.92029150998
 20
4605.52871348221
 30
0.0
 11
10187.92035235539
 21
4605.52871348221
 31
0.0
  0
LINE
  5
279A4
330
1F
100
AcDbEntity
  8
D-STR
  6
Continuous
100
AcDbLine
 10
10397.92033146772
 20
4595.52911352448
 30
0.0
 11
10177.92031239765
 21
4595.52911352448
 31
0.0
  0
LINE
  5
279A5
330
1F
100
AcDbEntity
  8
D-STR-DIM
  6
Continuous
100
AcDbLine
 10
10337.92031172133
 20
3995.529316060644
 30
0.0
 11
10655.42017037923
 21
3995.529316060644
 31
0.0
  0
LINE
  5
279A6
330
1F
100
AcDbEntity
  8
D-STR-DIM
  6
Continuous
100
AcDbLine
 10
10237.92033214403
 20
3995.529316060644
 30
0.0
 11
9920.420353486093
 21
3995.529316060644
 31
0.0
  0
TEXT
  5
279A7
330
1F
100
AcDbEntity
  8
D-STR-DIM
100
AcDbText
 10
9833.560353853231
 20
4011.528915993014
 30
0.0
 40
70.0
  1
635
100
AcDbText
  0
CIRCLE
  5
279A8
330
1F
100
AcDbEntity
  8
D-STR-DIM
  6
Continuous
100
AcDbCircle
 10
10337.92031172133
 20
3995.529316060644
 30
0.0
 40
5.999997974638371
  0
LINE
  5
279A9
330
1F
100
AcDbEntity
  8
D-STR-DIM
  6
Continuous
100
AcDbLine
 10
10237.92033214403
 20
3995.529316060644
 30
0.0
 11
10287.92031193268
 21
3995.529316060644
 31
0.0
  0
CIRCLE
  5
279AA
330
1F
100
AcDbEntity
  8
D-STR-DIM
  6
Continuous
100
AcDbCircle
 10
10237.92033214403
 20
3995.529316060644
 30
0.0
 40
5.999997974638371
  0
LINE
  5
279AB
330
1F
100
AcDbEntity
  8
D-STR-DIM
  6
Continuous
100
AcDbLine
 10
10337.92031172133
 20
3995.529316060644
 30
0.0
 11
10287.92031193268
 21
3995.529316060644
 31
0.0
  0
CIRCLE
  5
279AC
330
1F
100
AcDbEntity
  8
D-STR-STR2
  6
Continuous
100
AcDbCircle
 10
10337.92031172133
 20
4678.529113173644
 30
0.0
 40
9.999997957730611
  0
LINE
  5
279AD
330
1F
100
AcDbEntity
  8
D-BMK
  6
CENTER2
100
AcDbLine
 10
10337.92031172133
 20
4718.529313004565
 30
0.0
 11
10337.92031172133
 21
4638.528913342724
 31
0.0
  0
CIRCLE
  5
279AE
330
1F
100
AcDbEntity
  8
D-STR-STR2
  6
Continuous
100
AcDbCircle
 10
10237.92033214403
 20
4678.529113173644
 30
0.0
 40
9.999997957730611
  0
LINE
  5
279AF
330
1F
100
AcDbEntity
  8
D-BMK
  6
CENTER2
100
AcDbLine
 10
10237.92033214403
 20
4718.529313004565
 30
0.0
 11
10237.92033214403
 21
4638.528913342724
 31
0.0
  0
LINE
  5
279B0
330
1F
100
AcDbEntity
  8
D-BMK
  6
CENTER2
100
AcDbLine
 10
10197.92027231309
 20
4678.529113173644
 30
0.0
 11
10277.92027197494
 21
4678.529113173644
 31
0.0
  0
LINE
  5
279B1
330
1F
100
AcDbEntity
  8
D-STR
  6
Continuous
100
AcDbLine
 10
10187.92035235539
 20
4605.52871348221
 30
0.0
 11
10177.92093239763
 21
4595.528113524483
 31
0.0
  0
LINE
  5
279B2
330
1F
100
AcDbEntity
  8
D-BMK
  6
CENTER2
100
AcDbLine
 10
10297.92037189043
 20
4678.529113173644
 30
0.0
 11
10377.92037155228
 21
4678.529113173644
 31
0.0
  0
LINE
  5
279B3
330
1F
100
AcDbEntity
  8
D-STR-DIM
  6
Continuous
100
AcDbLine
 10
10972.92016903718
 20
3995.529316060644
 30
0.0
 11
10655.42017037923
 21
3995.529316060644
 31
0.0
  0
TEXT
  5
279B4
330
1F
100
AcDbEntity
  8
D-STR-DIM
100
AcDbText
 10
10568.5602707464
 20
4011.528915993014
 30
0.0
 40
70.0
  1
635
100
AcDbText
  0
LINE
  5
279B5
330
1F
100
AcDbEntity
  8
D-STR-DIM
  6
Continuous
100
AcDbLine
 10
11037.92016876243
 20
3995.529316060644
 30
0.0
 11
11005.42016889981
 21
3995.529316060644
 31
0.0
  0
LINE
  5
279B6
330
1F
100
AcDbEntity
  8
D-STR-DIM
  6
Continuous
100
AcDbLine
 10
10972.92016903718
 20
3995.529316060644
 30
0.0
 11
11005.42016889981
 21
3995.529316060644
 31
0.0
  0
CIRCLE
  5
279B7
330
1F
100
AcDbEntity
  8
D-STR-DIM
  6
Continuous
100
AcDbCircle
 10
10972.92016903718
 20
3995.529316060644
 30
0.0
 40
5.999997974638371
  0
LINE
  5
279B8
330
1F
100
AcDbEntity
  8
D-STR
  6
Continuous
100
AcDbLine
 10
10927.92016922739
 20
4695.528513101788
 30
0.0
 11
10397.92033146772
 21
4695.528513101788
 31
0.0
  0
LINE
  5
279B9
330
1F
100
AcDbEntity
  8
D-STR
  6
Continuous
100
AcDbLine
 10
10397.92033146772
 20
4595.528113524483
 30
0.0
 11
10387.91967150999
 21
4605.52871348221
 31
0.0
  0
CIRCLE
  5
279BA
330
1F
100
AcDbEntity
  8
D-STR-STR2
  6
Continuous
100
AcDbCircle
 10
10972.92016903718
 20
4678.529113173644
 30
0.0
 40
9.999997957730611
  0
LINE
  5
279BB
330
1F
100
AcDbEntity
  8
D-BMK
  6
CENTER2
100
AcDbLine
 10
10972.92016903718
 20
4718.529313004565
 30
0.0
 11
10972.92016903718
 21
4638.528913342724
 31
0.0
  0
LINE
  5
279BC
330
1F
100
AcDbEntity
  8
D-STR
  6
Continuous
100
AcDbLine
 10
10937.91956918514
 20
4605.52871348221
 30
0.0
 11
10927.92016922739
 21
4595.528113524483
 31
0.0
  0
LINE
  5
279BD
330
1F
100
AcDbEntity
  8
D-STR
  6
Continuous
100
AcDbLine
 10
11037.92016876243
 20
4595.52911352448
 30
0.0
 11
10927.92016922739
 21
4595.52911352448
 31
0.0
  0
LINE
  5
279BE
330
1F
100
AcDbEntity
  8
D-STR
  6
Continuous
100
AcDbLine
 10
11037.92016876243
 20
4605.52871348221
 30
0.0
 11
10937.92016918512
 21
4605.52871348221
 31
0.0
  0
LINE
  5
279BF
330
1F
100
AcDbEntity
  8
D-BMK
  6
CENTER2
100
AcDbLine
 10
10932.92016920626
 20
4678.529113173644
 30
0.0
 11
11012.9201688681
 21
4678.529113173644
 31
0.0
  0
TEXT
  5
279C0
330
1F
100
AcDbEntity
  8
D-STR-DIM
100
AcDbText
 10
10201.06031229982
 20
5011.528711766078
 30
0.0
 40
70.0
  1
200
100
AcDbText
  0
LINE
  5
279C1
330
1F
100
AcDbEntity
  8
D-STR-DIM
  6
Continuous
100
AcDbLine
 10
10387.92029150998
 20
4995.528911833706
 30
0.0
 11
10287.92031193268
 21
4995.528911833706
 31
0.0
  0
LINE
  5
279C2
330
1F
100
AcDbEntity
  8
D-STR-DIM
  6
Continuous
100
AcDbLine
 10
10187.92035235539
 20
4995.528911833706
 30
0.0
 11
10287.92031193268
 21
4995.528911833706
 31
0.0
  0
LINE
  5
279C3
330
1F
100
AcDbEntity
  8
D-STR-DIM
  6
Continuous
100
AcDbLine
 10
10187.92035235539
 20
4995.528911833706
 30
0.0
 11
10182.92033237651
 21
4995.528911833706
 31
0.0
  0
LINE
  5
279C4
330
1F
100
AcDbEntity
  8
D-STR-DIM
  6
Continuous
100
AcDbLine
 10
10177.92031239765
 20
4995.528911833706
 30
0.0
 11
10182.92033237651
 21
4995.528911833706
 31
0.0
  0
CIRCLE
  5
279C5
330
1F
100
AcDbEntity
  8
D-STR-DIM
  6
Continuous
100
AcDbCircle
 10
10177.92031239765
 20
4995.528911833706
 30
0.0
 40
5.999997974638371
  0
CIRCLE
  5
279C6
330
1F
100
AcDbEntity
  8
D-STR-DIM
  6
Continuous
100
AcDbCircle
 10
10187.92035235539
 20
4995.528911833706
 30
0.0
 40
5.999997974638371
  0
LINE
  5
279C7
330
1F
100
AcDbEntity
  8
D-BMK
  6
CENTER2
100
AcDbLine
 10
10077.92033282034
 20
5695.529308874847
 30
0.0
 11
9747.920294215223
 21
5695.529308874847
 31
0.0
  0
LINE
  5
279C8
330
1F
100
AcDbEntity
  8
D-STR-STR2
  6
Continuous
100
AcDbLine
 10
9787.920354046168
 20
5820.52910834648
 30
0.0
 11
9787.920354046168
 21
5570.529509403211
 31
0.0
  0
LINE
  5
279C9
330
1F
100
AcDbEntity
  8
D-STR-STR2
  6
Continuous
100
AcDbLine
 10
10037.9202729894
 20
5820.52910834648
 30
0.0
 11
10037.9202729894
 21
5570.529509403211
 31
0.0
  0
LINE
  5
279CA
330
1F
100
AcDbEntity
  8
D-STR-STR2
  6
Continuous
100
AcDbLine
 10
9777.92031408842
 20
5830.52870830421
 30
0.0
 11
9777.92031408842
 21
5560.528909445482
 31
0.0
  0
LINE
  5
279CB
330
1F
100
AcDbEntity
  8
D-STR-STR2
  6
Continuous
100
AcDbLine
 10
10047.92033294716
 20
5830.52870830421
 30
0.0
 11
10047.92033294716
 21
5560.528909445482
 31
0.0
  0
LINE
  5
279CC
330
1F
100
AcDbEntity
  8
D-STR-STR2
  6
Continuous
100
AcDbLine
 10
10037.9202729894
 20
5570.529509403211
 30
0.0
 11
9787.920354046168
 21
5570.529509403211
 31
0.0
  0
LINE
  5
279CD
330
1F
100
AcDbEntity
  8
D-STR-STR2
  6
Continuous
100
AcDbLine
 10
10047.92033294716
 20
5560.528909445482
 30
0.0
 11
9777.92031408842
 21
5560.528909445482
 31
0.0
  0
LINE
  5
279CE
330
1F
100
AcDbEntity
  8
D-STR-STR2
  6
Continuous
100
AcDbLine
 10
10037.9202729894
 20
5820.52910834648
 30
0.0
 11
9787.920354046168
 21
5820.52910834648
 31
0.0
  0
LINE
  5
279CF
330
1F
100
AcDbEntity
  8
D-STR-STR2
  6
Continuous
100
AcDbLine
 10
10047.92033294716
 20
5830.52870830421
 30
0.0
 11
9777.92031408842
 21
5830.52870830421
 31
0.0
  0
LINE
  5
279D0
330
1F
100
AcDbEntity
  8
D-STR-DIM
  6
Continuous
100
AcDbLine
 10
10797.92016977689
 20
5540.528909445482
 30
0.0
 11
10797.92016977689
 21
5330.529310417678
 31
0.0
  0
LINE
  5
279D1
330
1F
100
AcDbEntity
  8
D-STR-DIM
  6
Continuous
100
AcDbLine
 10
10787.92036981923
 20
5540.528909445482
 30
0.0
 11
10787.92036981923
 21
5330.529310417678
 31
0.0
  0
LINE
  5
279D2
330
1F
100
AcDbEntity
  8
D-STR-DIM
  6
Continuous
100
AcDbLine
 10
10527.92031091821
 20
5540.528909445482
 30
0.0
 11
10527.92031091821
 21
5330.529310417678
 31
0.0
  0
LINE
  5
279D3
330
1F
100
AcDbEntity
  8
D-STR-DIM
  6
Continuous
100
AcDbLine
 10
10537.92037087597
 20
5540.528909445482
 30
0.0
 11
10537.92037087597
 21
5330.529310417678
 31
0.0
  0
LINE
  5
279D4
330
1F
100
AcDbEntity
  8
D-STR-DIM
  6
Continuous
100
AcDbLine
 10
10787.92036981923
 20
5360.528910290872
 30
0.0
 11
10662.92017034753
 21
5360.528910290872
 31
0.0
  0
LINE
  5
279D5
330
1F
100
AcDbEntity
  8
D-STR-DIM
  6
Continuous
100
AcDbLine
 10
10397.92033146772
 20
4995.528911833706
 30
0.0
 11
10392.92031148885
 21
4995.528911833706
 31
0.0
  0
LINE
  5
279D6
330
1F
100
AcDbEntity
  8
D-STR-DIM
  6
Continuous
100
AcDbLine
 10
10387.92029150998
 20
4995.528911833706
 30
0.0
 11
10392.92031148885
 21
4995.528911833706
 31
0.0
  0
CIRCLE
  5
279D7
330
1F
100
AcDbEntity
  8
D-STR-DIM
  6
Continuous
100
AcDbCircle
 10
10397.92033146772
 20
4995.528911833706
 30
0.0
 40
5.999997974638371
  0
CIRCLE
  5
279D8
330
1F
100
AcDbEntity
  8
D-STR-DIM
  6
Continuous
100
AcDbCircle
 10
10387.92029150998
 20
4995.528911833706
 30
0.0
 40
5.999997974638371
  0
TEXT
  5
279D9
330
1F
100
AcDbEntity
  8
D-STR-DIM
100
AcDbText
 10
10478.06031112892
 20
5264.208910698012
 30
0.0
 40
70.0
  1
10
100
AcDbText
  0
LINE
  5
279DA
330
1F
100
AcDbEntity
  8
D-STR-DIM
  6
Continuous
100
AcDbLine
 10
10537.92037087597
 20
5360.528910290872
 30
0.0
 11
10662.92017034753
 21
5360.528910290872
 31
0.0
  0
LINE
  5
279DB
330
1F
100
AcDbEntity
  8
D-STR-DIM
  6
Continuous
100
AcDbLine
 10
10537.92037087597
 20
5360.528910290872
 30
0.0
 11
10532.92033089709
 21
5360.528910290872
 31
0.0
  0
LINE
  5
279DC
330
1F
100
AcDbEntity
  8
D-STR-DIM
  6
Continuous
100
AcDbLine
 10
10527.92031091821
 20
5360.528910290872
 30
0.0
 11
10532.92033089709
 21
5360.528910290872
 31
0.0
  0
CIRCLE
  5
279DD
330
1F
100
AcDbEntity
  8
D-STR-DIM
  6
Continuous
100
AcDbCircle
 10
10527.92031091821
 20
5360.528910290872
 30
0.0
 40
5.999997974638371
  0
CIRCLE
  5
279DE
330
1F
100
AcDbEntity
  8
D-STR-DIM
  6
Continuous
100
AcDbCircle
 10
10537.92037087597
 20
5360.528910290872
 30
0.0
 40
5.999997974638371
  0
TEXT
  5
279DF
330
1F
100
AcDbEntity
  8
D-STR-DIM
100
AcDbText
 10
10804.65816974846
 20
5011.528711766078
 30
0.0
 40
70.0
  1
10
100
AcDbText
  0
LINE
  5
279E0
330
1F
100
AcDbEntity
  8
D-STR-DIM
  6
Continuous
100
AcDbLine
 10
10932.92016920626
 20
4995.528911833706
 30
0.0
 11
10804.65776974847
 21
4995.528911833706
 31
0.0
  0
LINE
  5
279E1
330
1F
100
AcDbEntity
  8
D-STR-DIM
  6
Continuous
100
AcDbLine
 10
11037.92016876243
 20
4995.528911833706
 30
0.0
 11
10987.92016897378
 21
4995.528911833706
 31
0.0
  0
LINE
  5
279E2
330
1F
100
AcDbEntity
  8
D-STR-DIM
  6
Continuous
100
AcDbLine
 10
10937.92016918512
 20
4995.528911833706
 30
0.0
 11
10932.92016920626
 21
4995.528911833706
 31
0.0
  0
LINE
  5
279E3
330
1F
100
AcDbEntity
  8
D-STR-DIM
  6
Continuous
100
AcDbLine
 10
10927.92016922739
 20
4995.528911833706
 30
0.0
 11
10932.92016920626
 21
4995.528911833706
 31
0.0
  0
LINE
  5
279E4
330
1F
100
AcDbEntity
  8
D-STR-DIM
  6
Continuous
100
AcDbLine
 10
10937.92016918512
 20
4995.528911833706
 30
0.0
 11
10987.92016897378
 21
4995.528911833706
 31
0.0
  0
CIRCLE
  5
279E5
330
1F
100
AcDbEntity
  8
D-STR-DIM
  6
Continuous
100
AcDbCircle
 10
10927.92016922739
 20
4995.528911833706
 30
0.0
 40
5.999997974638371
  0
CIRCLE
  5
279E6
330
1F
100
AcDbEntity
  8
D-STR-DIM
  6
Continuous
100
AcDbCircle
 10
10937.92016918512
 20
4995.528911833706
 30
0.0
 40
5.999997974638371
  0
LINE
  5
279E7
330
1F
100
AcDbEntity
  8
D-STR-DIM
  6
Continuous
100
AcDbLine
 10
10787.92036981923
 20
5360.528910290872
 30
0.0
 11
10792.9203697981
 21
5360.528910290872
 31
0.0
  0
CIRCLE
  5
279E8
330
1F
100
AcDbEntity
  8
D-STR-DIM
  6
Continuous
100
AcDbCircle
 10
10787.92036981923
 20
5360.528910290872
 30
0.0
 40
5.999997974638371
  0
LINE
  5
279E9
330
1F
100
AcDbEntity
  8
D-STR-DIM
  6
Continuous
100
AcDbLine
 10
10797.92016977689
 20
5360.528910290872
 30
0.0
 11
10792.9203697981
 21
5360.528910290872
 31
0.0
  0
CIRCLE
  5
279EA
330
1F
100
AcDbEntity
  8
D-STR-DIM
  6
Continuous
100
AcDbCircle
 10
10797.92016977689
 20
5360.528910290872
 30
0.0
 40
5.999997974638371
  0
TEXT
  5
279EB
330
1F
100
AcDbEntity
  8
D-STR-DIM
100
AcDbText
 10
10738.06037002994
 20
5264.208910698012
 30
0.0
 40
70.0
  1
10
100
AcDbText
  0
LINE
  5
279EC
330
1F
100
AcDbEntity
  8
D-BMK
  6
CENTER2
100
AcDbLine
 10
10827.92016965009
 20
5695.529308874847
 30
0.0
 11
10497.92031104502
 21
5695.529308874847
 31
0.0
  0
LINE
  5
279ED
330
1F
100
AcDbEntity
  8
D-STR-STR2
  6
Continuous
100
AcDbLine
 10
10797.92016977689
 20
5830.52870830421
 30
0.0
 11
10527.92031091821
 21
5830.52870830421
 31
0.0
  0
LINE
  5
279EE
330
1F
100
AcDbEntity
  8
D-STR-STR2
  6
Continuous
100
AcDbLine
 10
10797.92016977689
 20
5560.528909445482
 30
0.0
 11
10527.92031091821
 21
5560.528909445482
 31
0.0
  0
LINE
  5
279EF
330
1F
100
AcDbEntity
  8
D-STR-STR2
  6
Continuous
100
AcDbLine
 10
10787.92036981923
 20
5570.529509403211
 30
0.0
 11
10537.92037087597
 21
5570.529509403211
 31
0.0
  0
LINE
  5
279F0
330
1F
100
AcDbEntity
  8
D-STR-STR2
  6
Continuous
100
AcDbLine
 10
10787.92036981923
 20
5820.52910834648
 30
0.0
 11
10537.92037087597
 21
5820.52910834648
 31
0.0
  0
TEXT
  5
279F1
330
1F
100
AcDbEntity
  8
D-STR-DIM
100
AcDbText
 10
10576.06031071472
 20
5376.528710223244
 30
0.0
 40
70.0
  1
250
100
AcDbText
  0
LINE
  5
279F2
330
1F
100
AcDbEntity
  8
D-STR-STR2
  6
Continuous
100
AcDbLine
 10
10527.92031091821
 20
5830.52870830421
 30
0.0
 11
10527.92031091821
 21
5560.528909445482
 31
0.0
  0
LINE
  5
279F3
330
1F
100
AcDbEntity
  8
D-STR-STR2
  6
Continuous
100
AcDbLine
 10
10537.92037087597
 20
5820.52910834648
 30
0.0
 11
10537.92037087597
 21
5570.529509403211
 31
0.0
  0
LINE
  5
279F4
330
1F
100
AcDbEntity
  8
D-STR-STR2
  6
Continuous
100
AcDbLine
 10
10797.92016977689
 20
5830.52870830421
 30
0.0
 11
10797.92016977689
 21
5560.528909445482
 31
0.0
  0
LINE
  5
279F5
330
1F
100
AcDbEntity
  8
D-STR-STR2
  6
Continuous
100
AcDbLine
 10
10787.92036981923
 20
5820.52910834648
 30
0.0
 11
10787.92036981923
 21
5570.529509403211
 31
0.0
  0
TEXT
  5
279F6
330
1F
100
AcDbEntity
  8
D-STR-DIM
100
AcDbText
 10
11334.24036750995
 20
5510.66890965624
 30
0.0
 40
70.0
  1
10
 50
90.0
100
AcDbText
  0
LINE
  5
279F7
330
1F
100
AcDbEntity
  8
D-STR-DIM
  6
Continuous
100
AcDbLine
 10
11237.92016791704
 20
5570.529509403211
 30
0.0
 11
11237.92016791704
 21
5695.529308874847
 31
0.0
  0
LINE
  5
279F8
330
1F
100
AcDbEntity
  8
D-STR-DIM
  6
Continuous
100
AcDbLine
 10
11237.92016791704
 20
5560.528909445482
 30
0.0
 11
11237.92016791704
 21
5565.529109424347
 31
0.0
  0
LINE
  5
279F9
330
1F
100
AcDbEntity
  8
D-STR-DIM
  6
Continuous
100
AcDbLine
 10
11237.92016791704
 20
5570.529509403211
 30
0.0
 11
11237.92016791704
 21
5565.529109424347
 31
0.0
  0
CIRCLE
  5
279FA
330
1F
100
AcDbEntity
  8
D-STR-DIM
  6
Continuous
100
AcDbCircle
 10
11237.92016791704
 20
5560.528909445482
 30
0.0
 40
5.999997974638371
  0
CIRCLE
  5
279FB
330
1F
100
AcDbEntity
  8
D-STR-DIM
  6
Continuous
100
AcDbCircle
 10
11237.92016791704
 20
5570.529509403211
 30
0.0
 40
5.999997974638371
  0
TEXT
  5
279FC
330
1F
100
AcDbEntity
  8
D-STR-DIM
100
AcDbText
 10
11221.92016798469
 20
5608.668709242
 30
0.0
 40
70.0
  1
250
 50
90.0
100
AcDbText
  0
LINE
  5
279FD
330
1F
100
AcDbEntity
  8
D-STR-DIM
  6
Continuous
100
AcDbLine
 10
11237.92016791704
 20
5820.52910834648
 30
0.0
 11
11237.92016791704
 21
5825.529308325346
 31
0.0
  0
LINE
  5
279FE
330
1F
100
AcDbEntity
  8
D-STR-DIM
  6
Continuous
100
AcDbLine
 10
11237.92016791704
 20
5830.52870830421
 30
0.0
 11
11237.92016791704
 21
5825.529308325346
 31
0.0
  0
LINE
  5
279FF
330
1F
100
AcDbEntity
  8
D-STR-DIM
  6
Continuous
100
AcDbLine
 10
11237.92016791704
 20
5820.52910834648
 30
0.0
 11
11237.92016791704
 21
5695.529308874847
 31
0.0
  0
CIRCLE
  5
27A00
330
1F
100
AcDbEntity
  8
D-STR-DIM
  6
Continuous
100
AcDbCircle
 10
11237.92016791704
 20
5830.52870830421
 30
0.0
 40
5.999997974638371
  0
CIRCLE
  5
27A01
330
1F
100
AcDbEntity
  8
D-STR-DIM
  6
Continuous
100
AcDbCircle
 10
11237.92016791704
 20
5820.52910834648
 30
0.0
 40
5.999997974638371
  0
LINE
  5
27A09
330
1F
100
AcDbEntity
  8
D-TTL-FRAM
 48
20.0
100
AcDbLine
 10
16419.99993371339
 20
1599.999991252076
 30
0.0
 11
14419.99994172685
 21
1599.999991252076
 31
0.0
  0
LINE
  5
27A0C
330
1F
100
AcDbEntity
  8
D-TTL-FRAM
 48
20.0
100
AcDbLine
 10
14419.99994172685
 20
1599.999991252076
 30
0.0
 11
14419.99994172685
 21
399.9999960601544
 31
0.0
  0
CIRCLE
  5
27A41
330
1F
100
AcDbEntity
  8
D-STR-DIM
  6
Continuous
100
AcDbCircle
 10
11037.92016876243
 20
7395.529101689051
 30
0.0
 40
5.999997974638371
  0
CIRCLE
  5
27A42
330
1F
100
AcDbEntity
  8
D-STR-DIM
  6
Continuous
100
AcDbCircle
 10
11037.92016876243
 20
7095.528702957134
 30
0.0
 40
5.999997974638371
  0
LINE
  5
27A43
330
1F
100
AcDbEntity
  8
D-BMK
  6
CENTER2
100
AcDbLine
 10
11067.92016863562
 20
6195.52850676138
 30
0.0
 11
10923.91996924436
 21
6195.52850676138
 31
0.0
  0
LINE
  5
27A44
330
1F
100
AcDbEntity
  8
D-STR-HTXT
  6
Continuous
100
AcDbLine
 10
11287.92016770569
 20
5945.528907818112
 30
0.0
 11
11037.92016876243
 21
6195.528506761377
 31
0.0
  0
LINE
  5
27A45
330
1F
100
AcDbEntity
  8
D-STR-HTXT
  6
Continuous
100
AcDbLine
 10
11369.41106868716
 20
6895.528903802518
 30
0.0
 11
10612.73913055962
 21
6895.528903802518
 31
0.0
  0
LINE
  5
27A46
330
1F
100
AcDbEntity
  8
D-STR-HTXT
  6
Continuous
100
AcDbLine
 10
11071.1917686218
 20
6172.231706859854
 30
0.0
 11
11037.92016876243
 21
6195.528506761377
 31
0.0
  0
TEXT
  5
27A47
330
1F
100
AcDbEntity
  8
D-STR-HTXT
100
AcDbText
 10
10589.87905065622
 20
6911.528503734891
 30
0.0
 40
70.0
  1
　インサート　Ｍ16
100
AcDbText
  0
TEXT
  5
27A48
330
1F
100
AcDbEntity
  8
D-STR-HTXT
100
AcDbText
 10
10589.87905065622
 20
6815.528504140679
 30
0.0
 40
70.0
  1
　　（セラミック）
100
AcDbText
  0
LINE
  5
27A49
330
1F
100
AcDbEntity
  8
D-STR-DIM
  6
Continuous
100
AcDbLine
 10
9537.920315102885
 20
7095.528702957134
 30
0.0
 11
9725.420314310337
 21
7095.528702957134
 31
0.0
  0
LINE
  5
27A4A
330
1F
100
AcDbEntity
  8
D-STR-DIM
  6
Continuous
100
AcDbLine
 10
9537.920315102885
 20
7395.529101689051
 30
0.0
 11
9912.920313517785
 21
7395.529101689051
 31
0.0
  0
TEXT
  5
27A4B
330
1F
100
AcDbEntity
  8
D-STR-DIM
100
AcDbText
 10
9638.560314677475
 20
7111.528502889502
 30
0.0
 40
70.0
  1
375
100
AcDbText
  0
TEXT
  5
27A4C
330
1F
100
AcDbEntity
  8
D-STR-DIM
100
AcDbText
 10
9701.060354413305
 20
6911.528503734891
 30
0.0
 40
70.0
  1
500
100
AcDbText
  0
LINE
  5
27A4D
330
1F
100
AcDbEntity
  8
D-STR-DIM
  6
Continuous
100
AcDbLine
 10
9537.920315102885
 20
6895.528903802518
 30
0.0
 11
9787.920354046168
 21
6895.528903802518
 31
0.0
  0
LINE
  5
27A4E
330
1F
100
AcDbEntity
  8
D-STR
  6
Continuous
100
AcDbLine
 10
10177.92031239765
 20
6395.52850591599
 30
0.0
 11
9647.92033463793
 21
6395.52850591599
 31
0.0
  0
LINE
  5
27A4F
330
1F
100
AcDbEntity
  8
D-STR
  6
Continuous
100
AcDbLine
 10
11037.92016876243
 20
6495.528905493294
 30
0.0
 11
9537.920315102885
 21
6495.528905493294
 31
0.0
  0
LINE
  5
27A50
330
1F
100
AcDbEntity
  8
D-STR
  6
Continuous
100
AcDbLine
 10
11037.92016876243
 20
6695.528904647905
 30
0.0
 11
9537.920315102885
 21
6695.528904647905
 31
0.0
  0
LINE
  5
27A51
330
1F
100
AcDbEntity
  8
D-STR-DIM
  6
Continuous
100
AcDbLine
 10
9537.920315102885
 20
6715.528904647905
 30
0.0
 11
9537.920315102885
 21
7425.528901562241
 31
0.0
  0
TEXT
  5
27A52
330
1F
100
AcDbEntity
  8
D-STR-DIM
100
AcDbText
 10
9121.920336861244
 20
5858.669308185261
 30
0.0
 40
70.0
  1
500
 50
90.0
100
AcDbText
  0
TEXT
  5
27A53
330
1F
100
AcDbEntity
  8
D-STR-DIM
100
AcDbText
 10
9121.920336861244
 20
6258.66910649449
 30
0.0
 40
70.0
  1
300
 50
90.0
100
AcDbText
  0
LINE
  5
27A54
330
1F
100
AcDbEntity
  8
D-STR-DIM
  6
Continuous
100
AcDbLine
 10
9517.920315102886
 20
6495.528905493294
 30
0.0
 11
8807.920374188544
 21
6495.528905493294
 31
0.0
  0
TEXT
  5
27A55
330
1F
100
AcDbEntity
  8
D-STR-DIM
100
AcDbText
 10
8821.920372129367
 20
6133.669307022854
 30
0.0
 40
70.0
  1
550
 50
90.0
100
AcDbText
  0
LINE
  5
27A56
330
1F
100
AcDbEntity
  8
D-STR-DIM
  6
Continuous
100
AcDbLine
 10
8837.920374061734
 20
6495.528905493294
 30
0.0
 11
8837.920374061734
 21
6220.528906655705
 31
0.0
  0
LINE
  5
27A57
330
1F
100
AcDbEntity
  8
D-STR-DIM
  6
Continuous
100
AcDbLine
 10
8837.920374061734
 20
5945.528907818112
 30
0.0
 11
8837.920374061734
 21
6220.528906655705
 31
0.0
  0
LINE
  5
27A58
330
1F
100
AcDbEntity
  8
D-STR-DIM
  6
Continuous
100
AcDbLine
 10
9023.177337194123
 20
5945.528907818112
 30
0.0
 11
8807.920374188544
 21
5945.528907818112
 31
0.0
  0
CIRCLE
  5
27A59
330
1F
100
AcDbEntity
  8
D-STR-DIM
  6
Continuous
100
AcDbCircle
 10
8837.920374061734
 20
5945.528907818112
 30
0.0
 40
5.999997974638371
  0
CIRCLE
  5
27A5A
330
1F
100
AcDbEntity
  8
D-STR-DIM
  6
Continuous
100
AcDbCircle
 10
8837.920374061734
 20
6495.528905493294
 30
0.0
 40
5.999997974638371
  0
LINE
  5
27A5B
330
1F
100
AcDbEntity
  8
D-STR-DIM
  6
Continuous
100
AcDbLine
 10
9137.920356793678
 20
6195.52850676138
 30
0.0
 11
9137.920356793678
 21
6345.528706127337
 31
0.0
  0
LINE
  5
27A5C
330
1F
100
AcDbEntity
  8
D-STR-DIM
  6
Continuous
100
AcDbLine
 10
9167.920336666858
 20
5945.528907818112
 30
0.0
 11
9507.920375229714
 21
5945.528907818112
 31
0.0
  0
LINE
  5
27A5D
330
1F
100
AcDbEntity
  8
D-STR-DIM
  6
Continuous
100
AcDbLine
 10
9477.920315102885
 20
6195.52850676138
 30
0.0
 11
9107.920336920477
 21
6195.52850676138
 31
0.0
  0
LINE
  5
27A5E
330
1F
100
AcDbEntity
  8
D-STR-DIM
  6
Continuous
100
AcDbLine
 10
9137.920356793678
 20
6195.52850676138
 30
0.0
 11
9137.920356793678
 21
5945.528907818112
 31
0.0
  0
CIRCLE
  5
27A5F
330
1F
100
AcDbEntity
  8
D-STR-DIM
  6
Continuous
100
AcDbCircle
 10
9137.920356793678
 20
6195.52850676138
 30
0.0
 40
5.999997974638371
  0
LINE
  5
27A60
330
1F
100
AcDbEntity
  8
D-STR-STR2
  6
Continuous
100
AcDbLine
 10
9621.920554747775
 20
6145.528906972726
 30
0.0
 11
9537.920315102885
 21
6145.528906972726
 31
0.0
  0
LINE
  5
27A61
330
1F
100
AcDbEntity
  8
D-STR-STR2
  6
Continuous
100
AcDbLine
 10
9537.920315102885
 20
6245.52930655003
 30
0.0
 11
9621.920554747775
 21
6245.52930655003
 31
0.0
  0
LINE
  5
27A62
330
1F
100
AcDbEntity
  8
D-BMK
  6
CENTER2
100
AcDbLine
 10
9507.920375229714
 20
6195.52850676138
 30
0.0
 11
9651.920554620964
 21
6195.52850676138
 31
0.0
  0
LINE
  5
27A63
330
1F
100
AcDbEntity
  8
D-STR-STR2
  6
Continuous
100
AcDbLine
 10
9621.920554747775
 20
6245.52930655003
 30
0.0
 11
9621.920554747775
 21
6145.528906972726
 31
0.0
  0
CIRCLE
  5
27A64
330
1F
100
AcDbEntity
  8
D-STR-DIM
  6
Continuous
100
AcDbCircle
 10
9137.920356793678
 20
6495.528905493294
 30
0.0
 40
5.999997974638371
  0
LINE
  5
27A65
330
1F
100
AcDbEntity
  8
D-STR-DIM
  6
Continuous
100
AcDbLine
 10
9137.920356793678
 20
6495.528905493294
 30
0.0
 11
9137.920356793678
 21
6345.528706127337
 31
0.0
  0
LINE
  5
27A66
330
1F
100
AcDbEntity
  8
D-STR
  6
Continuous
100
AcDbLine
 10
9537.920315102885
 20
6485.528505535566
 30
0.0
 11
9637.920354680209
 21
6485.528505535566
 31
0.0
  0
LINE
  5
27A67
330
1F
100
AcDbEntity
  8
D-STR
  6
Continuous
100
AcDbLine
 10
9537.920315102885
 20
6495.528905493294
 30
0.0
 11
9647.92033463793
 21
6495.528905493294
 31
0.0
  0
LINE
  5
27A68
330
1F
100
AcDbEntity
  8
D-BMK
  6
CENTER2
100
AcDbLine
 10
9602.920314828139
 20
6459.529305645465
 30
0.0
 11
9602.920314828139
 21
6379.528905983621
 31
0.0
  0
LINE
  5
27A69
330
1F
100
AcDbEntity
  8
D-BMK
  6
CENTER2
100
AcDbLine
 10
9562.920314997212
 20
6419.529105814544
 30
0.0
 11
9642.920314659059
 21
6419.529105814544
 31
0.0
  0
CIRCLE
  5
27A6A
330
1F
100
AcDbEntity
  8
D-STR-STR2
  6
Continuous
100
AcDbCircle
 10
9602.920314828139
 20
6419.529105814544
 30
0.0
 40
9.999997957730611
  0
LINE
  5
27A6B
330
1F
100
AcDbEntity
  8
D-STR
  6
Continuous
100
AcDbLine
 10
9647.92033463793
 20
6495.528905493294
 30
0.0
 11
9637.920974680193
 21
6485.528505535566
 31
0.0
  0
CIRCLE
  5
27A6C
330
1F
100
AcDbEntity
  8
D-STR-DIM
  6
Continuous
100
AcDbCircle
 10
9537.920315102885
 20
6895.528903802518
 30
0.0
 40
5.999997974638371
  0
CIRCLE
  5
27A6D
330
1F
100
AcDbEntity
  8
D-STR-DIM
  6
Continuous
100
AcDbCircle
 10
9537.920315102885
 20
7095.528702957134
 30
0.0
 40
5.999997974638371
  0
CIRCLE
  5
27A6E
330
1F
100
AcDbEntity
  8
D-STR-DIM
  6
Continuous
100
AcDbCircle
 10
9537.920315102885
 20
7395.529101689051
 30
0.0
 40
5.999997974638371
  0
LINE
  5
27A6F
330
1F
100
AcDbEntity
  8
D-STR-DIM
  6
Continuous
100
AcDbLine
 10
11037.92016876243
 20
6769.529104335113
 30
0.0
 11
11037.92016876243
 21
6725.528504521102
 31
0.0
  0
LINE
  5
27A70
330
1F
100
AcDbEntity
  8
D-STR-DIM
  6
Continuous
100
AcDbLine
 10
10662.92017034753
 20
6769.529104335113
 30
0.0
 11
10662.92017034753
 21
6725.528504521102
 31
0.0
  0
LINE
  5
27A71
330
1F
100
AcDbEntity
  8
D-STR-DIM
  6
Continuous
100
AcDbLine
 10
10037.9202729894
 20
6715.528904647905
 30
0.0
 11
10037.9202729894
 21
6925.528503675713
 31
0.0
  0
LINE
  5
27A72
330
1F
100
AcDbEntity
  8
D-STR-DIM
  6
Continuous
100
AcDbLine
 10
9912.920313517785
 20
6865.529303929328
 30
0.0
 11
9912.920313517785
 21
6725.528504521102
 31
0.0
  0
LINE
  5
27A73
330
1F
100
AcDbEntity
  8
D-STR-DIM
  6
Continuous
100
AcDbLine
 10
10287.92031193268
 20
7065.529103083939
 30
0.0
 11
10287.92031193268
 21
6725.528504521102
 31
0.0
  0
LINE
  5
27A74
330
1F
100
AcDbEntity
  8
D-STR-HTXT
  6
Continuous
100
AcDbLine
 10
10342.92033170013
 20
6428.189905777934
 30
0.0
 11
10612.73913055962
 21
6895.528903802518
 31
0.0
  0
LINE
  5
27A75
330
1F
100
AcDbEntity
  8
D-STR-HTXT
  6
Continuous
100
AcDbLine
 10
10244.1068921178
 20
6427.385105781333
 30
0.0
 11
10612.73913055962
 21
6895.528903802518
 31
0.0
  0
LINE
  5
27A76
330
1F
100
AcDbEntity
  8
D-STR
  6
Continuous
100
AcDbLine
 10
10397.92033146772
 20
6495.528905493294
 30
0.0
 11
10177.92031239765
 21
6495.528905493294
 31
0.0
  0
LINE
  5
27A77
330
1F
100
AcDbEntity
  8
D-STR
  6
Continuous
100
AcDbLine
 10
10387.92029150998
 20
6485.528505535566
 30
0.0
 11
10187.92035235539
 21
6485.528505535566
 31
0.0
  0
LINE
  5
27A78
330
1F
100
AcDbEntity
  8
D-STR-STR2
  6
Continuous
100
AcDbLine
 10
10037.9202729894
 20
6320.528506233011
 30
0.0
 11
10037.9202729894
 21
6070.528707289745
 31
0.0
  0
LINE
  5
27A79
330
1F
100
AcDbEntity
  8
D-STR-STR2
  6
Continuous
100
AcDbLine
 10
10047.92033294716
 20
6330.528906190739
 30
0.0
 11
10047.92033294716
 21
6060.529107332015
 31
0.0
  0
LINE
  5
27A7A
330
1F
100
AcDbEntity
  8
D-BMK
  6
CENTER2
100
AcDbLine
 10
9912.920313517785
 20
6360.528706063934
 30
0.0
 11
9912.920313517785
 21
6030.528507458825
 31
0.0
  0
LINE
  5
27A7B
330
1F
100
AcDbEntity
  8
D-STR-STR2
  6
Continuous
100
AcDbLine
 10
9787.920354046168
 20
6320.528506233011
 30
0.0
 11
9787.920354046168
 21
6070.528707289745
 31
0.0
  0
LINE
  5
27A7C
330
1F
100
AcDbEntity
  8
D-STR-STR2
  6
Continuous
100
AcDbLine
 10
9777.92031408842
 20
6330.528906190739
 30
0.0
 11
9777.92031408842
 21
6060.529107332015
 31
0.0
  0
LINE
  5
27A7D
330
1F
100
AcDbEntity
  8
D-STR
  6
Continuous
100
AcDbLine
 10
10086.91013278233
 20
5955.528507775845
 30
0.0
 11
9988.930553196453
 21
5955.528507775845
 31
0.0
  0
LINE
  5
27A7E
330
1F
100
AcDbEntity
  8
D-STR
  6
Continuous
100
AcDbLine
 10
10086.91013278233
 20
5935.529307860383
 30
0.0
 11
9988.930553196453
 21
5935.529307860383
 31
0.0
  0
CIRCLE
  5
27A7F
330
1F
100
AcDbEntity
  8
D-STR
  6
Continuous
100
AcDbCircle
 10
10037.9202729894
 20
5945.528907818112
 30
0.0
 40
49.99999778865302
  0
LINE
  5
27A80
330
1F
100
AcDbEntity
  8
D-BMK
  6
CENTER2
100
AcDbLine
 10
10077.92033282034
 20
6195.52850676138
 30
0.0
 11
9747.920294215223
 21
6195.52850676138
 31
0.0
  0
LINE
  5
27A81
330
1F
100
AcDbEntity
  8
D-STR-STR2
  6
Continuous
100
AcDbLine
 10
10037.9202729894
 20
6070.528707289745
 30
0.0
 11
9787.920354046168
 21
6070.528707289745
 31
0.0
  0
LINE
  5
27A82
330
1F
100
AcDbEntity
  8
D-STR-STR2
  6
Continuous
100
AcDbLine
 10
10047.92033294716
 20
6060.529107332015
 30
0.0
 11
9777.92031408842
 21
6060.529107332015
 31
0.0
  0
LINE
  5
27A83
330
1F
100
AcDbEntity
  8
D-STR-STR2
  6
Continuous
100
AcDbLine
 10
10037.9202729894
 20
6320.528506233011
 30
0.0
 11
9787.920354046168
 21
6320.528506233011
 31
0.0
  0
LINE
  5
27A84
330
1F
100
AcDbEntity
  8
D-STR-STR2
  6
Continuous
100
AcDbLine
 10
10047.92033294716
 20
6330.528906190739
 30
0.0
 11
9777.92031408842
 21
6330.528906190739
 31
0.0
  0
LINE
  5
27A85
330
1F
100
AcDbEntity
  8
D-BMK
  6
CENTER2
100
AcDbLine
 10
10277.92027197494
 20
6419.529105814544
 30
0.0
 11
10197.92027231309
 21
6419.529105814544
 31
0.0
  0
LINE
  5
27A86
330
1F
100
AcDbEntity
  8
D-STR
  6
Continuous
100
AcDbLine
 10
10177.92093239763
 20
6495.528905493294
 30
0.0
 11
10187.92097235538
 21
6485.528505535566
 31
0.0
  0
LINE
  5
27A87
330
1F
100
AcDbEntity
  8
D-BMK
  6
CENTER2
100
AcDbLine
 10
10337.92031172133
 20
6459.529305645465
 30
0.0
 11
10337.92031172133
 21
6379.528905983621
 31
0.0
  0
CIRCLE
  5
27A88
330
1F
100
AcDbEntity
  8
D-STR-STR2
  6
Continuous
100
AcDbCircle
 10
10337.92031172133
 20
6419.529105814544
 30
0.0
 40
9.999997957730611
  0
LINE
  5
27A89
330
1F
100
AcDbEntity
  8
D-BMK
  6
CENTER2
100
AcDbLine
 10
10237.92033214403
 20
6459.529305645465
 30
0.0
 11
10237.92033214403
 21
6379.528905983621
 31
0.0
  0
CIRCLE
  5
27A8A
330
1F
100
AcDbEntity
  8
D-STR-STR2
  6
Continuous
100
AcDbCircle
 10
10237.92033214403
 20
6419.529105814544
 30
0.0
 40
9.999997957730611
  0
LINE
  5
27A8B
330
1F
100
AcDbEntity
  8
D-BMK
  6
CENTER2
100
AcDbLine
 10
10377.92037155228
 20
6419.529105814544
 30
0.0
 11
10297.92037189043
 21
6419.529105814544
 31
0.0
  0
LINE
  5
27A8C
330
1F
100
AcDbEntity
  8
D-STR-HTXT
  6
Continuous
100
AcDbLine
 10
10356.8121516414
 20
6466.356705616603
 30
0.0
 11
10342.92033170013
 21
6428.188905777936
 31
0.0
  0
LINE
  5
27A8D
330
1F
100
AcDbEntity
  8
D-STR-HTXT
  6
Continuous
100
AcDbLine
 10
10263.31175203665
 20
6463.175905630047
 30
0.0
 11
10244.1068921178
 21
6427.385105781333
 31
0.0
  0
LINE
  5
27A8E
330
1F
100
AcDbEntity
  8
D-STR-STR2
  6
Continuous
100
AcDbLine
 10
10797.92016977689
 20
6330.528906190739
 30
0.0
 11
10797.92016977689
 21
6060.529107332015
 31
0.0
  0
LINE
  5
27A8F
330
1F
100
AcDbEntity
  8
D-BMK
  6
CENTER2
100
AcDbLine
 10
10662.92017034753
 20
6360.528706063934
 30
0.0
 11
10662.92017034753
 21
6030.528507458825
 31
0.0
  0
LINE
  5
27A90
330
1F
100
AcDbEntity
  8
D-STR-STR2
  6
Continuous
100
AcDbLine
 10
10787.92036981923
 20
6320.528506233011
 30
0.0
 11
10787.92036981923
 21
6070.528707289745
 31
0.0
  0
LINE
  5
27A91
330
1F
100
AcDbEntity
  8
D-STR-STR2
  6
Continuous
100
AcDbLine
 10
10527.92031091821
 20
6330.528906190739
 30
0.0
 11
10527.92031091821
 21
6060.529107332015
 31
0.0
  0
LINE
  5
27A92
330
1F
100
AcDbEntity
  8
D-STR-STR2
  6
Continuous
100
AcDbLine
 10
10537.92037087597
 20
6320.528506233011
 30
0.0
 11
10537.92037087597
 21
6070.528707289745
 31
0.0
  0
LINE
  5
27A93
330
1F
100
AcDbEntity
  8
D-BMK
  6
CENTER2
100
AcDbLine
 10
10827.92016965009
 20
6195.52850676138
 30
0.0
 11
10497.92031104502
 21
6195.52850676138
 31
0.0
  0
LINE
  5
27A94
330
1F
100
AcDbEntity
  8
D-STR-STR2
  6
Continuous
100
AcDbLine
 10
10797.92016977689
 20
6060.529107332015
 30
0.0
 11
10527.92031091821
 21
6060.529107332015
 31
0.0
  0
LINE
  5
27A95
330
1F
100
AcDbEntity
  8
D-STR-STR2
  6
Continuous
100
AcDbLine
 10
10787.92036981923
 20
6070.528707289745
 30
0.0
 11
10537.92037087597
 21
6070.528707289745
 31
0.0
  0
LINE
  5
27A96
330
1F
100
AcDbEntity
  8
D-STR-STR2
  6
Continuous
100
AcDbLine
 10
10953.91996911756
 20
6245.52930655003
 30
0.0
 11
10953.91996911756
 21
6145.528906972726
 31
0.0
  0
LINE
  5
27A97
330
1F
100
AcDbEntity
  8
D-STR-STR2
  6
Continuous
100
AcDbLine
 10
11037.92016876243
 20
6245.52930655003
 30
0.0
 11
10953.91996911756
 21
6245.52930655003
 31
0.0
  0
LINE
  5
27A98
330
1F
100
AcDbEntity
  8
D-STR-STR2
  6
Continuous
100
AcDbLine
 10
10953.91996911756
 20
6145.528906972726
 30
0.0
 11
11037.92016876243
 21
6145.528906972726
 31
0.0
  0
LINE
  5
27A99
330
1F
100
AcDbEntity
  8
D-STR
  6
Continuous
100
AcDbLine
 10
10927.92016922739
 20
6395.52850591599
 30
0.0
 11
10397.92033146772
 21
6395.52850591599
 31
0.0
  0
LINE
  5
27A9A
330
1F
100
AcDbEntity
  8
D-STR-STR2
  6
Continuous
100
AcDbLine
 10
10797.92016977689
 20
6330.528906190739
 30
0.0
 11
10527.92031091821
 21
6330.528906190739
 31
0.0
  0
LINE
  5
27A9B
330
1F
100
AcDbEntity
  8
D-STR-STR2
  6
Continuous
100
AcDbLine
 10
10787.92036981923
 20
6320.528506233011
 30
0.0
 11
10537.92037087597
 21
6320.528506233011
 31
0.0
  0
LINE
  5
27A9C
330
1F
100
AcDbEntity
  8
D-STR
  6
Continuous
100
AcDbLine
 10
10397.92033146772
 20
6495.527905493299
 30
0.0
 11
10387.92029150998
 21
6485.528505535566
 31
0.0
  0
LINE
  5
27A9D
330
1F
100
AcDbEntity
  8
D-BMK
  6
CENTER2
100
AcDbLine
 10
10972.92016903718
 20
6459.529305645465
 30
0.0
 11
10972.92016903718
 21
6379.528905983621
 31
0.0
  0
CIRCLE
  5
27A9E
330
1F
100
AcDbEntity
  8
D-STR-STR2
  6
Continuous
100
AcDbCircle
 10
10972.92016903718
 20
6419.529105814544
 30
0.0
 40
9.999997957730611
  0
LINE
  5
27A9F
330
1F
100
AcDbEntity
  8
D-STR
  6
Continuous
100
AcDbLine
 10
10927.92076922745
 20
6495.527905493299
 30
0.0
 11
10937.92016918512
 21
6485.528505535566
 31
0.0
  0
LINE
  5
27AA0
330
1F
100
AcDbEntity
  8
D-STR
  6
Continuous
100
AcDbLine
 10
11037.92016876243
 20
6485.528505535566
 30
0.0
 11
10937.92016918512
 21
6485.528505535566
 31
0.0
  0
LINE
  5
27AA1
330
1F
100
AcDbEntity
  8
D-STR
  6
Continuous
100
AcDbLine
 10
11037.92016876243
 20
6495.528905493294
 30
0.0
 11
10927.92016922739
 21
6495.528905493294
 31
0.0
  0
LINE
  5
27AA2
330
1F
100
AcDbEntity
  8
D-BMK
  6
CENTER2
100
AcDbLine
 10
10932.92016920626
 20
6419.529105814544
 30
0.0
 11
11012.9201688681
 21
6419.529105814544
 31
0.0
  0
TEXT
  5
27AA3
330
1F
100
AcDbEntity
  8
D-STR-DIM
100
AcDbText
 10
10201.06031229982
 20
7111.528502889502
 30
0.0
 40
70.0
  1
750
100
AcDbText
  0
LINE
  5
27AA4
330
1F
100
AcDbEntity
  8
D-STR-DIM
  6
Continuous
100
AcDbLine
 10
10662.92017034753
 20
7095.528702957134
 30
0.0
 11
10287.92031193268
 21
7095.528702957134
 31
0.0
  0
LINE
  5
27AA5
330
1F
100
AcDbEntity
  8
D-STR-DIM
  6
Continuous
100
AcDbLine
 10
10287.92031193268
 20
7395.529101689051
 30
0.0
 11
10662.92017034753
 21
7395.529101689051
 31
0.0
  0
LINE
  5
27AA6
330
1F
100
AcDbEntity
  8
D-STR-DIM
  6
Continuous
100
AcDbLine
 10
10287.92031193268
 20
7202.249702590569
 30
0.0
 11
10287.92031193268
 21
7425.528901562241
 31
0.0
  0
LINE
  5
27AA7
330
1F
100
AcDbEntity
  8
D-STR-DIM
  6
Continuous
100
AcDbLine
 10
9912.920313517785
 20
7095.528702957134
 30
0.0
 11
10287.92031193268
 21
7095.528702957134
 31
0.0
  0
LINE
  5
27AA8
330
1F
100
AcDbEntity
  8
D-STR-DIM
  6
Continuous
100
AcDbLine
 10
9912.920313517785
 20
6993.265103389396
 30
0.0
 11
9912.920313517785
 21
7125.528502830326
 31
0.0
  0
LINE
  5
27AA9
330
1F
100
AcDbEntity
  8
D-STR-DIM
  6
Continuous
100
AcDbLine
 10
10037.9202729894
 20
6895.528903802518
 30
0.0
 11
9787.920354046168
 21
6895.528903802518
 31
0.0
  0
CIRCLE
  5
27AAA
330
1F
100
AcDbEntity
  8
D-STR-DIM
  6
Continuous
100
AcDbCircle
 10
10037.9202729894
 20
6895.528903802518
 30
0.0
 40
5.999997974638371
  0
LINE
  5
27AAB
330
1F
100
AcDbEntity
  8
D-STR-DIM
  6
Continuous
100
AcDbLine
 10
9912.920313517785
 20
7095.528702957134
 30
0.0
 11
9725.420314310337
 21
7095.528702957134
 31
0.0
  0
CIRCLE
  5
27AAC
330
1F
100
AcDbEntity
  8
D-STR-DIM
  6
Continuous
100
AcDbCircle
 10
9912.920313517785
 20
7095.528702957134
 30
0.0
 40
5.999997974638371
  0
LINE
  5
27AAD
330
1F
100
AcDbEntity
  8
D-STR-DIM
  6
Continuous
100
AcDbLine
 10
10287.92031193268
 20
7395.529101689051
 30
0.0
 11
9912.920313517785
 21
7395.529101689051
 31
0.0
  0
TEXT
  5
27AAE
330
1F
100
AcDbEntity
  8
D-STR-DIM
100
AcDbText
 10
9826.060313884923
 20
7411.528901621419
 30
0.0
 40
70.0
  1
750
100
AcDbText
  0
CIRCLE
  5
27AAF
330
1F
100
AcDbEntity
  8
D-STR-DIM
  6
Continuous
100
AcDbCircle
 10
10287.92031193268
 20
7395.529101689051
 30
0.0
 40
5.999997974638371
  0
LINE
  5
27AB0
330
1F
100
AcDbEntity
  8
D-STR-DIM
  6
Continuous
100
AcDbLine
 10
11037.92016876243
 20
7031.528903396734
 30
0.0
 11
11037.92016876243
 21
7425.528901562241
 31
0.0
  0
LINE
  5
27AB1
330
1F
100
AcDbEntity
  8
D-STR-DIM
  6
Continuous
100
AcDbLine
 10
10662.92017034753
 20
7095.528702957134
 30
0.0
 11
10850.42016955498
 21
7095.528702957134
 31
0.0
  0
LINE
  5
27AB2
330
1F
100
AcDbEntity
  8
D-STR-DIM
  6
Continuous
100
AcDbLine
 10
10662.92017034753
 20
6991.528903396735
 30
0.0
 11
10662.92017034753
 21
7125.528502830326
 31
0.0
  0
CIRCLE
  5
27AB3
330
1F
100
AcDbEntity
  8
D-STR-DIM
  6
Continuous
100
AcDbCircle
 10
10662.92017034753
 20
7095.528702957134
 30
0.0
 40
5.999997974638371
  0
TEXT
  5
27AB4
330
1F
100
AcDbEntity
  8
D-STR-DIM
100
AcDbText
 10
10763.56016992219
 20
7111.528502889502
 30
0.0
 40
70.0
  1
375
100
AcDbText
  0
LINE
  5
27AB5
330
1F
100
AcDbEntity
  8
D-STR-DIM
  6
Continuous
100
AcDbLine
 10
11037.92016876243
 20
7095.528702957134
 30
0.0
 11
10850.42016955498
 21
7095.528702957134
 31
0.0
  0
LINE
  5
27AB6
330
1F
100
AcDbEntity
  8
D-STR-DIM
  6
Continuous
100
AcDbLine
 10
11037.92016876243
 20
7011.528903396734
 30
0.0
 11
11037.92016876243
 21
7125.528502830326
 31
0.0
  0
LINE
  5
27AB7
330
1F
100
AcDbEntity
  8
D-STR-DIM
  6
Continuous
100
AcDbLine
 10
11037.92016876243
 20
7395.529101689051
 30
0.0
 11
10662.92017034753
 21
7395.529101689051
 31
0.0
  0
TEXT
  5
27AB8
330
1F
100
AcDbEntity
  8
D-STR-DIM
100
AcDbText
 10
10576.06031071472
 20
7411.528901621419
 30
0.0
 40
70.0
  1
750
100
AcDbText
  0
TEXT
  5
27AB9
330
1F
100
AcDbEntity
  8
D-TTL-TXT
100
AcDbText
 10
9774.458401367441
 20
7729.863457582604
 30
0.0
 40
140.0
  1
側壁（民地側）
100
AcDbText
  0
LINE
  5
27ABA
330
1F
100
AcDbEntity
  8
D-STR-DIM
  6
Continuous
100
AcDbLine
 10
11437.92016707166
 20
6195.52850676138
 30
0.0
 11
11437.92016707166
 21
6345.528706127337
 31
0.0
  0
TEXT
  5
27ABB
330
1F
100
AcDbEntity
  8
D-STR-DIM
100
AcDbText
 10
11421.9201671393
 20
6258.66910649449
 30
0.0
 40
70.0
  1
300
 50
90.0
100
AcDbText
  0
LINE
  5
27ABC
330
1F
100
AcDbEntity
  8
D-STR-DIM
  6
Continuous
100
AcDbLine
 10
11097.92016876243
 20
6195.52850676138
 30
0.0
 11
11467.92016694484
 21
6195.52850676138
 31
0.0
  0
LINE
  5
27ABD
330
1F
100
AcDbEntity
  8
D-STR-HTXT
  6
Continuous
100
AcDbLine
 10
11287.92016770569
 20
5945.528907818112
 30
0.0
 11
11689.24788960391
 21
5945.528907818112
 31
0.0
  0
TEXT
  5
27ABE
330
1F
100
AcDbEntity
  8
D-STR-HTXT
100
AcDbText
 10
11265.06016780232
 20
5961.528507750478
 30
0.0
 40
70.0
  1
　連結金具
100
AcDbText
  0
CIRCLE
  5
27ABF
330
1F
100
AcDbEntity
  8
D-STR-DIM
  6
Continuous
100
AcDbCircle
 10
11437.92016707166
 20
6195.52850676138
 30
0.0
 40
5.999997974638371
  0
LINE
  5
27AC0
330
1F
100
AcDbEntity
  8
D-STR-DIM
  6
Continuous
100
AcDbLine
 10
11057.92016876243
 20
6495.528905493294
 30
0.0
 11
11467.92016694484
 21
6495.528905493294
 31
0.0
  0
CIRCLE
  5
27AC1
330
1F
100
AcDbEntity
  8
D-STR-DIM
  6
Continuous
100
AcDbCircle
 10
11437.92016707166
 20
6495.528905493294
 30
0.0
 40
5.999997974638371
  0
LINE
  5
27AC2
330
1F
100
AcDbEntity
  8
D-STR-DIM
  6
Continuous
100
AcDbLine
 10
11437.92016707166
 20
6495.528905493294
 30
0.0
 11
11437.92016707166
 21
6345.528706127337
 31
0.0
  0
LINE
  5
27AEE
330
1F
100
AcDbEntity
  8
D-TTL-TXT
  6
Continuous
100
AcDbLine
 10
15679.99993667822
 20
11319.99995230655
 30
0.0
 11
16419.99993371327
 21
11319.99995230655
 31
0.0
  0
LINE
  5
27AEF
330
1F
100
AcDbEntity
  8
D-TTL-TXT
  6
Continuous
100
AcDbLine
 10
15679.99993667822
 20
11479.99995166546
 30
0.0
 11
16419.99993371327
 21
11479.99995166546
 31
0.0
  0
TEXT
  5
27AF0
330
1F
100
AcDbEntity
  8
D-TTL-TXT
  6
Continuous
100
AcDbText
 10
16012.30032772787
 20
11361.7818678829
 30
0.0
 40
69.9999997195286
  1
A4A15
 72
     4
 11
16168.96699376682
 21
11396.78186774266
 31
0.0
100
AcDbText
  0
TEXT
  5
27AF7
330
1F
100
AcDbEntity
  8
D-TTL-TXT
  6
Continuous
100
AcDbText
 10
15731.42849647237
 20
11359.99995214625
 30
0.0
 40
69.9999997195286
  1
図番
100
AcDbText
  0
LINE
  5
27AF8
330
1F
100
AcDbEntity
  8
D-TTL-TXT
  6
Continuous
100
AcDbLine
 10
15679.99993667822
 20
11479.99995166546
 30
0.0
 11
15679.99993667822
 21
11319.99995230655
 31
0.0
  0
LINE
  5
27AF9
330
1F
100
AcDbEntity
  8
D-TTL-TXT
  6
Continuous
100
AcDbLine
 10
15919.99993571663
 20
11479.99995166546
 30
0.0
 11
15919.99993571663
 21
11319.99995230655
 31
0.0
  0
LINE
  5
27AFA
330
1F
100
AcDbEntity
  8
D-TTL-TXT
  6
Continuous
100
AcDbLine
 10
16419.99993371327
 20
11479.99995166546
 30
0.0
 11
16419.99993371327
 21
11319.99995230655
 31
0.0
  0
LINE
  5
28041
330
1F
100
AcDbEntity
  8
D-STR-HTXT
  6
Continuous
100
AcDbLine
 10
6364.225387376468
 20
1126.66412873739
 30
0.0
 11
7687.909983068632
 21
595.5285304659242
 31
0.0
  0
CIRCLE
  5
28055
330
1F
100
AcDbEntity
  8
D-STR
  6
Continuous
100
AcDbCircle
 10
6317.920587527162
 20
1145.529128675995
 30
0.0
 40
49.99999783727942
  0
LINE
  5
28067
330
1F
100
AcDbEntity
  8
D-STR
  6
Continuous
100
AcDbLine
 10
6366.909587367736
 20
1135.528928708541
 30
0.0
 11
6268.9313876866
 21
1135.528928708541
 31
0.0
  0
LINE
  5
28068
330
1F
100
AcDbEntity
  8
D-STR
  6
Continuous
100
AcDbLine
 10
6366.909587367736
 20
1155.529128643451
 30
0.0
 11
6268.9313876866
 21
1155.529128643451
 31
0.0
  0
LINE
  5
28069
330
1F
100
AcDbEntity
  8
D-STR-HTXT
  6
Continuous
100
AcDbLine
 10
6404.017187246987
 20
1118.52452876388
 30
0.0
 11
6364.224387376424
 21
1126.66412873739
 31
0.0
  0
CIRCLE
  5
28085
330
1F
100
AcDbEntity
  8
D-STR
  6
Continuous
100
AcDbCircle
 10
6717.920426225417
 20
1745.528926723349
 30
0.0
 40
49.99999783727942
  0
LINE
  5
2808A
330
1F
100
AcDbEntity
  8
D-STR-HTXT
  6
Continuous
100
AcDbLine
 10
7187.402224697525
 20
1088.152728862722
 30
0.0
 11
7153.267044808602
 21
1110.164528791087
 31
0.0
  0
LINE
  5
2808B
330
1F
100
AcDbEntity
  8
D-STR-HTXT
  6
Continuous
100
AcDbLine
 10
7153.271364808595
 20
1110.168928791072
 30
0.0
 11
7687.911223068607
 21
595.528930465923
 31
0.0
  0
LINE
  5
2808C
330
1F
100
AcDbEntity
  8
D-STR-HTXT
  6
Continuous
100
AcDbLine
 10
6749.763586121774
 20
1706.9809268488
 30
0.0
 11
7687.91060306862
 21
595.528930465923
 31
0.0
  0
CIRCLE
  5
2808D
330
1F
100
AcDbEntity
  8
D-STR
  6
Continuous
100
AcDbCircle
 10
7117.920424923653
 20
1145.529128675995
 30
0.0
 40
49.99999783727942
  0
LINE
  5
28099
330
1F
100
AcDbEntity
  8
D-STR
  6
Continuous
100
AcDbLine
 10
6766.90964606599
 20
1735.528726755895
 30
0.0
 11
6668.931206384844
 21
1735.528726755895
 31
0.0
  0
LINE
  5
2809A
330
1F
100
AcDbEntity
  8
D-STR
  6
Continuous
100
AcDbLine
 10
6766.90964606599
 20
1755.528926690805
 30
0.0
 11
6668.931206384844
 21
1755.528926690805
 31
0.0
  0
LINE
  5
2809B
330
1F
100
AcDbEntity
  8
D-STR-HTXT
  6
Continuous
100
AcDbLine
 10
6781.229446019326
 20
1681.295726932391
 30
0.0
 11
6749.764826121754
 21
1706.9813268488
 31
0.0
  0
LINE
  5
2809C
330
1F
100
AcDbEntity
  8
D-STR
  6
Continuous
100
AcDbLine
 10
7166.910264764213
 20
1155.529128643451
 30
0.0
 11
7068.930705083058
 21
1155.529128643451
 31
0.0
  0
LINE
  5
2809D
330
1F
100
AcDbEntity
  8
D-STR
  6
Continuous
100
AcDbLine
 10
7166.910264764213
 20
1135.528928708541
 30
0.0
 11
7068.930705083058
 21
1135.528928708541
 31
0.0
  0
TEXT
  5
2853B
330
1F
100
AcDbEntity
  8
D-TTL-TXT
100
AcDbText
 10
2723.170602340492
 20
11035.69016499235
 30
0.0
 40
200.0
  1
Ｃ．Ｃ．ＢＯＸ　1,200×1,900×1,500　ＢＨ-Ｍタイプ（マンホール付）　構造図　
100
AcDbText
  0
TEXT
  5
2853C
330
1F
100
AcDbEntity
  8
D-TTL-TXT
100
AcDbText
 10
12632.91848000854
 20
11027.68936579243
 30
0.0
 40
99.99999000000102
  1
S = 1/20
100
AcDbText
  0
LINE
  5
2853D
330
1F
100
AcDbEntity
  8
D-STR-HTXT
  6
Continuous
100
AcDbLine
 10
6417.919388290918
 20
2495.52852282375
 30
0.0
 11
7133.390445266716
 21
2695.528521978362
 31
0.0
  0
LINE
  5
2853E
330
1F
100
AcDbEntity
  8
D-STR-HTXT
  6
Continuous
100
AcDbLine
 10
6417.919388290918
 20
2495.528520486498
 30
0.0
 11
7133.390445266716
 21
2695.52851964111
 31
0.0
  0
LINE
  5
28540
330
1F
100
AcDbEntity
  8
D-STR-HTXT
  6
Continuous
100
AcDbLine
 10
6454.545099093888
 20
2513.088621395759
 30
0.0
 11
6417.920972563736
 21
2495.52714584175
 31
0.0
  0
LINE
  5
28541
330
1F
100
AcDbEntity
  8
D-STR-HTXT
  6
Continuous
100
AcDbLine
 10
7017.920445754743
 20
2495.528922823749
 30
0.0
 11
7133.390445266716
 21
2695.528521978362
 31
0.0
  0
LINE
  5
28542
330
1F
100
AcDbEntity
  8
D-STR-HTXT
  6
Continuous
100
AcDbLine
 10
7017.920445754743
 20
2495.528920486497
 30
0.0
 11
7133.390445266716
 21
2695.52851964111
 31
0.0
  0
LINE
  5
28544
330
1F
100
AcDbEntity
  8
D-STR-HTXT
  6
Continuous
100
AcDbLine
 10
7031.81255222571
 20
2533.696060656045
 30
0.0
 11
7017.920583362187
 21
2495.528544750404
 31
0.0
  0
LINE
  5
28602
330
1F
100
AcDbEntity
  8
D-MTR-FRAM
  6
Continuous
100
AcDbLine
 10
13041.94220768105
 20
7195.252871351474
 30
0.0
 11
15749.94157488111
 21
7195.252871351474
 31
0.0
  0
TEXT
  5
28603
330
1F
100
AcDbEntity
  8
D-MTR-TXT
100
AcDbText
 10
13121.93820736265
 20
7212.452871084017
 30
0.0
 40
70.0
  1
引込金具用インサート　Ｍ20（Ｙ－Ｄ32×150）
100
AcDbText
  0
LINE
  5
28604
330
1F
100
AcDbEntity
  8
D-MTR-FRAM
  6
Continuous
100
AcDbLine
 10
13041.94220768105
 20
7712.584507785341
 30
0.0
 11
15749.94157488111
 21
7712.584507785341
 31
0.0
  0
LINE
  5
28605
330
1F
100
AcDbEntity
  8
D-MTR-FRAM
  6
Continuous
100
AcDbLine
 10
13041.94220768105
 20
7841.917326893808
 30
0.0
 11
15749.94157488111
 21
7841.917326893808
 31
0.0
  0
LINE
  5
28606
330
1F
100
AcDbEntity
  8
D-MTR-FRAM
  6
Continuous
100
AcDbLine
 10
13041.94220768105
 20
7324.585130459947
 30
0.0
 11
15749.94157488111
 21
7324.585130459947
 31
0.0
  0
LINE
  5
28607
330
1F
100
AcDbEntity
  8
D-MTR-FRAM
  6
Continuous
100
AcDbLine
 10
13041.94220768105
 20
7453.919349568408
 30
0.0
 11
15749.94157488111
 21
7453.919349568408
 31
0.0
  0
LINE
  5
28608
330
1F
100
AcDbEntity
  8
D-MTR-FRAM
  6
Continuous
100
AcDbLine
 10
13041.94220768105
 20
7583.251688676876
 30
0.0
 11
15749.94157488111
 21
7583.251688676876
 31
0.0
  0
TEXT
  5
28609
330
1F
100
AcDbEntity
  8
D-MTR-TXT
100
AcDbText
 10
13121.93820736265
 20
7471.119349300948
 30
0.0
 40
70.0
  1
ピットバルブ　φ75　Ｌ＝130
100
AcDbText
  0
TEXT
  5
2860A
330
1F
100
AcDbEntity
  8
D-MTR-TXT
100
AcDbText
 10
13121.93820736265
 20
7341.785130192487
 30
0.0
 40
70.0
  1
吊り用インサート　Ｍ20（Ｙ－Ｄ32×150）
100
AcDbText
  0
LINE
  5
2860B
330
1F
100
AcDbEntity
  8
D-MTR-FRAM
  6
Continuous
100
AcDbLine
 10
13041.94220768105
 20
6807.254894026074
 30
0.0
 11
15749.94157488111
 21
6807.254894026074
 31
0.0
  0
LINE
  5
2860C
330
1F
100
AcDbEntity
  8
D-MTR-FRAM
  6
Continuous
100
AcDbLine
 10
13041.94220768105
 20
7065.920052243007
 30
0.0
 11
15749.94157488111
 21
7065.920052243007
 31
0.0
  0
LINE
  5
2860D
330
1F
100
AcDbEntity
  8
D-MTR-FRAM
  6
Continuous
100
AcDbLine
 10
13041.94220768105
 20
6936.587233134542
 30
0.0
 11
15749.94157488111
 21
6936.587233134542
 31
0.0
  0
TEXT
  5
2860E
330
1F
100
AcDbEntity
  8
D-MTR-TXT
100
AcDbText
 10
13121.93820736265
 20
7083.12005197555
 30
0.0
 40
70.0
  1
蓋用インサート　Ｍ16（Ｙ－Ｄ25×100）
100
AcDbText
  0
TEXT
  5
2860F
330
1F
100
AcDbEntity
  8
D-MTR-TXT
100
AcDbText
 10
13121.93820736265
 20
6953.787512867082
 30
0.0
 40
70.0
  1
支持受金物用インサート　Ｍ16（セラミック）
100
AcDbText
  0
TEXT
  5
28610
330
1F
100
AcDbEntity
  8
D-MTR-TXT
100
AcDbText
 10
13520.86898531419
 20
9396.449956927112
 30
0.0
 40
69.99999999999999
  1
　（工場製品）
100
AcDbText
  0
TEXT
  5
28611
330
1F
100
AcDbEntity
  8
D-MTR-TXT
100
AcDbText
 10
13305.37932744653
 20
9525.784110660344
 30
0.0
 40
69.99999999999999
  1
許　容　土　被　り
100
AcDbText
  0
TEXT
  5
28612
330
1F
100
AcDbEntity
  8
D-MTR-TXT
100
AcDbText
 10
13706.20478458812
 20
9267.117203193706
 30
0.0
 40
69.99999999999999
  1
×
100
AcDbText
  0
TEXT
  5
28613
330
1F
100
AcDbEntity
  8
D-MTR-TXT
100
AcDbText
 10
13709.93783288148
 20
9008.450015727104
 30
0.0
 40
69.99999999999999
  1
地下水位以上
100
AcDbText
  0
TEXT
  5
28614
330
1F
100
AcDbEntity
  8
D-MTR-TXT
100
AcDbText
 10
13709.93783288148
 20
8620.4500745271
 30
0.0
 40
69.99999999999999
  1
コンクリ－ト
100
AcDbText
  0
TEXT
  5
28615
330
1F
100
AcDbEntity
  8
D-MTR-TXT
100
AcDbText
 10
13709.93783288148
 20
8879.1172619937
 30
0.0
 40
69.99999999999999
  1
地下水位以下
100
AcDbText
  0
TEXT
  5
28616
330
1F
100
AcDbEntity
  8
D-MTR-TXT
100
AcDbText
 10
13400.00605895007
 20
8749.784228260329
 30
0.0
 40
69.99999999999999
  1
土　圧　係　数
100
AcDbText
  0
TEXT
  5
28617
330
1F
100
AcDbEntity
  8
D-MTR-TXT
100
AcDbText
 10
13369.84744759851
 20
9137.784169460337
 30
0.0
 40
69.99999999999999
  1
地　下　水　位
100
AcDbText
  0
TEXT
  5
28618
330
1F
100
AcDbEntity
  8
D-MTR-TXT
100
AcDbText
 10
13374.71346554458
 20
8361.784553348734
 30
0.0
 40
70.0
  1
製　品　質　量
100
AcDbText
  0
LINE
  5
28619
330
1F
100
AcDbEntity
  8
D-MTR-FRAM
  6
Continuous
100
AcDbLine
 10
13041.94220768104
 20
9893.916830513761
 30
0.0
 11
15749.94157488111
 21
9893.916830513761
 31
0.0
  0
LINE
  5
2861A
330
1F
100
AcDbEntity
  8
D-MTR-FRAM
  6
Continuous
100
AcDbLine
 10
13041.94220768104
 20
9635.251043046984
 30
0.0
 11
15749.94157488111
 21
9635.251043046984
 31
0.0
  0
LINE
  5
2861B
330
1F
100
AcDbEntity
  8
D-MTR-FRAM
  6
Continuous
100
AcDbLine
 10
13041.94220768104
 20
9505.916889313756
 30
0.0
 11
15749.94157488111
 21
9505.916889313756
 31
0.0
  0
LINE
  5
2861C
330
1F
100
AcDbEntity
  8
D-MTR-FRAM
  6
Continuous
100
AcDbLine
 10
13041.94220768104
 20
9376.583855580383
 30
0.0
 11
15749.94157488111
 21
9376.583855580383
 31
0.0
  0
LINE
  5
2861D
330
1F
100
AcDbEntity
  8
D-MTR-FRAM
  6
Continuous
100
AcDbLine
 10
13041.94220768104
 20
9247.249701847101
 30
0.0
 11
15749.94157488111
 21
9247.249701847101
 31
0.0
  0
LINE
  5
2861E
330
1F
100
AcDbEntity
  8
D-MTR-FRAM
  6
Continuous
100
AcDbLine
 10
13041.94220768104
 20
9117.91694811375
 30
0.0
 11
15749.94157488111
 21
9117.91694811375
 31
0.0
  0
LINE
  5
2861F
330
1F
100
AcDbEntity
  8
D-MTR-FRAM
  6
Continuous
100
AcDbLine
 10
13041.94220768104
 20
8859.249760647097
 30
0.0
 11
15749.94157488111
 21
8859.249760647097
 31
0.0
  0
LINE
  5
28620
330
1F
100
AcDbEntity
  8
D-MTR-FRAM
  6
Continuous
100
AcDbLine
 10
13041.94220768104
 20
8729.917006913742
 30
0.0
 11
15749.94157488111
 21
8729.917006913742
 31
0.0
  0
LINE
  5
28621
330
1F
100
AcDbEntity
  8
D-MTR-FRAM
  6
Continuous
100
AcDbLine
 10
13041.94220768104
 20
8471.250099447056
 30
0.0
 11
15749.94157488111
 21
8471.250099447056
 31
0.0
  0
LINE
  5
28622
330
1F
100
AcDbEntity
  8
D-MTR-FRAM
  6
Continuous
100
AcDbLine
 10
13041.94220768105
 20
8341.917326893806
 30
0.0
 11
15749.94157488111
 21
8341.917326893806
 31
0.0
  0
LINE
  5
28623
330
1F
100
AcDbEntity
  8
D-MTR-FRAM
  6
Continuous
100
AcDbLine
 10
13681.94184368109
 20
8600.584253180338
 30
0.0
 11
15749.94157488111
 21
8600.584253180338
 31
0.0
  0
LINE
  5
28624
330
1F
100
AcDbEntity
  8
D-MTR-FRAM
  6
Continuous
100
AcDbLine
 10
13681.94184368109
 20
9764.583796780392
 30
0.0
 11
15749.94157488111
 21
9764.583796780392
 31
0.0
  0
LINE
  5
28625
330
1F
100
AcDbEntity
  8
D-MTR-FRAM
  6
Continuous
100
AcDbLine
 10
13681.94184368109
 20
8988.584194380342
 30
0.0
 11
15749.94157488111
 21
8988.584194380342
 31
0.0
  0
TEXT
  5
28626
330
1F
100
AcDbEntity
  8
D-MTR
100
AcDbText
 10
13519.00849368848
 20
9977.916422113789
 30
0.0
 40
139.9999999999999
  1
　設　計　条　件　
100
AcDbText
  0
LINE
  5
28627
330
1F
100
AcDbEntity
  8
D-MTR-FRAM
  6
Continuous
100
AcDbLine
 10
13681.94184368109
 20
9893.916830513761
 30
0.0
 11
13681.94184368109
 21
9635.251043046984
 31
0.0
  0
LINE
  5
28628
330
1F
100
AcDbEntity
  8
D-MTR-FRAM
  6
Continuous
100
AcDbLine
 10
13041.94220768104
 20
9893.916830513761
 30
0.0
 11
13041.94220768105
 21
8341.917326893808
 31
0.0
  0
LINE
  5
28629
330
1F
100
AcDbEntity
  8
D-MTR-FRAM
  6
Continuous
100
AcDbLine
 10
13041.94220768105
 20
7841.917326893808
 30
0.0
 11
13041.94220768105
 21
6677.922554917607
 31
0.0
  0
TEXT
  5
2862A
330
1F
100
AcDbEntity
  8
D-MTR-TXT
100
AcDbText
 10
13121.93820736265
 20
6824.455173758614
 30
0.0
 40
70.0
  1
引込金具
100
AcDbText
  0
TEXT
  5
2862B
330
1F
100
AcDbEntity
  8
D-MTR-TXT
100
AcDbText
 10
13121.93820736265
 20
7600.451968409415
 30
0.0
 40
70.0
  1
連結金具
100
AcDbText
  0
LINE
  5
2862C
330
1F
100
AcDbEntity
  8
D-MTR-FRAM
  6
Continuous
100
AcDbLine
 10
13681.94184368109
 20
9117.91694811375
 30
0.0
 11
13681.94184368109
 21
8859.249760647097
 31
0.0
  0
TEXT
  5
2862D
330
1F
100
AcDbEntity
  8
D-MTR-TXT
100
AcDbText
 10
13071.58124649903
 20
8555.783697660398
 30
0.0
 40
69.99999999999999
  1
使　用　材　料
100
AcDbText
  0
LINE
  5
2862E
330
1F
100
AcDbEntity
  8
D-MTR-FRAM
  6
Continuous
100
AcDbLine
 10
13681.94184368109
 20
8729.917006913742
 30
0.0
 11
13681.94184368109
 21
8471.250099447056
 31
0.0
  0
TEXT
  5
2862F
330
1F
100
AcDbEntity
  8
D-MTR-TXT
100
AcDbText
 10
13068.97042643439
 20
9719.783521260414
 30
0.0
 40
69.99999999999999
  1
設　計　荷　重
100
AcDbText
  0
TEXT
  5
28630
330
1F
100
AcDbEntity
  8
D-MTR-TXT
100
AcDbText
 10
13105.93847128141
 20
8943.783638860402
 30
0.0
 40
69.99999999999999
  1
土の単位重量
100
AcDbText
  0
TEXT
  5
28631
330
1F
100
AcDbEntity
  8
D-MTR-TXT
100
AcDbText
 10
13116.30159158412
 20
9267.117203193706
 30
0.0
 40
69.99999999999999
  1
内空寸法
100
AcDbText
  0
TEXT
  5
28632
330
1F
100
AcDbEntity
  8
D-MTR-TXT
100
AcDbText
 10
13453.71001234304
 20
9267.117203193706
 30
0.0
 40
69.99999999999999
  1
　（幅
100
AcDbText
  0
TEXT
  5
28633
330
1F
100
AcDbEntity
  8
D-MTR-TXT
100
AcDbText
 10
13122.73818960145
 20
9396.449956927112
 30
0.0
 40
69.99999999999999
  1
構造形式　　　
100
AcDbText
  0
LINE
  5
28634
330
1F
100
AcDbEntity
  8
D-MTR-FRAM
  6
Continuous
100
AcDbLine
 10
15749.94157488111
 20
9893.916830513761
 30
0.0
 11
15749.94157488111
 21
8341.917326893808
 31
0.0
  0
TEXT
  5
28635
330
1F
100
AcDbEntity
  8
D-MTR-TXT
100
AcDbText
 10
13754.73838840143
 20
9784.451298126942
 30
0.0
 40
69.99999999999999
  1
活　荷　重
100
AcDbText
  0
LINE
  5
28636
330
1F
100
AcDbEntity
  8
D-MTR-FRAM
  6
Continuous
100
AcDbLine
 10
14223.27510421442
 20
9893.916830513761
 30
0.0
 11
14223.27510421442
 21
8341.917326893808
 31
0.0
  0
TEXT
  5
28637
330
1F
100
AcDbEntity
  8
D-MTR-MTXT
100
AcDbText
 10
14259.27109061483
 20
9784.451298126942
 30
0.0
 40
69.99999999999999
  1
Ｔ－25　（後輪１輪　100ｋＮ）
100
AcDbText
  0
TEXT
  5
28638
330
1F
100
AcDbEntity
  8
D-MTR
100
AcDbText
 10
13791.21234509967
 20
7896.778776008251
 30
0.0
 40
140.0
  1
　材　料　表　
100
AcDbText
  0
TEXT
  5
28639
330
1F
100
AcDbEntity
  8
D-MTR-TXT
100
AcDbText
 10
13942.28766704028
 20
7729.784507517883
 30
0.0
 40
70.0
  1
種　　類
100
AcDbText
  0
LINE
  5
2863A
330
1F
100
AcDbEntity
  8
D-MTR-FRAM
  6
Continuous
100
AcDbLine
 10
15749.94157488111
 20
7841.917326893808
 30
0.0
 11
15749.94157488111
 21
6677.922554917607
 31
0.0
  0
LINE
  5
2863B
330
1F
100
AcDbEntity
  8
D-MTR-FRAM
  6
Continuous
100
AcDbLine
 10
15143.94157789003
 20
7841.917326893808
 30
0.0
 11
15143.94157789003
 21
6677.922554917607
 31
0.0
  0
TEXT
  5
2863C
330
1F
100
AcDbEntity
  8
D-MTR-MTXT
100
AcDbText
 10
15109.45206467218
 20
6824.455173758614
 30
0.0
 40
70.0
  1
　　　4　個
100
AcDbText
  0
TEXT
  5
2863D
330
1F
100
AcDbEntity
  8
D-MTR-MTXT
100
AcDbText
 10
15148.56424630381
 20
6953.787512867082
 30
0.0
 40
70.0
  1
　　16　本
100
AcDbText
  0
TEXT
  5
2863E
330
1F
100
AcDbEntity
  8
D-MTR-MTXT
100
AcDbText
 10
15132.25301185414
 20
7471.119349300948
 30
0.0
 40
70.0
  1
　　　1　個
100
AcDbText
  0
TEXT
  5
2863F
330
1F
100
AcDbEntity
  8
D-MTR-MTXT
100
AcDbText
 10
15115.94177740446
 20
7212.452871084017
 30
0.0
 40
70.0
  1
　　　6　本
100
AcDbText
  0
TEXT
  5
28640
330
1F
100
AcDbEntity
  8
D-MTR-MTXT
100
AcDbText
 10
15115.94177740446
 20
7341.785130192487
 30
0.0
 40
70.0
  1
　　　4　本
100
AcDbText
  0
TEXT
  5
28641
330
1F
100
AcDbEntity
  8
D-MTR-MTXT
100
AcDbText
 10
15115.94177740446
 20
7083.12005197555
 30
0.0
 40
70.0
  1
　　　4　本
100
AcDbText
  0
TEXT
  5
28642
330
1F
100
AcDbEntity
  8
D-MTR-TXT
100
AcDbText
 10
15301.00312705193
 20
7729.784507517883
 30
0.0
 40
70.0
  1
個　　数
100
AcDbText
  0
TEXT
  5
28643
330
1F
100
AcDbEntity
  8
D-MTR-MTXT
100
AcDbText
 10
15115.94177740446
 20
7600.451968409415
 30
0.0
 40
70.0
  1
　　　8　個
100
AcDbText
  0
TEXT
  5
28644
330
1F
100
AcDbEntity
  8
D-MTR-MTXT
100
AcDbText
 10
14835.87117215542
 20
9267.117203193706
 30
0.0
 40
69.99999999999999
  1
1,900
100
AcDbText
  0
TEXT
  5
28645
330
1F
100
AcDbEntity
  8
D-MTR-MTXT
100
AcDbText
 10
14781.09117334839
 20
8489.655488952895
 30
0.0
 40
69.99999999999999
  1
σｓａ＝160Ｎ／ｍｍ
100
AcDbText
  0
TEXT
  5
28646
330
1F
100
AcDbEntity
  8
D-MTR-MTXT
100
AcDbText
 10
14781.09117334839
 20
8618.988242686299
 30
0.0
 40
69.99999999999999
  1
σｃｋ＝　35Ｎ／ｍｍ
100
AcDbText
  0
TEXT
  5
28647
330
1F
100
AcDbEntity
  8
D-MTR-MTXT
100
AcDbText
 10
14259.27109061483
 20
8749.784228260329
 30
0.0
 40
69.99999999999999
  1
ｋａ＝0.5　（静止土圧係数）
100
AcDbText
  0
TEXT
  5
28648
330
1F
100
AcDbEntity
  8
D-MTR-MTXT
100
AcDbText
 10
14259.27109061483
 20
9396.449956927112
 30
0.0
 40
69.99999999999999
  1
鉄筋コンクリ－ト箱形
100
AcDbText
  0
LINE
  5
28649
330
1F
100
AcDbEntity
  8
D-MTR-MTXT
  6
Continuous
100
AcDbLine
 10
14291.27508741442
 20
9182.5833249804
 30
0.0
 11
15131.27556341437
 21
9182.5833249804
 31
0.0
  0
TEXT
  5
2864A
330
1F
100
AcDbEntity
  8
D-MTR-MTXT
100
AcDbText
 10
14259.27109061483
 20
8491.117320793694
 30
0.0
 40
69.99999999999999
  1
ＳＤ２９５Ａ　　
100
AcDbText
  0
TEXT
  5
2864B
330
1F
100
AcDbEntity
  8
D-MTR-MTXT
100
AcDbText
 10
14259.27109061483
 20
8620.4500745271
 30
0.0
 40
69.99999999999999
  1
設計基準強度　　
100
AcDbText
  0
TEXT
  5
2864C
330
1F
100
AcDbEntity
  8
D-MTR-TXT
100
AcDbText
 10
13799.53810392146
 20
8491.117320793694
 30
0.0
 40
69.99999999999999
  1
鉄　　筋
100
AcDbText
  0
TEXT
  5
2864D
330
1F
100
AcDbEntity
  8
D-MTR-MTXT
100
AcDbText
 10
14484.32395814715
 20
8361.784553348734
 30
0.0
 40
70.0
  1
4,980
100
AcDbText
  0
TEXT
  5
2864E
330
1F
100
AcDbEntity
  8
D-MTR-MTXT
100
AcDbText
 10
14852.07166171181
 20
8369.32378014672
 30
0.0
 40
70.0
  1
 kg
100
AcDbText
  0
TEXT
  5
2864F
330
1F
100
AcDbEntity
  8
D-MTR-MTXT
100
AcDbText
 10
14326.96210835084
 20
9267.117203193706
 30
0.0
 40
69.99999999999999
  1
1,200
100
AcDbText
  0
TEXT
  5
28650
330
1F
100
AcDbEntity
  8
D-MTR-MTXT
100
AcDbText
 10
14259.27109061483
 20
9008.450015727104
 30
0.0
 40
69.99999999999999
  1
γ＝19.0ｋＮ／ｍ
100
AcDbText
  0
TEXT
  5
28651
330
1F
100
AcDbEntity
  8
D-MTR-MTXT
100
AcDbText
 10
14259.27109061483
 20
9525.784110660344
 30
0.0
 40
69.99999999999999
  1
Ｈ′＝
100
AcDbText
  0
TEXT
  5
28652
330
1F
100
AcDbEntity
  8
D-MTR-MTXT
100
AcDbText
 10
14259.27109061483
 20
9655.116864393747
 30
0.0
 40
69.99999999999999
  1
ｉ＝0.3
100
AcDbText
  0
TEXT
  5
28653
330
1F
100
AcDbEntity
  8
D-MTR-TXT
100
AcDbText
 10
13996.07113093482
 20
9267.117203193706
 30
0.0
 40
69.99999999999999
  1
長）
100
AcDbText
  0
TEXT
  5
28654
330
1F
100
AcDbEntity
  8
D-MTR-TXT
100
AcDbText
 10
13895.00503770809
 20
9267.117203193706
 30
0.0
 40
69.99999999999999
  1
×
100
AcDbText
  0
TEXT
  5
28655
330
1F
100
AcDbEntity
  8
D-MTR-TXT
100
AcDbText
 10
13793.93838448143
 20
9267.117203193706
 30
0.0
 40
69.99999999999999
  1
高
100
AcDbText
  0
TEXT
  5
28656
330
1F
100
AcDbEntity
  8
D-MTR-TXT
100
AcDbText
 10
13754.73838840143
 20
9655.116864393747
 30
0.0
 40
69.99999999999999
  1
衝　　　撃
100
AcDbText
  0
TEXT
  5
28657
330
1F
100
AcDbEntity
  8
D-MTR-MTXT
100
AcDbText
 10
14685.40437466816
 20
9267.117203193706
 30
0.0
 40
69.99999999999999
  1
×
100
AcDbText
  0
TEXT
  5
28658
330
1F
100
AcDbEntity
  8
D-MTR-MTXT
100
AcDbText
 10
14978.00492895038
 20
9055.79237476852
 30
0.0
 40
49.99999999999999
  1
3
100
AcDbText
  0
TEXT
  5
28659
330
1F
100
AcDbEntity
  8
D-MTR-MTXT
100
AcDbText
 10
14572.87105925482
 20
9525.784110660344
 30
0.0
 40
69.99999999999999
  1
0.200
100
AcDbText
  0
TEXT
  5
2865A
330
1F
100
AcDbEntity
  8
D-MTR-MTXT
100
AcDbText
 10
14937.81076443169
 20
9525.784110660344
 30
0.0
 40
69.99999999999999
  1
～
100
AcDbText
  0
TEXT
  5
2865B
330
1F
100
AcDbEntity
  8
D-MTR-MTXT
100
AcDbText
 10
15656.32199983159
 20
8659.766309613935
 30
0.0
 40
49.99999999999999
  1
2
100
AcDbText
  0
TEXT
  5
2865C
330
1F
100
AcDbEntity
  8
D-MTR-MTXT
100
AcDbText
 10
15626.23713174032
 20
8530.433555880529
 30
0.0
 40
49.99999999999999
  1
2
100
AcDbText
  0
TEXT
  5
2865D
330
1F
100
AcDbEntity
  8
D-MTR-MTXT
100
AcDbText
 10
15072.21019099175
 20
9525.784110660344
 30
0.0
 40
69.99999999999999
  1
1.000　ｍ
100
AcDbText
  0
TEXT
  5
2865E
330
1F
100
AcDbEntity
  8
D-MTR-TXT
100
AcDbText
 10
13121.93820736265
 20
6695.122834650148
 30
0.0
 40
70.0
  1
取付ボックス用インサートＭ16（Ｙ－Ｄ25×100）
100
AcDbText
  0
LINE
  5
2865F
330
1F
100
AcDbEntity
  8
D-MTR-FRAM
  6
Continuous
100
AcDbLine
 10
13041.94220768105
 20
6677.922554917607
 30
0.0
 11
15749.94157488111
 21
6677.922554917607
 31
0.0
  0
TEXT
  5
28660
330
1F
100
AcDbEntity
  8
D-MTR-MTXT
100
AcDbText
 10
15109.45206467218
 20
6695.122834650148
 30
0.0
 40
70.0
  1
　　　6　本
100
AcDbText
  0
TEXT
  5
2866F
330
1F
100
AcDbEntity
  8
D-MTR-MTXT
100
AcDbText
 10
15323.70829381418
 20
9267.117203193706
 30
0.0
 40
69.99999999999999
  1
1,500
100
AcDbText
  0
TEXT
  5
28670
330
1F
100
AcDbEntity
  8
D-MTR-MTXT
100
AcDbText
 10
15173.24149632691
 20
9267.117203193706
 30
0.0
 40
69.99999999999999
  1
×
100
AcDbText
  0
VIEWPORT
  5
2E
102
{ACAD_XDICTIONARY
360
2867F
102
}
330
1B
100
AcDbEntity
 67
     1
  8
0
100
AcDbViewport
 10
473.1810839499198
 20
473.2126938647103
 30
0.0
 40
2443.154659054329
 41
1598.230339464706
 68
     1
 69
     1
 12
473.1810839499198
 22
473.2126938647103
 13
0.0
 23
0.0
 14
10.0
 24
10.0
 15
10.0
 25
10.0
 16
0.0
 26
0.0
 36
1.0
 17
0.0
 27
0.0
 37
0.0
 42
50.0
 43
0.0
 44
0.0
 45
1598.230339464706
 50
0.0
 51
0.0
 72
   100
 90
    32800
  1

281
     0
 71
     1
 74
     0
110
0.0
120
0.0
130
0.0
111
1.0
121
0.0
131
0.0
112
0.0
122
1.0
132
0.0
 79
     0
146
0.0
  0
ENDSEC
  0
SECTION
  2
OBJECTS
  0
DICTIONARY
  5
C
330
0
100
AcDbDictionary
281
     1
  3
ACAD_COLOR
350
28675
  3
ACAD_GROUP
350
D
  3
ACAD_LAYOUT
350
1A
  3
ACAD_MATERIAL
350
28674
  3
ACAD_MLINESTYLE
350
17
  3
ACAD_PLOTSETTINGS
350
19
  3
ACAD_PLOTSTYLENAME
350
7E80
  3
ACAD_TABLESTYLE
350
28676
  3
AcadDim
350
8E27
  3
ACDBHEADERROUNDTRIPXREC
350
2867E
  3
AcDbVariableDictionary
350
7E86
1001
ACAD
1000
TREAT_AS_HARD
1070
     0
  0
DICTIONARY
  5
7BCB
330
1F
100
AcDbDictionary
280
     1
281
     1
  3
ACAD_LAYOUTSELFREF
360
7DA3
1001
ACAD
1000
TREAT_AS_HARD
1070
     1
  0
DICTIONARY
  5
7BCD
330
1B
100
AcDbDictionary
280
     1
281
     1
  3
ACAD_LAYOUTSELFREF
360
7DA2
1001
ACAD
1000
TREAT_AS_HARD
1070
     1
  0
DICTIONARY
  5
2867F
330
2E
100
AcDbDictionary
280
     1
281
     1
  3
ACAD_XREC_ROUNDTRIP
360
28680
  0
DICTIONARY
  5
28675
102
{ACAD_REACTORS
330
C
102
}
330
C
100
AcDbDictionary
281
     1
  0
DICTIONARY
  5
D
102
{ACAD_REACTORS
330
C
102
}
330
C
100
AcDbDictionary
281
     1
1001
ACAD
1000
TREAT_AS_HARD
1070
     0
  0
DICTIONARY
  5
1A
102
{ACAD_REACTORS
330
C
102
}
330
C
100
AcDbDictionary
281
     1
  3
Model
350
7E82
  3
ﾚｲｱｳﾄ1
350
7E83
1001
ACAD
1000
TREAT_AS_HARD
1070
     0
  0
DICTIONARY
  5
28674
102
{ACAD_REACTORS
330
C
102
}
330
C
100
AcDbDictionary
281
     1
  0
DICTIONARY
  5
17
102
{ACAD_REACTORS
330
C
102
}
330
C
100
AcDbDictionary
281
     1
  3
STANDARD
350
18
1001
ACAD
1000
TREAT_AS_HARD
1070
     0
  0
DICTIONARY
  5
19
102
{ACAD_REACTORS
330
C
102
}
330
C
100
AcDbDictionary
281
     1
1001
ACAD
1000
TREAT_AS_HARD
1070
     0
  0
ACDBDICTIONARYWDFLT
  5
7E80
102
{ACAD_REACTORS
330
C
102
}
330
C
100
AcDbDictionary
281
     1
  3
Normal
350
7E81
100
AcDbDictionaryWithDefault
340
7E81
  0
DICTIONARY
  5
28676
102
{ACAD_REACTORS
330
C
102
}
330
C
100
AcDbDictionary
281
     1
  3
Standard
350
28677
  0
XRECORD
  5
8E27
102
{ACAD_REACTORS
330
C
102
}
330
C
100
AcDbXrecord
280
     1
 90
   990106
  3

 60
     0
 61
     0
 62
     1
 63
     3
 64
     0
 65
     0
 66
     0
 67
     3
 68
     1
 69
     0
 70
     0
 71
     0
 72
     0
 40
0.0
170
     0
340
0
  0
DICTIONARY
  5
2867E
102
{ACAD_REACTORS
330
C
102
}
330
C
100
AcDbDictionary
281
     1
  0
DICTIONARY
  5
7E86
102
{ACAD_REACTORS
330
C
102
}
330
C
100
AcDbDictionary
281
     1
  3
CTABLESTYLE
350
2867B
  3
DIMASSOC
350
7E87
  3
PROJECTNAME
350
2867C
  3
SORTENTS
350
B6AF
  0
XRECORD
  5
7DA3
102
{ACAD_REACTORS
330
7BCB
102
}
330
7BCB
100
AcDbXrecord
280
     1
340
1F
  0
XRECORD
  5
7DA2
102
{ACAD_REACTORS
330
7BCD
102
}
330
7BCD
100
AcDbXrecord
280
     1
340
1B
  0
XRECORD
  5
28680
102
{ACAD_REACTORS
330
2867F
102
}
330
2867F
100
AcDbXrecord
280
     1
102
SHADEPLOT
 70
     0
  0
LAYOUT
  5
7E82
102
{ACAD_XDICTIONARY
360
28681
102
}
102
{ACAD_REACTORS
330
1A
102
}
330
1A
100
AcDbPlotSettings
  1

  2
RICOH IPSiO NX730N RPCS
  4
A3
  6

 40
5.873749732971191
 41
5.873747825622558
 42
5.873748779296875
 43
5.873748779296875
 44
296.9259948730469
 45
419.9466552734374
 46
-5.91
 47
-6.15
 48
0.0
 49
-0.0000023372522264
140
16819.99993279995
141
11879.99995006277
142
1.0
143
40.0
 70
 11948
 72
     1
 73
     1
 74
     4
  7
canon国土交通省.ctb
 75
     0
147
0.025
148
0.0
149
0.0000023372522264
100
AcDbLayout
  1
Model
 70
     1
 71
     0
 10
0.0
 20
0.0
 11
12.0
 21
9.0
 12
0.0
 22
0.0
 32
0.0
 14
0.0
 24
0.0
 34
0.0
 15
0.0
 25
0.0
 35
0.0
146
0.0
 13
0.0
 23
0.0
 33
0.0
 16
1.0
 26
0.0
 36
0.0
 17
0.0
 27
1.0
 37
0.0
 76
     0
330
1F
  0
LAYOUT
  5
7E83
102
{ACAD_XDICTIONARY
360
28683
102
}
102
{ACAD_REACTORS
330
1A
102
}
330
1A
100
AcDbPlotSettings
  1

  2
Canon LASER SHOT LBP-740
  4

  6

 40
0.0
 41
0.0
 42
0.0
 43
0.0
 44
0.0
 45
0.0
 46
0.0
 47
0.0
 48
0.0
 49
0.0
140
0.0
141
0.0
142
1.0
143
0.000000000000000E+99
 70
   688
 72
     0
 73
     1
 74
     1
  7
canon国土交通省.ctb
 75
     0
147
0.0
148
182.4834335403793
149
501.366229236586
100
AcDbLayout
  1
ﾚｲｱｳﾄ1
 70
     1
 71
     1
 10
-7.184387147259029
 20
-19.73882792270024
 11
-7.184387147259029
 21
-19.73882792270024
 12
0.0
 22
0.0
 32
0.0
 14
-7.18438714725903
 24
-19.73882792270024
 34
-0.0015258207003583
 15
833.8481947040165
 25
574.2966304217307
 35
0.0000000349246037
146
0.0
 13
0.0
 23
0.0
 33
0.0
 16
1.0
 26
0.0
 36
0.0
 17
0.0
 27
1.0
 37
0.0
 76
     0
330
1B
331
2E
  0
MLINESTYLE
  5
18
102
{ACAD_REACTORS
330
17
102
}
330
17
100
AcDbMlineStyle
  2
STANDARD
 70
     0
  3

 62
   256
 51
90.0
 52
90.0
 71
     2
 49
0.5
 62
   256
  6
BYLAYER
 49
-0.5
 62
   256
  6
BYLAYER
  0
ACDBPLACEHOLDER
  5
7E81
102
{ACAD_REACTORS
330
7E80
102
}
330
7E80
  0
TABLESTYLE
  5
28677
102
{ACAD_REACTORS
330
28676
102
}
330
28676
100
AcDbTableStyle
  3
Standard
 70
     0
 71
     0
 40
0.06
 41
0.06
280
     0
281
     0
  7
STANDARD
140
0.18
170
     2
 62
     0
 63
     7
283
     0
274
    -2
284
     1
 64
     0
275
    -2
285
     1
 65
     0
276
    -2
286
     1
 66
     0
277
    -2
287
     1
 67
     0
278
    -2
288
     1
 68
     0
279
    -2
289
     1
 69
     0
  7
STANDARD
140
0.25
170
     5
 62
     0
 63
     7
283
     0
274
    -2
284
     1
 64
     0
275
    -2
285
     1
 65
     0
276
    -2
286
     1
 66
     0
277
    -2
287
     1
 67
     0
278
    -2
288
     1
 68
     0
279
    -2
289
     1
 69
     0
  7
STANDARD
140
0.18
170
     5
 62
     0
 63
     7
283
     0
274
    -2
284
     1
 64
     0
275
    -2
285
     1
 65
     0
276
    -2
286
     1
 66
     0
277
    -2
287
     1
 67
     0
278
    -2
288
     1
 68
     0
279
    -2
289
     1
 69
     0
  0
DICTIONARYVAR
  5
2867B
102
{ACAD_REACTORS
330
7E86
102
}
330
7E86
100
DictionaryVariables
280
     0
  1
STANDARD
  0
DICTIONARYVAR
  5
7E87
102
{ACAD_REACTORS
330
7E86
102
}
330
7E86
100
DictionaryVariables
280
     0
  1
1
  0
DICTIONARYVAR
  5
2867C
102
{ACAD_REACTORS
330
7E86
102
}
330
7E86
100
DictionaryVariables
280
     0
  1

  0
DICTIONARYVAR
  5
B6AF
102
{ACAD_REACTORS
330
7E86
102
}
330
7E86
100
DictionaryVariables
280
     0
  1
112
  0
DICTIONARY
  5
28681
330
7E82
100
AcDbDictionary
280
     1
281
     1
  3
ACAD_XREC_ROUNDTRIP
360
28682
  0
DICTIONARY
  5
28683
330
7E83
100
AcDbDictionary
280
     1
281
     1
  3
ACAD_XREC_ROUNDTRIP
360
28684
  0
XRECORD
  5
28682
102
{ACAD_REACTORS
330
28681
102
}
330
28681
100
AcDbXrecord
280
     1
102
SHADEPLOT
 70
     2
102
SHADEPLOTRESLEVEL
 70
     2
102
SHADEPLOTCUSTOMDPI
 70
   300
  0
XRECORD
  5
28684
102
{ACAD_REACTORS
330
28683
102
}
330
28683
100
AcDbXrecord
280
     1
102
SHADEPLOT
 70
     0
102
SHADEPLOTRESLEVEL
 70
     2
102
SHADEPLOTCUSTOMDPI
 70
   300
  0
ENDSEC
  0
EOF
