  0
SECTION
  2
HEADER
  9
$ACADVER
  1
AC1015
  9
$ACADMAINTVER
 70
    20
  9
$DWGCODEPAGE
  3
ANSI_932
  9
$INSBASE
 10
0.0
 20
0.0
 30
0.0
  9
$EXTMIN
 10
77.44949695590094
 20
64.93606819414527
 30
-0.0015258207003583
  9
$EXTMAX
 10
1407.550509959168
 20
950.0564598479032
 30
0.0000000349246037
  9
$LIMMIN
 10
0.0
 20
0.0
  9
$LIMMAX
 10
1485.0
 20
1050.0
  9
$ORTHOMODE
 70
     1
  9
$REGENMODE
 70
     1
  9
$FILLMODE
 70
     1
  9
$QTEXTMODE
 70
     0
  9
$MIRRTEXT
 70
     0
  9
$LTSCALE
 40
5.0
  9
$ATTMODE
 70
     1
  9
$TEXTSIZE
 40
0.2
  9
$TRACEWID
 40
0.05
  9
$TEXTSTYLE
  7
STANDARD
  9
$CLAYER
  8
0
  9
$CELTYPE
  6
CONTINUOUS
  9
$CECOLOR
 62
   256
  9
$CELTSCALE
 40
1.0
  9
$DISPSILH
 70
     0
  9
$DIMSCALE
 40
1.0
  9
$DIMASZ
 40
0.18
  9
$DIMEXO
 40
0.0625
  9
$DIMDLI
 40
0.38
  9
$DIMRND
 40
0.0
  9
$DIMDLE
 40
0.0
  9
$DIMEXE
 40
0.18
  9
$DIMTP
 40
0.0
  9
$DIMTM
 40
0.0
  9
$DIMTXT
 40
0.18
  9
$DIMCEN
 40
0.09
  9
$DIMTSZ
 40
0.0
  9
$DIMTOL
 70
     0
  9
$DIMLIM
 70
     0
  9
$DIMTIH
 70
     1
  9
$DIMTOH
 70
     1
  9
$DIMSE1
 70
     0
  9
$DIMSE2
 70
     0
  9
$DIMTAD
 70
     0
  9
$DIMZIN
 70
     0
  9
$DIMBLK
  1

  9
$DIMASO
 70
     1
  9
$DIMSHO
 70
     1
  9
$DIMPOST
  1

  9
$DIMAPOST
  1

  9
$DIMALT
 70
     0
  9
$DIMALTD
 70
     2
  9
$DIMALTF
 40
25.4
  9
$DIMLFAC
 40
1.0
  9
$DIMTOFL
 70
     0
  9
$DIMTVP
 40
0.0
  9
$DIMTIX
 70
     0
  9
$DIMSOXD
 70
     0
  9
$DIMSAH
 70
     0
  9
$DIMBLK1
  1

  9
$DIMBLK2
  1

  9
$DIMSTYLE
  2
Standard
  9
$DIMCLRD
 70
     0
  9
$DIMCLRE
 70
     0
  9
$DIMCLRT
 70
     0
  9
$DIMTFAC
 40
1.0
  9
$DIMGAP
 40
0.09
  9
$DIMJUST
 70
     0
  9
$DIMSD1
 70
     0
  9
$DIMSD2
 70
     0
  9
$DIMTOLJ
 70
     1
  9
$DIMTZIN
 70
     0
  9
$DIMALTZ
 70
     0
  9
$DIMALTTZ
 70
     0
  9
$DIMUPT
 70
     0
  9
$DIMDEC
 70
     4
  9
$DIMTDEC
 70
     4
  9
$DIMALTU
 70
     2
  9
$DIMALTTD
 70
     2
  9
$DIMTXSTY
  7
STANDARD
  9
$DIMAUNIT
 70
     0
  9
$DIMADEC
 70
     0
  9
$DIMALTRND
 40
0.0
  9
$DIMAZIN
 70
     0
  9
$DIMDSEP
 70
    46
  9
$DIMATFIT
 70
     3
  9
$DIMFRAC
 70
     0
  9
$DIMLDRBLK
  1

  9
$DIMLUNIT
 70
     2
  9
$DIMLWD
 70
    -2
  9
$DIMLWE
 70
    -2
  9
$DIMTMOVE
 70
     0
  9
$LUNITS
 70
     2
  9
$LUPREC
 70
     4
  9
$SKETCHINC
 40
0.1
  9
$FILLETRAD
 40
0.0
  9
$AUNITS
 70
     0
  9
$AUPREC
 70
     0
  9
$MENU
  1
.
  9
$ELEVATION
 40
0.0
  9
$PELEVATION
 40
0.0
  9
$THICKNESS
 40
0.0
  9
$LIMCHECK
 70
     0
  9
$CHAMFERA
 40
0.0
  9
$CHAMFERB
 40
0.0
  9
$CHAMFERC
 40
0.0
  9
$CHAMFERD
 40
0.0
  9
$SKPOLY
 70
     0
  9
$TDCREATE
 40
2456348.047790614
  9
$TDUCREATE
 40
2456347.672790613
  9
$TDUPDATE
 40
2456348.084478889
  9
$TDUUPDATE
 40
2456347.709478889
  9
$TDINDWG
 40
0.0366884606
  9
$TDUSRTIMER
 40
0.0366884606
  9
$USRTIMER
 70
     1
  9
$ANGBASE
 50
0.0
  9
$ANGDIR
 70
     0
  9
$PDMODE
 70
     0
  9
$PDSIZE
 40
0.0
  9
$PLINEWID
 40
0.0
  9
$SPLFRAME
 70
     0
  9
$SPLINETYPE
 70
     6
  9
$SPLINESEGS
 70
     8
  9
$HANDSEED
  5
33F
  9
$SURFTAB1
 70
     6
  9
$SURFTAB2
 70
     6
  9
$SURFTYPE
 70
     6
  9
$SURFU
 70
     6
  9
$SURFV
 70
     6
  9
$UCSBASE
  2

  9
$UCSNAME
  2

  9
$UCSORG
 10
0.0
 20
0.0
 30
0.0
  9
$UCSXDIR
 10
1.0
 20
0.0
 30
0.0
  9
$UCSYDIR
 10
0.0
 20
1.0
 30
0.0
  9
$UCSORTHOREF
  2

  9
$UCSORTHOVIEW
 70
     0
  9
$UCSORGTOP
 10
0.0
 20
0.0
 30
0.0
  9
$UCSORGBOTTOM
 10
0.0
 20
0.0
 30
0.0
  9
$UCSORGLEFT
 10
0.0
 20
0.0
 30
0.0
  9
$UCSORGRIGHT
 10
0.0
 20
0.0
 30
0.0
  9
$UCSORGFRONT
 10
0.0
 20
0.0
 30
0.0
  9
$UCSORGBACK
 10
0.0
 20
0.0
 30
0.0
  9
$PUCSBASE
  2

  9
$PUCSNAME
  2

  9
$PUCSORG
 10
0.0
 20
0.0
 30
0.0
  9
$PUCSXDIR
 10
1.0
 20
0.0
 30
0.0
  9
$PUCSYDIR
 10
0.0
 20
1.0
 30
0.0
  9
$PUCSORTHOREF
  2

  9
$PUCSORTHOVIEW
 70
     0
  9
$PUCSORGTOP
 10
0.0
 20
0.0
 30
0.0
  9
$PUCSORGBOTTOM
 10
0.0
 20
0.0
 30
0.0
  9
$PUCSORGLEFT
 10
0.0
 20
0.0
 30
0.0
  9
$PUCSORGRIGHT
 10
0.0
 20
0.0
 30
0.0
  9
$PUCSORGFRONT
 10
0.0
 20
0.0
 30
0.0
  9
$PUCSORGBACK
 10
0.0
 20
0.0
 30
0.0
  9
$USERI1
 70
     0
  9
$USERI2
 70
     0
  9
$USERI3
 70
     0
  9
$USERI4
 70
     0
  9
$USERI5
 70
     0
  9
$USERR1
 40
0.0
  9
$USERR2
 40
0.0
  9
$USERR3
 40
0.0
  9
$USERR4
 40
0.0
  9
$USERR5
 40
0.0
  9
$WORLDVIEW
 70
     1
  9
$SHADEDGE
 70
     3
  9
$SHADEDIF
 70
    70
  9
$TILEMODE
 70
     1
  9
$MAXACTVP
 70
    64
  9
$PINSBASE
 10
0.0
 20
0.0
 30
0.0
  9
$PLIMCHECK
 70
     0
  9
$PEXTMIN
 10
1.000000000000000E+20
 20
1.000000000000000E+20
 30
1.000000000000000E+20
  9
$PEXTMAX
 10
-1.000000000000000E+20
 20
-1.000000000000000E+20
 30
-1.000000000000000E+20
  9
$PLIMMIN
 10
0.0
 20
0.0
  9
$PLIMMAX
 10
12.0
 20
9.0
  9
$UNITMODE
 70
     0
  9
$VISRETAIN
 70
     1
  9
$PLINEGEN
 70
     0
  9
$PSLTSCALE
 70
     1
  9
$TREEDEPTH
 70
  3020
  9
$CMLSTYLE
  2
Standard
  9
$CMLJUST
 70
     0
  9
$CMLSCALE
 40
1.0
  9
$PROXYGRAPHICS
 70
     1
  9
$MEASUREMENT
 70
     0
  9
$CELWEIGHT
370
    -1
  9
$ENDCAPS
280
     0
  9
$JOINSTYLE
280
     0
  9
$LWDISPLAY
290
     0
  9
$INSUNITS
 70
     0
  9
$HYPERLINKBASE
  1

  9
$STYLESHEET
  1

  9
$XEDIT
290
     1
  9
$CEPSNTYPE
380
     0
  9
$PSTYLEMODE
290
     1
  9
$FINGERPRINTGUID
  2
{2102FD2D-726D-44CC-AB00-4EC3B42200F8}
  9
$VERSIONGUID
  2
{5BB2ACFB-07B0-4456-A8CB-1B5AC087FBAA}
  9
$EXTNAMES
290
     1
  9
$PSVPSCALE
 40
0.0
  9
$OLESTARTUP
290
     0
  0
ENDSEC
  0
SECTION
  2
CLASSES
  0
CLASS
  1
ACDBDICTIONARYWDFLT
  2
AcDbDictionaryWithDefault
  3
ObjectDBX Classes
 90
        0
280
     0
281
     0
  0
CLASS
  1
DICTIONARYVAR
  2
AcDbDictionaryVar
  3
ObjectDBX Classes
 90
        0
280
     0
281
     0
  0
CLASS
  1
ACDBPLACEHOLDER
  2
AcDbPlaceHolder
  3
ObjectDBX Classes
 90
        0
280
     0
281
     0
  0
CLASS
  1
LAYOUT
  2
AcDbLayout
  3
ObjectDBX Classes
 90
        0
280
     0
281
     0
  0
ENDSEC
  0
SECTION
  2
TABLES
  0
TABLE
  2
VPORT
  5
8
330
0
100
AcDbSymbolTable
 70
    12
  0
VPORT
  5
337
330
8
100
AcDbSymbolTableRecord
100
AcDbViewportTableRecord
  2
*Active
 70
     0
 10
0.0
 20
0.0
 11
1.0
 21
1.0
 12
742.4999999999999
 22
525.0
 13
0.0
 23
0.0
 14
1.0
 24
1.0
 15
0.0
 25
0.0
 16
0.0
 26
0.0
 36
1.0
 17
0.0
 27
0.0
 37
0.0
 40
1085.199992358701
 41
1.376978417266186
 42
50.0
 43
0.0
 44
0.0
 50
0.0
 51
0.0
 71
     0
 72
   100
 73
     1
 74
     1
 75
     0
 76
     0
 77
     0
 78
     0
281
     0
 65
     1
110
0.0
120
0.0
130
0.0
111
1.0
121
0.0
131
0.0
112
0.0
122
1.0
132
0.0
 79
     0
146
0.0
  0
ENDTAB
  0
TABLE
  2
LTYPE
  5
5
330
0
100
AcDbSymbolTable
 70
    35
  0
LTYPE
  5
13
330
5
100
AcDbSymbolTableRecord
100
AcDbLinetypeTableRecord
  2
ByBlock
 70
     0
  3

 72
    65
 73
     0
 40
0.0
  0
LTYPE
  5
14
330
5
100
AcDbSymbolTableRecord
100
AcDbLinetypeTableRecord
  2
ByLayer
 70
     0
  3

 72
    65
 73
     0
 40
0.0
  0
LTYPE
  5
15
330
5
100
AcDbSymbolTableRecord
100
AcDbLinetypeTableRecord
  2
CONTINUOUS
 70
     0
  3
実線
 72
    65
 73
     0
 40
0.0
  0
LTYPE
  5
24
330
5
100
AcDbSymbolTableRecord
100
AcDbLinetypeTableRecord
  2
DASHED1
 70
     0
  3
--  --  --  --  --  --  --  --  
 72
    65
 73
     2
 40
2.5
 49
1.25
 74
     0
 49
-1.25
 74
     0
  0
LTYPE
  5
25
330
5
100
AcDbSymbolTableRecord
100
AcDbLinetypeTableRecord
  2
DASHED2
 70
     0
  3
----    ----    ----    ----    
 72
    65
 73
     2
 40
5.0
 49
2.5
 74
     0
 49
-2.5
 74
     0
  0
LTYPE
  5
26
330
5
100
AcDbSymbolTableRecord
100
AcDbLinetypeTableRecord
  2
DASHED3
 70
     0
  3
------  ------  ------  ------  
 72
    65
 73
     2
 40
5.0
 49
3.75
 74
     0
 49
-1.25
 74
     0
  0
LTYPE
  5
27
330
5
100
AcDbSymbolTableRecord
100
AcDbLinetypeTableRecord
  2
CENTER1
 70
     0
  3
----- - ----- - ----- - ----- - 
 72
    65
 73
     4
 40
10.0
 49
6.25
 74
     0
 49
-1.25
 74
     0
 49
1.25
 74
     0
 49
-1.25
 74
     0
  0
LTYPE
  5
28
330
5
100
AcDbSymbolTableRecord
100
AcDbLinetypeTableRecord
  2
CENTER2
 70
     0
  3
----------  --  ----------  --  
 72
    65
 73
     4
 40
20.0
 49
12.5
 74
     0
 49
-2.5
 74
     0
 49
2.5
 74
     0
 49
-2.5
 74
     0
  0
LTYPE
  5
29
330
5
100
AcDbSymbolTableRecord
100
AcDbLinetypeTableRecord
  2
PHANTOM1
 70
     0
  3
--- - - --- - - --- - - --- - - 
 72
    65
 73
     6
 40
10.0
 49
3.25
 74
     0
 49
-1.25
 74
     0
 49
1.25
 74
     0
 49
-1.25
 74
     0
 49
1.25
 74
     0
 49
-1.25
 74
     0
  0
LTYPE
  5
2A
330
5
100
AcDbSymbolTableRecord
100
AcDbLinetypeTableRecord
  2
PHANTOM2
 70
     0
  3
--------  -  -  --------  -  -  
 72
    65
 73
     6
 40
20.0
 49
10.0
 74
     0
 49
-2.5
 74
     0
 49
1.25
 74
     0
 49
-2.5
 74
     0
 49
1.25
 74
     0
 49
-2.5
 74
     0
  0
LTYPE
  5
2B
330
5
100
AcDbSymbolTableRecord
100
AcDbLinetypeTableRecord
  2
DOT
 70
     0
  3
-   -   -   -   -   -   -   -   
 72
    65
 73
     2
 40
2.5
 49
0.625
 74
     0
 49
-1.875
 74
     0
  0
LTYPE
  5
2C
330
5
100
AcDbSymbolTableRecord
100
AcDbLinetypeTableRecord
  2
DUMMY
 70
     0
  3
ダミー
 72
    65
 73
     0
 40
0.0
  0
LTYPE
  5
2D
330
5
100
AcDbSymbolTableRecord
100
AcDbLinetypeTableRecord
  2
RAND1
 70
     0
  3
ランダム線1
 72
    65
 73
     4
 40
10.0
 49
1.0
 74
     0
 49
-2.0
 74
     0
 49
3.0
 74
     0
 49
-4.0
 74
     0
  0
LTYPE
  5
2E
330
5
100
AcDbSymbolTableRecord
100
AcDbLinetypeTableRecord
  2
RAND2
 70
     0
  3
ランダム線2
 72
    65
 73
     4
 40
14.0
 49
2.0
 74
     0
 49
-3.0
 74
     0
 49
4.0
 74
     0
 49
-5.0
 74
     0
  0
LTYPE
  5
2F
330
5
100
AcDbSymbolTableRecord
100
AcDbLinetypeTableRecord
  2
RAND3
 70
     0
  3
ランダム線3
 72
    65
 73
     4
 40
18.0
 49
3.0
 74
     0
 49
-4.0
 74
     0
 49
5.0
 74
     0
 49
-6.0
 74
     0
  0
LTYPE
  5
30
330
5
100
AcDbSymbolTableRecord
100
AcDbLinetypeTableRecord
  2
RAND4
 70
     0
  3
ランダム線4
 72
    65
 73
     4
 40
22.0
 49
4.0
 74
     0
 49
-5.0
 74
     0
 49
6.0
 74
     0
 49
-7.0
 74
     0
  0
LTYPE
  5
31
330
5
100
AcDbSymbolTableRecord
100
AcDbLinetypeTableRecord
  2
RAND5
 70
     0
  3
ランダム線5
 72
    65
 73
     4
 40
26.0
 49
5.0
 74
     0
 49
-6.0
 74
     0
 49
7.0
 74
     0
 49
-8.0
 74
     0
  0
LTYPE
  5
32
330
5
100
AcDbSymbolTableRecord
100
AcDbLinetypeTableRecord
  2
LONG1
 70
     0
  3
----------  --  ----------  --  
 72
    65
 73
     4
 40
40.0
 49
32.5
 74
     0
 49
-2.5
 74
     0
 49
2.5
 74
     0
 49
-2.5
 74
     0
  0
LTYPE
  5
33
330
5
100
AcDbSymbolTableRecord
100
AcDbLinetypeTableRecord
  2
LONG2
 70
     0
  3
--------  -  -  --------  -  -  
 72
    65
 73
     6
 40
40.0
 49
30.0
 74
     0
 49
-2.5
 74
     0
 49
1.25
 74
     0
 49
-2.5
 74
     0
 49
1.25
 74
     0
 49
-2.5
 74
     0
  0
LTYPE
  5
34
330
5
100
AcDbSymbolTableRecord
100
AcDbLinetypeTableRecord
  2
LONG3
 70
     0
  3
+++++++++++++++..+++++++++++++++
 72
    65
 73
     2
 40
40.0
 49
37.5
 74
     0
 49
-2.5
 74
     0
  0
LTYPE
  5
35
330
5
100
AcDbSymbolTableRecord
100
AcDbLinetypeTableRecord
  2
LONG4
 70
     0
  3
+++++++++++++++..+++++++++++++++
 72
    65
 73
     2
 40
80.0
 49
75.0
 74
     0
 49
-5.0
 74
     0
  0
LTYPE
  5
36
330
5
100
AcDbSymbolTableRecord
100
AcDbLinetypeTableRecord
  2
LONG5
 70
     0
  3
----------  --  ----------  --  
 72
    65
 73
     4
 40
60.0
 49
37.5
 74
     0
 49
-7.5
 74
     0
 49
7.5
 74
     0
 49
-7.5
 74
     0
  0
LTYPE
  5
37
330
5
100
AcDbSymbolTableRecord
100
AcDbLinetypeTableRecord
  2
DASHED
 70
     0
  3
-------   -------------   ------
 72
    65
 73
     2
 40
7.5
 49
6.0
 74
     0
 49
-1.5
 74
     0
  0
LTYPE
  5
38
330
5
100
AcDbSymbolTableRecord
100
AcDbLinetypeTableRecord
  2
DASHED_SPACED
 70
     0
  3
----        --------        ----
 72
    65
 73
     2
 40
12.0
 49
6.0
 74
     0
 49
-6.0
 74
     0
  0
LTYPE
  5
39
330
5
100
AcDbSymbolTableRecord
100
AcDbLinetypeTableRecord
  2
LONG_DASHED_DOTTED
 70
     0
  3
------------- --- --------------
 72
    65
 73
     4
 40
15.25
 49
12.0
 74
     0
 49
-1.5
 74
     0
 49
0.25
 74
     0
 49
-1.5
 74
     0
  0
LTYPE
  5
3A
330
5
100
AcDbSymbolTableRecord
100
AcDbLinetypeTableRecord
  2
LONG_DASHED_DOUBLE-DOTTED
 70
     0
  3
----------- --- --- ------------
 72
    65
 73
     6
 40
17.0
 49
12.0
 74
     0
 49
-1.5
 74
     0
 49
0.25
 74
     0
 49
-1.5
 74
     0
 49
0.25
 74
     0
 49
-1.5
 74
     0
  0
LTYPE
  5
3B
330
5
100
AcDbSymbolTableRecord
100
AcDbLinetypeTableRecord
  2
LONG_DASHED_TRIPLICATE-DOTTED
 70
     0
  3
--------- --- --- --- ----------
 72
    65
 73
     8
 40
18.75
 49
12.0
 74
     0
 49
-1.5
 74
     0
 49
0.25
 74
     0
 49
-1.5
 74
     0
 49
0.25
 74
     0
 49
-1.5
 74
     0
 49
0.25
 74
     0
 49
-1.5
 74
     0
  0
LTYPE
  5
3C
330
5
100
AcDbSymbolTableRecord
100
AcDbLinetypeTableRecord
  2
DOTTED
 70
     0
  3
   -       -       -       -    
 72
    65
 73
     2
 40
1.75
 49
0.25
 74
     0
 49
-1.5
 74
     0
  0
LTYPE
  5
3D
330
5
100
AcDbSymbolTableRecord
100
AcDbLinetypeTableRecord
  2
CHAIN
 70
     0
  3
-------------- -- --------------
 72
    65
 73
     4
 40
18.5
 49
12.0
 74
     0
 49
-1.5
 74
     0
 49
3.5
 74
     0
 49
-1.5
 74
     0
  0
LTYPE
  5
3E
330
5
100
AcDbSymbolTableRecord
100
AcDbLinetypeTableRecord
  2
CHAIN_DOUBLE_DASH
 70
     0
  3
------------ -- -- -------------
 72
    65
 73
     6
 40
23.5
 49
12.0
 74
     0
 49
-1.5
 74
     0
 49
3.5
 74
     0
 49
-1.5
 74
     0
 49
3.5
 74
     0
 49
-1.5
 74
     0
  0
LTYPE
  5
3F
330
5
100
AcDbSymbolTableRecord
100
AcDbLinetypeTableRecord
  2
DASHED_DOTTED
 70
     0
  3
-----------     -     ----------
 72
    65
 73
     4
 40
9.25
 49
6.0
 74
     0
 49
-1.5
 74
     0
 49
0.25
 74
     0
 49
-1.5
 74
     0
  0
LTYPE
  5
40
330
5
100
AcDbSymbolTableRecord
100
AcDbLinetypeTableRecord
  2
DOUBLE-DASHED_DOTTED
 70
     0
  3
------   -----------   -   -----
 72
    65
 73
     6
 40
16.75
 49
6.0
 74
     0
 49
-1.5
 74
     0
 49
6.0
 74
     0
 49
-1.5
 74
     0
 49
0.25
 74
     0
 49
-1.5
 74
     0
  0
LTYPE
  5
41
330
5
100
AcDbSymbolTableRecord
100
AcDbLinetypeTableRecord
  2
DASHED_DOUBLE-DOTTED
 70
     0
  3
---------    -    -    ---------
 72
    65
 73
     6
 40
11.0
 49
6.0
 74
     0
 49
-1.5
 74
     0
 49
0.25
 74
     0
 49
-1.5
 74
     0
 49
0.25
 74
     0
 49
-1.5
 74
     0
  0
LTYPE
  5
42
330
5
100
AcDbSymbolTableRecord
100
AcDbLinetypeTableRecord
  2
DOUBLE-DASHED_DOUBLE-DOTTED
 70
     0
  3
-----   ---------   -   -   ----
 72
    65
 73
     8
 40
18.5
 49
6.0
 74
     0
 49
-1.5
 74
     0
 49
6.0
 74
     0
 49
-1.5
 74
     0
 49
0.25
 74
     0
 49
-1.5
 74
     0
 49
0.25
 74
     0
 49
-1.5
 74
     0
  0
LTYPE
  5
43
330
5
100
AcDbSymbolTableRecord
100
AcDbLinetypeTableRecord
  2
DASHED_TRIPLICATE-DOTTED
 70
     0
  3
-------    -    -    -    ------
 72
    65
 73
     8
 40
12.75
 49
6.0
 74
     0
 49
-1.5
 74
     0
 49
0.25
 74
     0
 49
-1.5
 74
     0
 49
0.25
 74
     0
 49
-1.5
 74
     0
 49
0.25
 74
     0
 49
-1.5
 74
     0
  0
LTYPE
  5
44
330
5
100
AcDbSymbolTableRecord
100
AcDbLinetypeTableRecord
  2
DOUBLE-DASHED_TRIPLICATE-DOTTED
 70
     0
  3
-----  ---------  -  -  -  -----
 72
    65
 73
    10
 40
20.25
 49
6.0
 74
     0
 49
-1.5
 74
     0
 49
6.0
 74
     0
 49
-1.5
 74
     0
 49
0.25
 74
     0
 49
-1.5
 74
     0
 49
0.25
 74
     0
 49
-1.5
 74
     0
 49
0.25
 74
     0
 49
-1.5
 74
     0
  0
LTYPE
  5
45
330
5
100
AcDbSymbolTableRecord
100
AcDbLinetypeTableRecord
  2
UNDEFINED
 70
     0
  3
--------------------------------
 72
    65
 73
     0
 40
0.0
  0
ENDTAB
  0
TABLE
  2
LAYER
  5
2
330
0
100
AcDbSymbolTable
 70
     3
  0
LAYER
  5
10
330
2
100
AcDbSymbolTableRecord
100
AcDbLayerTableRecord
  2
0
 70
     0
 62
     7
  6
CONTINUOUS
370
    -3
390
F
  0
LAYER
  5
47
330
2
100
AcDbSymbolTableRecord
100
AcDbLayerTableRecord
  2
_0-0_
 70
     0
 62
     7
  6
CONTINUOUS
370
    -3
390
F
  0
LAYER
  5
48
330
2
100
AcDbSymbolTableRecord
100
AcDbLayerTableRecord
  2
ADD_LINE
 70
     0
 62
     7
  6
CONTINUOUS
370
    -3
390
F
  0
ENDTAB
  0
TABLE
  2
STYLE
  5
3
330
0
100
AcDbSymbolTable
 70
     3
  0
STYLE
  5
11
330
3
100
AcDbSymbolTableRecord
100
AcDbTextStyleTableRecord
  2
STANDARD
 70
     0
 40
0.0
 41
1.0
 50
0.0
 71
     0
 42
0.2
  3
txt
  4
bigfont.shx
  0
STYLE
  5
46
330
3
100
AcDbSymbolTableRecord
100
AcDbTextStyleTableRecord
  2
TATEGAKI
 70
     4
 40
0.0
 41
1.0
 50
0.0
 71
     0
 42
1.0
  3
txt
  4
bigfont.shx
  0
STYLE
  5
170
330
3
100
AcDbSymbolTableRecord
100
AcDbTextStyleTableRecord
  2
MSゴシック
 70
     0
 40
0.0
 41
0.8
 50
0.0
 71
     0
 42
0.2
  3

  4

1001
ACAD
1000
MS Gothic
1071
    32817
  0
ENDTAB
  0
TABLE
  2
VIEW
  5
6
330
0
100
AcDbSymbolTable
 70
     0
  0
ENDTAB
  0
TABLE
  2
UCS
  5
7
330
0
100
AcDbSymbolTable
 70
     0
  0
ENDTAB
  0
TABLE
  2
APPID
  5
9
330
0
100
AcDbSymbolTable
 70
     1
  0
APPID
  5
12
330
9
100
AcDbSymbolTableRecord
100
AcDbRegAppTableRecord
  2
ACAD
 70
     0
  0
ENDTAB
  0
TABLE
  2
DIMSTYLE
  5
A
330
0
100
AcDbSymbolTable
 70
     1
100
AcDbDimStyleTable
 71
     0
  0
DIMSTYLE
105
158
330
A
100
AcDbSymbolTableRecord
100
AcDbDimStyleTableRecord
  2
Standard
 70
     0
340
11
  0
ENDTAB
  0
TABLE
  2
BLOCK_RECORD
  5
1
330
0
100
AcDbSymbolTable
 70
     1
  0
BLOCK_RECORD
  5
20
330
1
100
AcDbSymbolTableRecord
100
AcDbBlockTableRecord
  2
*Model_Space
340
23
  0
BLOCK_RECORD
  5
1C
330
1
100
AcDbSymbolTableRecord
100
AcDbBlockTableRecord
  2
*Paper_Space
340
1F
  0
ENDTAB
  0
ENDSEC
  0
SECTION
  2
BLOCKS
  0
BLOCK
  5
21
330
20
100
AcDbEntity
  8
0
100
AcDbBlockBegin
  2
*Model_Space
 70
     0
 10
0.0
 20
0.0
 30
0.0
  3
*Model_Space
  1

  0
ENDBLK
  5
22
330
20
100
AcDbEntity
  8
0
100
AcDbBlockEnd
  0
BLOCK
  5
1D
330
1C
100
AcDbEntity
 67
     1
  8
0
100
AcDbBlockBegin
  2
*Paper_Space
 70
     0
 10
0.0
 20
0.0
 30
0.0
  3
*Paper_Space
  1

  0
ENDBLK
  5
1E
330
1C
100
AcDbEntity
 67
     1
  8
0
100
AcDbBlockEnd
  0
ENDSEC
  0
SECTION
  2
ENTITIES
  0
LINE
  5
4C
330
20
100
AcDbEntity
  8
_0-0_
  6
Continuous
 62
     5
100
AcDbLine
 10
701.3125
 20
588.6874999999998
 30
0.0
 11
701.3125
 21
468.6874999999999
 31
0.0
  0
LINE
  5
4D
330
20
100
AcDbEntity
  8
_0-0_
  6
Continuous
 62
     5
100
AcDbLine
 10
692.3124999999999
 20
468.6874999999999
 30
0.0
 11
1292.3125
 21
468.6874999999999
 31
0.0
  0
LINE
  5
4E
330
20
100
AcDbEntity
  8
_0-0_
  6
Continuous
 62
     5
100
AcDbLine
 10
701.3125
 20
588.6874999999998
 30
0.0
 11
1283.3125
 21
588.6874999999998
 31
0.0
  0
LINE
  5
4F
330
20
100
AcDbEntity
  8
_0-0_
  6
Continuous
 62
     4
100
AcDbLine
 10
827.3125
 20
633.6874999999999
 30
0.0
 11
857.3125
 21
633.6874999999999
 31
0.0
  0
LINE
  5
50
330
20
100
AcDbEntity
  8
_0-0_
  6
Continuous
 62
   136
100
AcDbLine
 10
77.5
 20
65.0
 30
0.0
 11
1407.5
 21
65.0
 31
0.0
  0
LINE
  5
51
330
20
100
AcDbEntity
  8
_0-0_
  6
Continuous
 62
   136
100
AcDbLine
 10
1407.5
 20
65.0
 30
0.0
 11
1407.5
 21
950.0
 31
0.0
  0
LINE
  5
52
330
20
100
AcDbEntity
  8
_0-0_
  6
Continuous
 62
   136
100
AcDbLine
 10
1407.5
 20
950.0
 30
0.0
 11
77.5
 21
950.0
 31
0.0
  0
LINE
  5
53
330
20
100
AcDbEntity
  8
_0-0_
  6
Continuous
 62
   136
100
AcDbLine
 10
77.5
 20
950.0
 30
0.0
 11
77.5
 21
65.0
 31
0.0
  0
LINE
  5
55
330
20
100
AcDbEntity
  8
_0-0_
  6
Continuous
 62
     4
100
AcDbLine
 10
692.3124999999999
 20
723.6875
 30
0.0
 11
1292.3125
 21
723.6875
 31
0.0
  0
LINE
  5
56
330
20
100
AcDbEntity
  8
_0-0_
  6
Continuous
 62
     4
100
AcDbLine
 10
1292.3125
 20
723.6875
 30
0.0
 11
1285.068056302832
 21
721.746357161731
 31
0.0
  0
LINE
  5
57
330
20
100
AcDbEntity
  8
_0-0_
  6
Continuous
 62
     4
100
AcDbLine
 10
1292.3125
 20
723.6875
 30
0.0
 11
1285.068056302832
 21
725.628642838269
 31
0.0
  0
LINE
  5
58
330
20
100
AcDbEntity
  8
_0-0_
  6
Continuous
 62
     4
100
AcDbLine
 10
692.3124999999999
 20
723.6875
 30
0.0
 11
699.5569436971679
 21
725.628642838269
 31
0.0
  0
LINE
  5
59
330
20
100
AcDbEntity
  8
_0-0_
  6
Continuous
 62
     4
100
AcDbLine
 10
692.3124999999999
 20
723.6875
 30
0.0
 11
699.5569436971679
 21
721.746357161731
 31
0.0
  0
LINE
  5
5A
330
20
100
AcDbEntity
  8
_0-0_
  6
Continuous
 62
     4
100
AcDbLine
 10
692.3124999999999
 20
678.6874999999999
 30
0.0
 11
842.3125
 21
678.6874999999999
 31
0.0
  0
LINE
  5
5B
330
20
100
AcDbEntity
  8
_0-0_
  6
Continuous
 62
     4
100
AcDbLine
 10
1142.3125
 20
678.6874999999999
 30
0.0
 11
842.3125
 21
678.6874999999999
 31
0.0
  0
LINE
  5
5C
330
20
100
AcDbEntity
  8
_0-0_
  6
Continuous
 62
     4
100
AcDbLine
 10
1142.3125
 20
678.6874999999999
 30
0.0
 11
1292.3125
 21
678.6874999999999
 31
0.0
  0
LINE
  5
5D
330
20
100
AcDbEntity
  8
_0-0_
  6
Continuous
 62
     4
100
AcDbLine
 10
1292.3125
 20
678.6874999999999
 30
0.0
 11
1285.068056302832
 21
676.746357161731
 31
0.0
  0
LINE
  5
5E
330
20
100
AcDbEntity
  8
_0-0_
  6
Continuous
 62
     4
100
AcDbLine
 10
1292.3125
 20
678.6874999999999
 30
0.0
 11
1285.068056302832
 21
680.6286428382689
 31
0.0
  0
LINE
  5
5F
330
20
100
AcDbEntity
  8
_0-0_
  6
Continuous
 62
     4
100
AcDbLine
 10
1142.3125
 20
678.6874999999999
 30
0.0
 11
1149.556943697168
 21
680.6286428382689
 31
0.0
  0
LINE
  5
60
330
20
100
AcDbEntity
  8
_0-0_
  6
Continuous
 62
     4
100
AcDbLine
 10
1142.3125
 20
678.6874999999999
 30
0.0
 11
1149.556943697168
 21
676.746357161731
 31
0.0
  0
LINE
  5
61
330
20
100
AcDbEntity
  8
_0-0_
  6
Continuous
 62
     4
100
AcDbLine
 10
1142.3125
 20
678.6874999999999
 30
0.0
 11
1135.068056302832
 21
676.746357161731
 31
0.0
  0
LINE
  5
62
330
20
100
AcDbEntity
  8
_0-0_
  6
Continuous
 62
     4
100
AcDbLine
 10
1142.3125
 20
678.6874999999999
 30
0.0
 11
1135.068056302832
 21
680.6286428382689
 31
0.0
  0
LINE
  5
63
330
20
100
AcDbEntity
  8
_0-0_
  6
Continuous
 62
     4
100
AcDbLine
 10
842.3125
 20
678.6874999999999
 30
0.0
 11
849.5569436971679
 21
680.6286428382689
 31
0.0
  0
LINE
  5
64
330
20
100
AcDbEntity
  8
_0-0_
  6
Continuous
 62
     4
100
AcDbLine
 10
842.3125
 20
678.6874999999999
 30
0.0
 11
849.5569436971679
 21
676.746357161731
 31
0.0
  0
LINE
  5
65
330
20
100
AcDbEntity
  8
_0-0_
  6
Continuous
 62
     4
100
AcDbLine
 10
842.3125
 20
678.6874999999999
 30
0.0
 11
835.0680563028319
 21
676.746357161731
 31
0.0
  0
LINE
  5
66
330
20
100
AcDbEntity
  8
_0-0_
  6
Continuous
 62
     4
100
AcDbLine
 10
842.3125
 20
678.6874999999999
 30
0.0
 11
835.0680563028319
 21
680.6286428382689
 31
0.0
  0
LINE
  5
67
330
20
100
AcDbEntity
  8
_0-0_
  6
Continuous
 62
     4
100
AcDbLine
 10
692.3124999999999
 20
678.6874999999999
 30
0.0
 11
699.556943697168
 21
680.6286428382689
 31
0.0
  0
LINE
  5
68
330
20
100
AcDbEntity
  8
_0-0_
  6
Continuous
 62
     4
100
AcDbLine
 10
692.3124999999999
 20
678.6874999999999
 30
0.0
 11
699.556943697168
 21
676.746357161731
 31
0.0
  0
TEXT
  5
69
330
20
100
AcDbEntity
  8
_0-0_
 62
     7
100
AcDbText
 10
974.1875
 20
725.6874999999999
 30
0.0
 40
20.0
  1
600
 41
0.8
  7
MSゴシック
100
AcDbText
  0
TEXT
  5
6A
330
20
100
AcDbEntity
  8
_0-0_
 62
     7
100
AcDbText
 10
974.1875
 20
680.6874999999999
 30
0.0
 40
20.0
  1
300
 41
0.8
  7
MSゴシック
100
AcDbText
  0
TEXT
  5
6B
330
20
100
AcDbEntity
  8
_0-0_
 62
     7
100
AcDbText
 10
749.1875
 20
680.6874999999999
 30
0.0
 40
20.0
  1
150
 41
0.8
  7
MSゴシック
100
AcDbText
  0
TEXT
  5
6C
330
20
100
AcDbEntity
  8
_0-0_
 62
     7
100
AcDbText
 10
1199.1875
 20
680.6874999999999
 30
0.0
 40
20.0
  1
150
 41
0.8
  7
MSゴシック
100
AcDbText
  0
LINE
  5
6D
330
20
100
AcDbEntity
  8
_0-0_
  6
Continuous
 62
     4
100
AcDbLine
 10
827.3125
 20
638.6874999999998
 30
0.0
 11
827.3125
 21
593.6874999999998
 31
0.0
  0
LINE
  5
6E
330
20
100
AcDbEntity
  8
_0-0_
  6
Continuous
 62
     4
100
AcDbLine
 10
857.3125
 20
638.6874999999998
 30
0.0
 11
857.3125
 21
593.6874999999998
 31
0.0
  0
LINE
  5
6F
330
20
100
AcDbEntity
  8
_0-0_
  6
Continuous
 62
     4
100
AcDbLine
 10
692.3124999999999
 20
728.6875
 30
0.0
 11
692.3124999999999
 21
593.6874999999998
 31
0.0
  0
LINE
  5
70
330
20
100
AcDbEntity
  8
_0-0_
  6
Continuous
 62
     4
100
AcDbLine
 10
1292.3125
 20
728.6875
 30
0.0
 11
1292.3125
 21
593.6874999999998
 31
0.0
  0
LINE
  5
71
330
20
100
AcDbEntity
  8
_0-0_
  6
Continuous
 62
     4
100
AcDbLine
 10
864.8125
 20
638.6874999999998
 30
0.0
 11
864.8125
 21
593.6874999999998
 31
0.0
  0
LINE
  5
72
330
20
100
AcDbEntity
  8
_0-0_
  6
Continuous
 62
     4
100
AcDbLine
 10
864.8125
 20
633.6874999999999
 30
0.0
 11
872.0569436971681
 21
635.6286428382689
 31
0.0
  0
LINE
  5
73
330
20
100
AcDbEntity
  8
_0-0_
  6
Continuous
 62
     4
100
AcDbLine
 10
864.8125
 20
633.6874999999999
 30
0.0
 11
872.0569436971681
 21
631.7463571617309
 31
0.0
  0
LINE
  5
74
330
20
100
AcDbEntity
  8
_0-0_
  6
Continuous
 62
     4
100
AcDbLine
 10
864.8125
 20
633.6874999999999
 30
0.0
 11
899.9136705101326
 21
633.6874999999999
 31
0.0
  0
LINE
  5
75
330
20
100
AcDbEntity
  8
_0-0_
  6
Continuous
 62
     4
100
AcDbLine
 10
857.3125
 20
633.6874999999999
 30
0.0
 11
850.0680563028319
 21
631.746357161731
 31
0.0
  0
LINE
  5
76
330
20
100
AcDbEntity
  8
_0-0_
  6
Continuous
 62
     4
100
AcDbLine
 10
857.3125
 20
633.6874999999999
 30
0.0
 11
850.0680563028319
 21
635.6286428382689
 31
0.0
  0
LINE
  5
77
330
20
100
AcDbEntity
  8
_0-0_
  6
Continuous
 62
     4
100
AcDbLine
 10
827.3125
 20
633.6874999999999
 30
0.0
 11
834.5569436971679
 21
635.6286428382689
 31
0.0
  0
LINE
  5
78
330
20
100
AcDbEntity
  8
_0-0_
  6
Continuous
 62
     4
100
AcDbLine
 10
827.3125
 20
633.6874999999999
 30
0.0
 11
834.5569436971679
 21
631.746357161731
 31
0.0
  0
TEXT
  5
79
330
20
100
AcDbEntity
  8
_0-0_
 62
     7
100
AcDbText
 10
872.1511513644207
 20
633.6027393369361
 30
0.0
 40
20.0
  1
7.5
 41
0.7
  7
MSゴシック
100
AcDbText
  0
TEXT
  5
7D
330
20
100
AcDbEntity
  8
_0-0_
 62
     7
100
AcDbText
 10
821.2890024183879
 20
637.1309571252456
 30
0.0
 40
20.0
  1
φ30
 41
0.7
  7
MSゴシック
100
AcDbText
  0
LINE
  5
7E
330
20
100
AcDbEntity
  8
_0-0_
  6
Continuous
 62
     4
100
AcDbLine
 10
842.3125
 20
683.6874999999999
 30
0.0
 11
842.3125
 21
661.9326989636484
 31
0.0
  0
LINE
  5
7F
330
20
100
AcDbEntity
  8
_0-0_
  6
Continuous
 62
     4
100
AcDbLine
 10
1142.3125
 20
683.6874999999999
 30
0.0
 11
1142.3125
 21
661.9326989636484
 31
0.0
  0
LINE
  5
80
330
20
100
AcDbEntity
  8
_0-0_
  6
CENTER1
 62
     4
100
AcDbLine
 10
842.3125
 20
633.6874999999999
 30
0.0
 11
842.3125
 21
438.6874999999999
 31
0.0
  0
LINE
  5
81
330
20
100
AcDbEntity
  8
_0-0_
  6
CENTER1
 62
     4
100
AcDbLine
 10
1142.3125
 20
633.6874999999999
 30
0.0
 11
1142.3125
 21
438.6874999999999
 31
0.0
  0
LINE
  5
82
330
20
100
AcDbEntity
  8
_0-0_
  6
Continuous
 62
     4
100
AcDbLine
 10
819.8125
 20
638.6874999999998
 30
0.0
 11
819.8125
 21
593.6874999999998
 31
0.0
  0
LINE
  5
83
330
20
100
AcDbEntity
  8
_0-0_
  6
Continuous
 62
     4
100
AcDbLine
 10
819.8125
 20
633.6874999999999
 30
0.0
 11
784.8125
 21
633.6874999999999
 31
0.0
  0
LINE
  5
84
330
20
100
AcDbEntity
  8
_0-0_
  6
Continuous
 62
     4
100
AcDbLine
 10
819.8125
 20
633.6874999999999
 30
0.0
 11
812.5680563028319
 21
631.746357161731
 31
0.0
  0
LINE
  5
85
330
20
100
AcDbEntity
  8
_0-0_
  6
Continuous
 62
     4
100
AcDbLine
 10
819.8125
 20
633.6874999999999
 30
0.0
 11
812.5680563028319
 21
635.6286428382689
 31
0.0
  0
TEXT
  5
86
330
20
100
AcDbEntity
  8
_0-0_
 62
     7
100
AcDbText
 10
786.8819532547909
 20
633.6027393369361
 30
0.0
 40
20.0
  1
7.5
 41
0.7
  7
MSゴシック
100
AcDbText
  0
LINE
  5
89
330
20
100
AcDbEntity
  8
_0-0_
  6
Continuous
 62
     4
100
AcDbLine
 10
1127.3125
 20
633.6874999999999
 30
0.0
 11
1157.3125
 21
633.6874999999999
 31
0.0
  0
LINE
  5
8A
330
20
100
AcDbEntity
  8
_0-0_
  6
Continuous
 62
     4
100
AcDbLine
 10
1127.3125
 20
638.6874999999998
 30
0.0
 11
1127.3125
 21
593.6874999999998
 31
0.0
  0
LINE
  5
8B
330
20
100
AcDbEntity
  8
_0-0_
  6
Continuous
 62
     4
100
AcDbLine
 10
1157.3125
 20
638.6874999999998
 30
0.0
 11
1157.3125
 21
593.6874999999998
 31
0.0
  0
LINE
  5
8C
330
20
100
AcDbEntity
  8
_0-0_
  6
Continuous
 62
     4
100
AcDbLine
 10
1164.8125
 20
638.6874999999998
 30
0.0
 11
1164.8125
 21
593.6874999999998
 31
0.0
  0
LINE
  5
8D
330
20
100
AcDbEntity
  8
_0-0_
  6
Continuous
 62
     4
100
AcDbLine
 10
1164.8125
 20
633.6874999999999
 30
0.0
 11
1172.056943697168
 21
635.6286428382689
 31
0.0
  0
LINE
  5
8E
330
20
100
AcDbEntity
  8
_0-0_
  6
Continuous
 62
     4
100
AcDbLine
 10
1164.8125
 20
633.6874999999999
 30
0.0
 11
1172.056943697168
 21
631.7463571617309
 31
0.0
  0
LINE
  5
8F
330
20
100
AcDbEntity
  8
_0-0_
  6
Continuous
 62
     4
100
AcDbLine
 10
1164.8125
 20
633.6874999999999
 30
0.0
 11
1199.913670510133
 21
633.6874999999999
 31
0.0
  0
LINE
  5
90
330
20
100
AcDbEntity
  8
_0-0_
  6
Continuous
 62
     4
100
AcDbLine
 10
1157.3125
 20
633.6874999999999
 30
0.0
 11
1150.068056302832
 21
631.746357161731
 31
0.0
  0
LINE
  5
91
330
20
100
AcDbEntity
  8
_0-0_
  6
Continuous
 62
     4
100
AcDbLine
 10
1157.3125
 20
633.6874999999999
 30
0.0
 11
1150.068056302832
 21
635.6286428382689
 31
0.0
  0
LINE
  5
92
330
20
100
AcDbEntity
  8
_0-0_
  6
Continuous
 62
     4
100
AcDbLine
 10
1127.3125
 20
633.6874999999999
 30
0.0
 11
1134.556943697168
 21
635.6286428382689
 31
0.0
  0
LINE
  5
93
330
20
100
AcDbEntity
  8
_0-0_
  6
Continuous
 62
     4
100
AcDbLine
 10
1127.3125
 20
633.6874999999999
 30
0.0
 11
1134.556943697168
 21
631.746357161731
 31
0.0
  0
LINE
  5
99
330
20
100
AcDbEntity
  8
_0-0_
  6
Continuous
 62
     4
100
AcDbLine
 10
1119.8125
 20
638.6874999999998
 30
0.0
 11
1119.8125
 21
593.6874999999998
 31
0.0
  0
LINE
  5
9A
330
20
100
AcDbEntity
  8
_0-0_
  6
Continuous
 62
     4
100
AcDbLine
 10
1119.8125
 20
633.6874999999999
 30
0.0
 11
1084.8125
 21
633.6874999999999
 31
0.0
  0
LINE
  5
9B
330
20
100
AcDbEntity
  8
_0-0_
  6
Continuous
 62
     4
100
AcDbLine
 10
1119.8125
 20
633.6874999999999
 30
0.0
 11
1112.568056302832
 21
631.746357161731
 31
0.0
  0
LINE
  5
9C
330
20
100
AcDbEntity
  8
_0-0_
  6
Continuous
 62
     4
100
AcDbLine
 10
1119.8125
 20
633.6874999999999
 30
0.0
 11
1112.568056302832
 21
635.6286428382689
 31
0.0
  0
LINE
  5
A0
330
20
100
AcDbEntity
  8
_0-0_
  6
Continuous
 62
     4
100
AcDbLine
 10
835.3125
 20
408.6875
 30
0.0
 11
805.8842584351886
 21
408.6875
 31
0.0
  0
LINE
  5
A1
330
20
100
AcDbEntity
  8
_0-0_
  6
Continuous
 62
     4
100
AcDbLine
 10
835.3125
 20
408.6875
 30
0.0
 11
828.0680563028319
 21
406.746357161731
 31
0.0
  0
LINE
  5
A2
330
20
100
AcDbEntity
  8
_0-0_
  6
Continuous
 62
     4
100
AcDbLine
 10
835.3125
 20
408.6875
 30
0.0
 11
828.0680563028319
 21
410.6286428382689
 31
0.0
  0
LINE
  5
A3
330
20
100
AcDbEntity
  8
_0-0_
  6
Continuous
 62
     4
100
AcDbLine
 10
849.3125
 20
408.6875
 30
0.0
 11
856.556943697168
 21
410.6286428382689
 31
0.0
  0
LINE
  5
A4
330
20
100
AcDbEntity
  8
_0-0_
  6
Continuous
 62
     4
100
AcDbLine
 10
849.3125
 20
408.6875
 30
0.0
 11
856.556943697168
 21
406.746357161731
 31
0.0
  0
LINE
  5
A6
330
20
100
AcDbEntity
  8
_0-0_
  6
Continuous
 62
     4
100
AcDbLine
 10
849.3125
 20
408.6875
 30
0.0
 11
904.2355284930714
 21
408.6875
 31
0.0
  0
LINE
  5
A8
330
20
100
AcDbEntity
  8
_0-0_
  6
Continuous
 62
     4
100
AcDbLine
 10
1135.3125
 20
408.6875
 30
0.0
 11
1105.884258435188
 21
408.6875
 31
0.0
  0
LINE
  5
A9
330
20
100
AcDbEntity
  8
_0-0_
  6
Continuous
 62
     4
100
AcDbLine
 10
1135.3125
 20
408.6875
 30
0.0
 11
1128.068056302832
 21
406.746357161731
 31
0.0
  0
LINE
  5
AA
330
20
100
AcDbEntity
  8
_0-0_
  6
Continuous
 62
     4
100
AcDbLine
 10
1135.3125
 20
408.6875
 30
0.0
 11
1128.068056302832
 21
410.6286428382689
 31
0.0
  0
LINE
  5
AB
330
20
100
AcDbEntity
  8
_0-0_
  6
Continuous
 62
     4
100
AcDbLine
 10
1149.3125
 20
408.6875
 30
0.0
 11
1156.556943697168
 21
410.6286428382689
 31
0.0
  0
LINE
  5
AC
330
20
100
AcDbEntity
  8
_0-0_
  6
Continuous
 62
     4
100
AcDbLine
 10
1149.3125
 20
408.6875
 30
0.0
 11
1156.556943697168
 21
406.746357161731
 31
0.0
  0
LINE
  5
AE
330
20
100
AcDbEntity
  8
_0-0_
  6
Continuous
 62
     4
100
AcDbLine
 10
1149.3125
 20
408.6875
 30
0.0
 11
1204.235528493071
 21
408.6875
 31
0.0
  0
LINE
  5
B0
330
20
100
AcDbEntity
  8
_0-0_
  6
Continuous
 62
     4
100
AcDbLine
 10
835.3125
 20
463.6874999999999
 30
0.0
 11
835.3125
 21
403.6875
 31
0.0
  0
LINE
  5
B1
330
20
100
AcDbEntity
  8
_0-0_
  6
Continuous
 62
     4
100
AcDbLine
 10
849.3125
 20
463.6874999999999
 30
0.0
 11
849.3125
 21
403.6875
 31
0.0
  0
LINE
  5
B2
330
20
100
AcDbEntity
  8
_0-0_
  6
Continuous
 62
     5
100
AcDbLine
 10
701.3125
 20
588.6874999999998
 30
0.0
 11
692.3124999999999
 21
579.6874999999999
 31
0.0
  0
LINE
  5
B3
330
20
100
AcDbEntity
  8
_0-0_
  6
Continuous
 62
     5
100
AcDbLine
 10
692.3124999999999
 20
579.6874999999999
 30
0.0
 11
692.3124999999999
 21
468.6874999999999
 31
0.0
  0
LINE
  5
B4
330
20
100
AcDbEntity
  8
_0-0_
  6
Continuous
 62
     5
100
AcDbLine
 10
1283.3125
 20
588.6874999999998
 30
0.0
 11
1283.3125
 21
468.6874999999999
 31
0.0
  0
LINE
  5
B5
330
20
100
AcDbEntity
  8
_0-0_
  6
Continuous
 62
     5
100
AcDbLine
 10
1283.3125
 20
588.6874999999998
 30
0.0
 11
1292.3125
 21
579.6874999999999
 31
0.0
  0
LINE
  5
B6
330
20
100
AcDbEntity
  8
_0-0_
  6
Continuous
 62
     5
100
AcDbLine
 10
1292.3125
 20
579.6874999999999
 30
0.0
 11
1292.3125
 21
468.6874999999999
 31
0.0
  0
LINE
  5
B7
330
20
100
AcDbEntity
  8
_0-0_
  6
Continuous
 62
     4
100
AcDbLine
 10
1135.3125
 20
463.6874999999999
 30
0.0
 11
1135.3125
 21
403.6875
 31
0.0
  0
LINE
  5
B8
330
20
100
AcDbEntity
  8
_0-0_
  6
Continuous
 62
     4
100
AcDbLine
 10
1149.3125
 20
463.6874999999999
 30
0.0
 11
1149.3125
 21
403.6875
 31
0.0
  0
LINE
  5
B9
330
20
100
AcDbEntity
  8
_0-0_
  6
Continuous
 62
     4
100
AcDbLine
 10
1287.8125
 20
584.1874999999999
 30
0.0
 11
1291.5625
 21
590.6826905283832
 31
0.0
  0
LINE
  5
BA
330
20
100
AcDbEntity
  8
_0-0_
  6
Continuous
 62
     4
100
AcDbLine
 10
1287.8125
 20
584.1874999999999
 30
0.0
 11
1294.307690528383
 21
587.9374999999998
 31
0.0
  0
LINE
  5
BB
330
20
100
AcDbEntity
  8
_0-0_
  6
Continuous
 62
     4
100
AcDbLine
 10
1287.8125
 20
584.1874999999999
 30
0.0
 11
1337.3125
 21
633.6874999999999
 31
0.0
  0
LINE
  5
BE
330
20
100
AcDbEntity
  8
_0-0_
  6
Continuous
 62
     4
100
AcDbLine
 10
1337.3125
 20
633.6874999999999
 30
0.0
 11
1370.028630691033
 21
633.6874999999999
 31
0.0
  0
LINE
  5
BF
330
20
100
AcDbEntity
  8
_0-0_
  6
Continuous
 62
     4
100
AcDbLine
 10
696.8125
 20
584.1874999999999
 30
0.0
 11
647.3125
 21
633.6874999999999
 31
0.0
  0
LINE
  5
C0
330
20
100
AcDbEntity
  8
_0-0_
  6
Continuous
 62
     4
100
AcDbLine
 10
696.8125
 20
584.1874999999999
 30
0.0
 11
690.3173094716168
 21
587.9375
 31
0.0
  0
LINE
  5
C1
330
20
100
AcDbEntity
  8
_0-0_
  6
Continuous
 62
     4
100
AcDbLine
 10
696.8125
 20
584.1874999999999
 30
0.0
 11
693.0625
 21
590.6826905283832
 31
0.0
  0
LINE
  5
C2
330
20
100
AcDbEntity
  8
_0-0_
  6
Continuous
 62
     4
100
AcDbLine
 10
614.5963693089672
 20
633.6874999999999
 30
0.0
 11
647.3124999999998
 21
633.6874999999999
 31
0.0
  0
TEXT
  5
C3
330
20
100
AcDbEntity
  8
_0-0_
 62
     7
100
AcDbText
 10
616.7916432836582
 20
634.7744773743126
 30
0.0
 40
20.0
  1
9c
 41
0.8
  7
MSゴシック
100
AcDbText
  0
LINE
  5
C5
330
20
100
AcDbEntity
  8
_0-0_
  6
Continuous
 62
     4
100
AcDbLine
 10
309.0000000000001
 20
723.6875
 30
0.0
 11
244.0000000000001
 21
723.6875
 31
0.0
  0
LINE
  5
C6
330
20
100
AcDbEntity
  8
_0-0_
  6
Continuous
 62
     4
100
AcDbLine
 10
309.0000000000001
 20
723.6875
 30
0.0
 11
434.0
 21
723.6875
 31
0.0
  0
LINE
  5
C7
330
20
100
AcDbEntity
  8
_0-0_
  6
Continuous
 62
     4
100
AcDbLine
 10
439.0
 20
723.6875
 30
0.0
 11
446.2444436971679
 21
725.628642838269
 31
0.0
  0
LINE
  5
C8
330
20
100
AcDbEntity
  8
_0-0_
  6
Continuous
 62
     4
100
AcDbLine
 10
439.0
 20
723.6875
 30
0.0
 11
446.2444436971679
 21
721.746357161731
 31
0.0
  0
LINE
  5
C9
330
20
100
AcDbEntity
  8
_0-0_
  6
Continuous
 62
     4
100
AcDbLine
 10
434.0
 20
723.6875
 30
0.0
 11
426.755556302832
 21
721.746357161731
 31
0.0
  0
LINE
  5
CA
330
20
100
AcDbEntity
  8
_0-0_
  6
Continuous
 62
     4
100
AcDbLine
 10
434.0
 20
723.6875
 30
0.0
 11
426.755556302832
 21
725.628642838269
 31
0.0
  0
LINE
  5
CB
330
20
100
AcDbEntity
  8
_0-0_
  6
Continuous
 62
     4
100
AcDbLine
 10
309.0000000000001
 20
723.6875
 30
0.0
 11
316.244443697168
 21
725.628642838269
 31
0.0
  0
LINE
  5
CC
330
20
100
AcDbEntity
  8
_0-0_
  6
Continuous
 62
     4
100
AcDbLine
 10
309.0000000000001
 20
723.6875
 30
0.0
 11
316.244443697168
 21
721.746357161731
 31
0.0
  0
LINE
  5
CD
330
20
100
AcDbEntity
  8
_0-0_
  6
Continuous
 62
     4
100
AcDbLine
 10
309.0000000000001
 20
723.6875
 30
0.0
 11
301.7555563028321
 21
721.746357161731
 31
0.0
  0
LINE
  5
CE
330
20
100
AcDbEntity
  8
_0-0_
  6
Continuous
 62
     4
100
AcDbLine
 10
309.0000000000001
 20
723.6875
 30
0.0
 11
301.7555563028321
 21
725.628642838269
 31
0.0
  0
LINE
  5
CF
330
20
100
AcDbEntity
  8
_0-0_
  6
Continuous
 62
     4
100
AcDbLine
 10
244.0000000000001
 20
723.6875
 30
0.0
 11
251.244443697168
 21
725.628642838269
 31
0.0
  0
LINE
  5
D0
330
20
100
AcDbEntity
  8
_0-0_
  6
Continuous
 62
     4
100
AcDbLine
 10
244.0000000000001
 20
723.6875
 30
0.0
 11
251.244443697168
 21
721.746357161731
 31
0.0
  0
LINE
  5
D1
330
20
100
AcDbEntity
  8
_0-0_
  6
Continuous
 62
     4
100
AcDbLine
 10
239.0000000000001
 20
723.6875
 30
0.0
 11
231.7555563028321
 21
721.746357161731
 31
0.0
  0
LINE
  5
D2
330
20
100
AcDbEntity
  8
_0-0_
  6
Continuous
 62
     4
100
AcDbLine
 10
239.0000000000001
 20
723.6875
 30
0.0
 11
231.7555563028321
 21
725.628642838269
 31
0.0
  0
TEXT
  5
D3
330
20
100
AcDbEntity
  8
_0-0_
 62
     7
100
AcDbText
 10
264.6250000000001
 20
725.6874999999999
 30
0.0
 40
20.0
  1
65
 41
0.8
  7
MSゴシック
100
AcDbText
  0
TEXT
  5
D4
330
20
100
AcDbEntity
  8
_0-0_
 62
     7
100
AcDbText
 10
353.3750000000001
 20
725.6874999999999
 30
0.0
 40
20.0
  1
125
 41
0.8
  7
MSゴシック
100
AcDbText
  0
TEXT
  5
D5
330
20
100
AcDbEntity
  8
_0-0_
 62
     7
100
AcDbText
 10
453.2993019933929
 20
725.7063721433559
 30
0.0
 40
20.0
  1
5
 41
0.8
  7
MSゴシック
100
AcDbText
  0
LINE
  5
D6
330
20
100
AcDbEntity
  8
_0-0_
  6
Continuous
 62
     4
100
AcDbLine
 10
439.0
 20
723.6875
 30
0.0
 11
469.0
 21
723.6875
 31
0.0
  0
LINE
  5
D7
330
20
100
AcDbEntity
  8
_0-0_
  6
Continuous
 62
     4
100
AcDbLine
 10
239.0000000000001
 20
723.6875
 30
0.0
 11
209.0000000000001
 21
723.6875
 31
0.0
  0
TEXT
  5
D8
330
20
100
AcDbEntity
  8
_0-0_
 62
     7
100
AcDbText
 10
215.811286602706
 20
725.9012444010113
 30
0.0
 40
20.0
  1
5
 41
0.8
  7
MSゴシック
100
AcDbText
  0
LINE
  5
D9
330
20
100
AcDbEntity
  8
_0-0_
  6
Continuous
 62
     4
100
AcDbLine
 10
244.0000000000001
 20
678.6874999999999
 30
0.0
 11
281.5000000000001
 21
678.6874999999999
 31
0.0
  0
LINE
  5
DA
330
20
100
AcDbEntity
  8
_0-0_
  6
Continuous
 62
     4
100
AcDbLine
 10
281.5000000000001
 20
678.6874999999999
 30
0.0
 11
309.0000000000001
 21
678.6874999999999
 31
0.0
  0
LINE
  5
DB
330
20
100
AcDbEntity
  8
_0-0_
  6
Continuous
 62
     4
100
AcDbLine
 10
244.0000000000001
 20
678.6874999999999
 30
0.0
 11
251.244443697168
 21
680.6286428382689
 31
0.0
  0
LINE
  5
DC
330
20
100
AcDbEntity
  8
_0-0_
  6
Continuous
 62
     4
100
AcDbLine
 10
244.0000000000001
 20
678.6874999999999
 30
0.0
 11
251.244443697168
 21
676.746357161731
 31
0.0
  0
LINE
  5
DD
330
20
100
AcDbEntity
  8
_0-0_
  6
Continuous
 62
     4
100
AcDbLine
 10
281.5000000000001
 20
678.6874999999999
 30
0.0
 11
274.2555563028322
 21
676.746357161731
 31
0.0
  0
LINE
  5
DE
330
20
100
AcDbEntity
  8
_0-0_
  6
Continuous
 62
     4
100
AcDbLine
 10
281.5000000000001
 20
678.6874999999999
 30
0.0
 11
274.2555563028322
 21
680.6286428382689
 31
0.0
  0
LINE
  5
DF
330
20
100
AcDbEntity
  8
_0-0_
  6
Continuous
 62
     4
100
AcDbLine
 10
281.5000000000001
 20
678.6874999999999
 30
0.0
 11
288.744443697168
 21
680.6286428382689
 31
0.0
  0
LINE
  5
E0
330
20
100
AcDbEntity
  8
_0-0_
  6
Continuous
 62
     4
100
AcDbLine
 10
281.5000000000001
 20
678.6874999999999
 30
0.0
 11
288.744443697168
 21
676.746357161731
 31
0.0
  0
LINE
  5
E1
330
20
100
AcDbEntity
  8
_0-0_
  6
Continuous
 62
     4
100
AcDbLine
 10
309.0000000000001
 20
678.6874999999999
 30
0.0
 11
301.7555563028321
 21
676.746357161731
 31
0.0
  0
LINE
  5
E2
330
20
100
AcDbEntity
  8
_0-0_
  6
Continuous
 62
     4
100
AcDbLine
 10
309.0000000000001
 20
678.6874999999999
 30
0.0
 11
301.7555563028321
 21
680.6286428382689
 31
0.0
  0
LINE
  5
E9
330
20
100
AcDbEntity
  8
_0-0_
  6
Continuous
 62
     5
100
AcDbLine
 10
239.0000000000001
 20
468.6874999999999
 30
0.0
 11
439.0
 21
468.6874999999999
 31
0.0
  0
LINE
  5
EA
330
20
100
AcDbEntity
  8
_0-0_
  6
Continuous
 62
     4
100
AcDbLine
 10
444.0
 20
468.6874999999999
 30
0.0
 11
529.0
 21
468.6874999999999
 31
0.0
  0
LINE
  5
EB
330
20
100
AcDbEntity
  8
_0-0_
  6
Continuous
 62
     4
100
AcDbLine
 10
524.0
 20
588.6874999999998
 30
0.0
 11
525.941142838269
 21
581.4430563028318
 31
0.0
  0
LINE
  5
EC
330
20
100
AcDbEntity
  8
_0-0_
  6
Continuous
 62
     4
100
AcDbLine
 10
524.0
 20
588.6874999999998
 30
0.0
 11
522.0588571617311
 21
581.4430563028318
 31
0.0
  0
LINE
  5
ED
330
20
100
AcDbEntity
  8
_0-0_
  6
Continuous
 62
     4
100
AcDbLine
 10
524.0
 20
468.6874999999999
 30
0.0
 11
522.0588571617311
 21
475.9319436971679
 31
0.0
  0
LINE
  5
EE
330
20
100
AcDbEntity
  8
_0-0_
  6
Continuous
 62
     4
100
AcDbLine
 10
524.0
 20
468.6874999999999
 30
0.0
 11
525.941142838269
 21
475.9319436971679
 31
0.0
  0
LINE
  5
EF
330
20
100
AcDbEntity
  8
_0-0_
  6
Continuous
 62
     5
100
AcDbLine
 10
244.0000000000001
 20
588.6874999999998
 30
0.0
 11
239.0000000000001
 21
468.6874999999999
 31
0.0
  0
LINE
  5
F0
330
20
100
AcDbEntity
  8
_0-0_
  6
Continuous
 62
     4
100
AcDbLine
 10
184.0000000000001
 20
588.6874999999998
 30
0.0
 11
184.0000000000001
 21
468.6874999999999
 31
0.0
  0
LINE
  5
F1
330
20
100
AcDbEntity
  8
_0-0_
  6
Continuous
 62
     4
100
AcDbLine
 10
184.0000000000001
 20
588.6874999999998
 30
0.0
 11
185.9411428382689
 21
581.4430563028318
 31
0.0
  0
LINE
  5
F2
330
20
100
AcDbEntity
  8
_0-0_
  6
Continuous
 62
     4
100
AcDbLine
 10
184.0000000000001
 20
588.6874999999998
 30
0.0
 11
182.0588571617311
 21
581.4430563028318
 31
0.0
  0
LINE
  5
F3
330
20
100
AcDbEntity
  8
_0-0_
  6
Continuous
 62
     4
100
AcDbLine
 10
184.0000000000001
 20
468.6874999999999
 30
0.0
 11
182.0588571617311
 21
475.9319436971679
 31
0.0
  0
LINE
  5
F4
330
20
100
AcDbEntity
  8
_0-0_
  6
Continuous
 62
     4
100
AcDbLine
 10
184.0000000000001
 20
468.6874999999999
 30
0.0
 11
185.9411428382689
 21
475.9319436971679
 31
0.0
  0
LINE
  5
F5
330
20
100
AcDbEntity
  8
_0-0_
  6
Continuous
 62
     4
100
AcDbLine
 10
179.0000000000001
 20
588.6874999999998
 30
0.0
 11
234.0000000000001
 21
588.6874999999998
 31
0.0
  0
LINE
  5
F6
330
20
100
AcDbEntity
  8
_0-0_
  6
Continuous
 62
     4
100
AcDbLine
 10
179.0000000000001
 20
468.6874999999999
 30
0.0
 11
234.0000000000001
 21
468.6874999999999
 31
0.0
  0
LINE
  5
F7
330
20
100
AcDbEntity
  8
_0-0_
  6
Continuous
 62
     5
100
AcDbLine
 10
252.6328091120983
 20
579.6874999999999
 30
0.0
 11
244.0000000000001
 21
588.6874999999998
 31
0.0
  0
TEXT
  5
F8
330
20
100
AcDbEntity
  8
_0-0_
 62
     7
100
AcDbText
 10
182.0
 20
510.5624999999999
 30
0.0
 40
20.0
  1
120
 50
90.0
 41
0.8
  7
MSゴシック
100
AcDbText
  0
LINE
  5
F9
330
20
100
AcDbEntity
  8
_0-0_
  6
Continuous
 62
     4
100
AcDbLine
 10
244.0000000000001
 20
593.6874999999998
 30
0.0
 11
244.0000000000001
 21
728.6875
 31
0.0
  0
LINE
  5
FA
330
20
100
AcDbEntity
  8
_0-0_
  6
Continuous
 62
     4
100
AcDbLine
 10
309.0000000000001
 20
593.6874999999998
 30
0.0
 11
309.0000000000001
 21
728.6875
 31
0.0
  0
LINE
  5
FB
330
20
100
AcDbEntity
  8
_0-0_
  6
Continuous
 62
     4
100
AcDbLine
 10
239.0000000000001
 20
408.6875
 30
0.0
 11
439.0
 21
408.6875
 31
0.0
  0
LINE
  5
FC
330
20
100
AcDbEntity
  8
_0-0_
  6
Continuous
 62
     4
100
AcDbLine
 10
439.0
 20
408.6875
 30
0.0
 11
431.755556302832
 21
406.746357161731
 31
0.0
  0
LINE
  5
FD
330
20
100
AcDbEntity
  8
_0-0_
  6
Continuous
 62
     4
100
AcDbLine
 10
439.0
 20
408.6875
 30
0.0
 11
431.755556302832
 21
410.6286428382689
 31
0.0
  0
LINE
  5
FE
330
20
100
AcDbEntity
  8
_0-0_
  6
Continuous
 62
     4
100
AcDbLine
 10
239.0000000000001
 20
408.6875
 30
0.0
 11
246.244443697168
 21
410.6286428382689
 31
0.0
  0
LINE
  5
FF
330
20
100
AcDbEntity
  8
_0-0_
  6
Continuous
 62
     4
100
AcDbLine
 10
239.0000000000001
 20
408.6875
 30
0.0
 11
246.244443697168
 21
406.746357161731
 31
0.0
  0
TEXT
  5
100
330
20
100
AcDbEntity
  8
_0-0_
 62
     7
100
AcDbText
 10
320.8750000000001
 20
410.6875
 30
0.0
 40
20.0
  1
200
 41
0.8
  7
MSゴシック
100
AcDbText
  0
LINE
  5
101
330
20
100
AcDbEntity
  8
_0-0_
  6
Continuous
 62
     4
100
AcDbLine
 10
239.0000000000001
 20
463.6874999999999
 30
0.0
 11
239.0000000000001
 21
403.6875
 31
0.0
  0
LINE
  5
102
330
20
100
AcDbEntity
  8
_0-0_
  6
Continuous
 62
     4
100
AcDbLine
 10
439.0
 20
463.6874999999999
 30
0.0
 11
439.0
 21
403.6875
 31
0.0
  0
LINE
  5
103
330
20
100
AcDbEntity
  8
_0-0_
  6
Continuous
 62
     4
100
AcDbLine
 10
239.0000000000001
 20
534.6552672955976
 30
0.0
 11
239.0000000000001
 21
728.6875
 31
0.0
  0
LINE
  5
104
330
20
100
AcDbEntity
  8
_0-0_
  6
Continuous
 62
     4
100
AcDbLine
 10
281.5000000000001
 20
678.6874999999999
 30
0.0
 11
281.5000000000001
 21
683.6874999999999
 31
0.0
  0
LINE
  5
105
330
20
100
AcDbEntity
  8
_0-0_
  6
CENTER1
 62
     4
100
AcDbLine
 10
281.5000000000001
 20
678.6874999999999
 30
0.0
 11
281.5000000000001
 21
438.6874999999999
 31
0.0
  0
ARC
  5
106
330
20
100
AcDbEntity
  8
_0-0_
  6
DASHED1
 62
     5
100
AcDbCircle
 10
842.3125
 20
588.6874999999998
 30
0.0
 40
22.5
100
AcDbArc
 50
180.0
 51
228.1896851042214
  0
LINE
  5
107
330
20
100
AcDbEntity
  8
_0-0_
  6
DASHED1
 62
     5
100
AcDbLine
 10
835.3125
 20
468.6874999999999
 30
0.0
 11
827.3125
 21
571.9169901687515
 31
0.0
  0
ARC
  5
108
330
20
100
AcDbEntity
  8
_0-0_
  6
DASHED1
 62
     5
100
AcDbCircle
 10
842.3125
 20
588.6874999999998
 30
0.0
 40
22.5
100
AcDbArc
 50
311.8103148957786
 51
0.0
  0
LINE
  5
109
330
20
100
AcDbEntity
  8
_0-0_
  6
DASHED1
 62
     5
100
AcDbLine
 10
857.3125
 20
571.9169901687515
 30
0.0
 11
849.3125
 21
468.6874999999999
 31
0.0
  0
ARC
  5
10A
330
20
100
AcDbEntity
  8
_0-0_
  6
DASHED1
 62
     5
100
AcDbCircle
 10
1142.3125
 20
588.6874999999998
 30
0.0
 40
22.5
100
AcDbArc
 50
311.8103148957786
 51
0.0
  0
LINE
  5
10B
330
20
100
AcDbEntity
  8
_0-0_
  6
DASHED1
 62
     5
100
AcDbLine
 10
1157.3125
 20
571.9169901687515
 30
0.0
 11
1149.3125
 21
468.6874999999999
 31
0.0
  0
LINE
  5
10C
330
20
100
AcDbEntity
  8
_0-0_
  6
DASHED1
 62
     5
100
AcDbLine
 10
1135.3125
 20
468.6874999999999
 30
0.0
 11
1127.3125
 21
571.9169901687515
 31
0.0
  0
ARC
  5
10D
330
20
100
AcDbEntity
  8
_0-0_
  6
DASHED1
 62
     5
100
AcDbCircle
 10
1142.3125
 20
588.6874999999998
 30
0.0
 40
22.5
100
AcDbArc
 50
180.0
 51
228.1896851042214
  0
ARC
  5
10E
330
20
100
AcDbEntity
  8
_0-0_
  6
DASHED1
 62
     5
100
AcDbCircle
 10
281.5000000000001
 20
588.6874999999998
 30
0.0
 40
22.5
100
AcDbArc
 50
180.0
 51
228.1896851042214
  0
ARC
  5
10F
330
20
100
AcDbEntity
  8
_0-0_
  6
DASHED1
 62
     5
100
AcDbCircle
 10
281.5000000000001
 20
588.6874999999998
 30
0.0
 40
22.5
100
AcDbArc
 50
311.8103148957786
 51
0.0
  0
LINE
  5
110
330
20
100
AcDbEntity
  8
_0-0_
  6
DASHED1
 62
     5
100
AcDbLine
 10
296.5000000000001
 20
571.9169901687515
 30
0.0
 11
288.5
 21
468.6874999999999
 31
0.0
  0
LINE
  5
111
330
20
100
AcDbEntity
  8
_0-0_
  6
DASHED1
 62
     5
100
AcDbLine
 10
274.5
 20
468.6874999999999
 30
0.0
 11
266.5
 21
571.9169901687515
 31
0.0
  0
TEXT
  5
112
330
20
100
AcDbEntity
  8
_0-0_
 62
     7
100
AcDbText
 10
1203.875
 20
790.125
 30
0.0
 40
20.0
  1
単位 ｍｍ
 41
0.8
  7
MSゴシック
100
AcDbText
  0
TEXT
  5
115
330
20
100
AcDbEntity
  8
_0-0_
 62
     7
100
AcDbText
 10
174.8160377358491
 20
268.4599056603774
 30
0.0
 40
20.0
  1
※
 41
0.8
  7
MSゴシック
100
AcDbText
  0
TEXT
  5
116
330
20
100
AcDbEntity
  8
_0-0_
 62
     7
100
AcDbText
 10
214.5735062893082
 20
268.4599056603774
 30
0.0
 40
20.0
  1
オプション
 41
0.8
  7
MSゴシック
100
AcDbText
  0
TEXT
  5
117
330
20
100
AcDbEntity
  8
_0-0_
 62
     7
100
AcDbText
 10
214.5735062893082
 20
227.3345282359612
 30
0.0
 40
20.0
  1
・専用ピン(スパイク)　　　　　　　先端錐状
 41
0.8
  7
MSゴシック
100
AcDbText
  0
TEXT
  5
118
330
20
100
AcDbEntity
  8
_0-0_
 62
     7
100
AcDbText
 10
435.8113305817609
 20
227.5622896353322
 30
0.0
 40
20.0
  1
φ13×250
 41
0.8
  7
MSゴシック
100
AcDbText
  0
TEXT
  5
119
330
20
100
AcDbEntity
  8
_0-0_
 62
     7
100
AcDbText
 10
214.5735062893082
 20
197.3345282359612
 30
0.0
 40
20.0
  1
・トラ反射テープ
 41
0.8
  7
MSゴシック
100
AcDbText
  0
TEXT
  5
11A
330
20
100
AcDbEntity
  8
_0-0_
 62
     7
100
AcDbText
 10
374.8644793682531
 20
167.3727736354486
 30
0.0
 40
20.0
  1
(55×25mm)
 41
0.8
  7
MSゴシック
100
AcDbText
  0
TEXT
  5
11B
330
20
100
AcDbEntity
  8
_0-0_
 62
     7
100
AcDbText
 10
397.6948144522236
 20
197.2492896509896
 30
0.0
 40
20.0
  1
(45×300mm)
 41
0.8
  7
MSゴシック
100
AcDbText
  0
TEXT
  5
11C
330
20
100
AcDbEntity
  8
_0-0_
 62
     7
100
AcDbText
 10
214.5735062893082
 20
167.3345282359611
 30
0.0
 40
20.0
  1
・化粧キャップ　
 41
0.8
  7
MSゴシック
100
AcDbText
  0
TEXT
  5
11D
330
20
100
AcDbEntity
  8
_0-0_
 62
     7
100
AcDbText
 10
214.5735062893082
 20
137.3345282359611
 30
0.0
 40
20.0
  1
・接着剤　(内容量　　)
 41
0.8
  7
MSゴシック
100
AcDbText
  0
TEXT
  5
11E
330
20
100
AcDbEntity
  8
_0-0_
 62
     7
100
AcDbText
 10
389.2832438392469
 20
136.9598916511742
 30
0.0
 40
20.0
  1
1kg
 41
0.8
  7
MSゴシック
100
AcDbText
  0
TEXT
  5
11F
330
20
100
AcDbEntity
  8
_0-0_
 62
     7
100
AcDbText
 10
1195.558176100629
 20
331.9131289308177
 30
0.0
 40
20.0
  1
参考質量
 41
0.8
  7
MSゴシック
100
AcDbText
  0
TEXT
  5
120
330
20
100
AcDbEntity
  8
_0-0_
 62
     7
100
AcDbText
 10
1290.208069095038
 20
332.0072938504542
 30
0.0
 40
20.0
  1
26kg
 41
0.8
  7
MSゴシック
100
AcDbText
  0
TEXT
  5
121
330
20
100
AcDbEntity
  8
_0-0_
 62
     2
100
AcDbText
 10
456.1306743092265
 20
853.5618121069182
 30
0.0
 40
35.0
  1
カーバリア(車止めブロック)
 41
0.8
  7
MSゴシック
 72
     1
 11
692.6382885224244
 21
853.5618121069182
 31
0.0
100
AcDbText
  0
LINE
  5
126
330
20
100
AcDbEntity
  8
_0-0_
  6
Continuous
 62
     4
100
AcDbLine
 10
524.0
 20
588.6874999999998
 30
0.0
 11
524.0
 21
518.6874999999998
 31
0.0
  0
LINE
  5
127
330
20
100
AcDbEntity
  8
_0-0_
  6
Continuous
 62
     4
100
AcDbLine
 10
524.0
 20
518.6874999999998
 30
0.0
 11
524.0
 21
468.6874999999999
 31
0.0
  0
LINE
  5
128
330
20
100
AcDbEntity
  8
_0-0_
  6
Continuous
 62
     4
100
AcDbLine
 10
524.0
 20
518.6874999999998
 30
0.0
 11
522.0588571617311
 21
525.9319436971679
 31
0.0
  0
LINE
  5
129
330
20
100
AcDbEntity
  8
_0-0_
  6
Continuous
 62
     4
100
AcDbLine
 10
524.0
 20
518.6874999999998
 30
0.0
 11
525.941142838269
 21
525.9319436971679
 31
0.0
  0
LINE
  5
12A
330
20
100
AcDbEntity
  8
_0-0_
  6
Continuous
 62
     4
100
AcDbLine
 10
524.0
 20
518.6874999999998
 30
0.0
 11
525.941142838269
 21
511.4430563028319
 31
0.0
  0
LINE
  5
12B
330
20
100
AcDbEntity
  8
_0-0_
  6
Continuous
 62
     4
100
AcDbLine
 10
524.0
 20
518.6874999999998
 30
0.0
 11
522.0588571617311
 21
511.4430563028319
 31
0.0
  0
TEXT
  5
12C
330
20
100
AcDbEntity
  8
_0-0_
 62
     7
100
AcDbText
 10
522.017802624457
 20
541.8151755265979
 30
0.0
 40
20.0
  1
70
 50
90.0
 41
0.8
  7
MSゴシック
100
AcDbText
  0
LINE
  5
12D
330
20
100
AcDbEntity
  8
_0-0_
  6
Continuous
 62
     5
100
AcDbLine
 10
244.0000000000001
 20
588.6874999999998
 30
0.0
 11
309.364714620633
 21
588.6874999999998
 31
0.0
  0
ARC
  5
12E
330
20
100
AcDbEntity
  8
_0-0_
  6
Continuous
 62
     5
100
AcDbCircle
 10
463.1391445220123
 20
716.5680094942376
 30
0.0
 40
200.0
100
AcDbArc
 50
219.7472833835716
 51
261.6220013124184
  0
LINE
  5
12F
330
20
100
AcDbEntity
  8
_0-0_
  6
Continuous
 62
     5
100
AcDbLine
 10
439.0
 20
468.6874999999999
 30
0.0
 11
433.9985161551512
 21
518.7023384484887
 31
0.0
  0
TEXT
  5
130
330
20
100
AcDbEntity
  8
_0-0_
 62
     7
100
AcDbText
 10
522.017802624457
 20
481.9388340979677
 30
0.0
 40
20.0
  1
50
 50
90.0
 41
0.8
  7
MSゴシック
100
AcDbText
  0
LINE
  5
131
330
20
100
AcDbEntity
  8
_0-0_
  6
Continuous
 62
     4
100
AcDbLine
 10
315.9264572579922
 20
588.6874999999998
 30
0.0
 11
529.0
 21
588.6874999999998
 31
0.0
  0
LINE
  5
132
330
20
100
AcDbEntity
  8
_0-0_
  6
Continuous
 62
     4
100
AcDbLine
 10
439.0249378105605
 20
518.6874999999998
 30
0.0
 11
529.0
 21
518.6874999999998
 31
0.0
  0
LINE
  5
133
330
20
100
AcDbEntity
  8
_0-0_
  6
Continuous
 62
     4
100
AcDbLine
 10
434.0
 20
523.7574541386625
 30
0.0
 11
434.0
 21
728.6875
 31
0.0
  0
LINE
  5
134
330
20
100
AcDbEntity
  8
_0-0_
  6
Continuous
 62
     4
100
AcDbLine
 10
439.0
 20
498.0339144851118
 30
0.0
 11
439.0
 21
728.6875
 31
0.0
  0
LINE
  5
135
330
20
100
AcDbEntity
  8
_0-0_
  6
Continuous
 62
     6
100
AcDbLine
 10
733.3124999999999
 20
530.6874999999999
 30
0.0
 11
1251.3125
 21
530.6874999999999
 31
0.0
  0
LINE
  5
136
330
20
100
AcDbEntity
  8
_0-0_
  6
Continuous
 62
     6
100
AcDbLine
 10
733.3124999999999
 20
524.6874999999999
 30
0.0
 11
1251.3125
 21
524.6874999999999
 31
0.0
  0
LINE
  5
137
330
20
100
AcDbEntity
  8
_0-0_
  6
Continuous
 62
     6
100
AcDbLine
 10
733.3124999999999
 20
530.6874999999999
 30
0.0
 11
733.3124999999999
 21
524.6874999999999
 31
0.0
  0
LINE
  5
138
330
20
100
AcDbEntity
  8
_0-0_
  6
Continuous
 62
     6
100
AcDbLine
 10
1251.3125
 20
530.6874999999999
 30
0.0
 11
1251.3125
 21
524.6874999999999
 31
0.0
  0
LINE
  5
139
330
20
100
AcDbEntity
  8
_0-0_
  6
Continuous
 62
     6
100
AcDbLine
 10
733.3124999999999
 20
547.6874999999999
 30
0.0
 11
1251.3125
 21
547.6874999999999
 31
0.0
  0
LINE
  5
13A
330
20
100
AcDbEntity
  8
_0-0_
  6
Continuous
 62
     6
100
AcDbLine
 10
733.3124999999999
 20
566.6875
 30
0.0
 11
1251.3125
 21
566.6875
 31
0.0
  0
LINE
  5
13B
330
20
100
AcDbEntity
  8
_0-0_
  6
Continuous
 62
     6
100
AcDbLine
 10
733.3124999999999
 20
566.6875
 30
0.0
 11
733.3124999999999
 21
556.6875
 31
0.0
  0
LINE
  5
13C
330
20
100
AcDbEntity
  8
_0-0_
  6
Continuous
 62
     6
100
AcDbLine
 10
733.3124999999999
 20
556.6875
 30
0.0
 11
1251.3125
 21
556.6875
 31
0.0
  0
LINE
  5
13D
330
20
100
AcDbEntity
  8
_0-0_
  6
Continuous
 62
     6
100
AcDbLine
 10
1251.3125
 20
566.6875
 30
0.0
 11
1251.3125
 21
556.6875
 31
0.0
  0
LINE
  5
13E
330
20
100
AcDbEntity
  8
_0-0_
  6
Continuous
 62
     6
100
AcDbLine
 10
733.3124999999999
 20
547.6874999999999
 30
0.0
 11
733.3124999999999
 21
539.6874999999998
 31
0.0
  0
LINE
  5
13F
330
20
100
AcDbEntity
  8
_0-0_
  6
Continuous
 62
     6
100
AcDbLine
 10
733.3124999999999
 20
539.6874999999998
 30
0.0
 11
1251.3125
 21
539.6874999999998
 31
0.0
  0
LINE
  5
140
330
20
100
AcDbEntity
  8
_0-0_
  6
Continuous
 62
     6
100
AcDbLine
 10
1251.3125
 20
547.6874999999999
 30
0.0
 11
1251.3125
 21
539.6874999999998
 31
0.0
  0
LINE
  5
141
330
20
100
AcDbEntity
  8
_0-0_
  6
Continuous
 62
     6
100
AcDbLine
 10
733.3124999999999
 20
566.6875
 30
0.0
 11
736.3125
 21
556.6875
 31
0.0
  0
LINE
  5
142
330
20
100
AcDbEntity
  8
_0-0_
  6
Continuous
 62
     6
100
AcDbLine
 10
733.3124999999999
 20
547.6874999999999
 30
0.0
 11
736.3125
 21
539.6874999999998
 31
0.0
  0
LINE
  5
143
330
20
100
AcDbEntity
  8
_0-0_
  6
Continuous
 62
     6
100
AcDbLine
 10
733.3124999999999
 20
530.6874999999999
 30
0.0
 11
736.3125
 21
524.6874999999999
 31
0.0
  0
LINE
  5
144
330
20
100
AcDbEntity
  8
_0-0_
  6
Continuous
 62
     5
100
AcDbLine
 10
701.3125
 20
518.6874999999998
 30
0.0
 11
1283.3125
 21
518.6874999999998
 31
0.0
  0
LINE
  5
145
330
20
100
AcDbEntity
  8
_0-0_
  6
Continuous
 62
     5
100
AcDbLine
 10
1283.3125
 20
518.6874999999998
 30
0.0
 11
1292.3125
 21
512.3537695867313
 31
0.0
  0
LINE
  5
146
330
20
100
AcDbEntity
  8
_0-0_
  6
Continuous
 62
     5
100
AcDbLine
 10
701.3125
 20
518.6874999999998
 30
0.0
 11
692.3124999999999
 21
512.6875
 31
0.0
  0
LINE
  5
147
330
20
100
AcDbEntity
  8
_0-0_
  6
DASHED1
 62
     6
100
AcDbLine
 10
331.6366779412238
 20
557.1469978678358
 30
0.0
 11
330.7162126946746
 21
566.6875
 31
0.0
  0
LINE
  5
148
330
20
100
AcDbEntity
  8
_0-0_
  6
DASHED1
 62
     6
100
AcDbLine
 10
331.6366779412238
 20
557.1469978678358
 30
0.0
 11
340.9981144837798
 21
557.8042310155772
 31
0.0
  0
LINE
  5
149
330
20
100
AcDbEntity
  8
_0-0_
  6
DASHED1
 62
     6
100
AcDbLine
 10
358.0736051970342
 20
538.3302878192188
 30
0.0
 11
367.2851664390032
 21
540.1234941755108
 31
0.0
  0
LINE
  5
14A
330
20
100
AcDbEntity
  8
_0-0_
  6
DASHED1
 62
     6
100
AcDbLine
 10
358.0736051970342
 20
538.3302878192188
 30
0.0
 11
355.9973062282499
 21
547.6874999999999
 31
0.0
  0
LINE
  5
14B
330
20
100
AcDbEntity
  8
_0-0_
  6
DASHED1
 62
     6
100
AcDbLine
 10
392.6839862428884
 20
521.7103165309386
 30
0.0
 11
389.3256214373996
 21
530.6874999999999
 31
0.0
  0
LINE
  5
14C
330
20
100
AcDbEntity
  8
_0-0_
  6
DASHED1
 62
     6
100
AcDbLine
 10
392.6839862428884
 20
521.7103165309386
 30
0.0
 11
401.5563351148012
 21
524.7680730689674
 31
0.0
  0
LINE
  5
14D
330
20
100
AcDbEntity
  8
_0-0_
  6
Continuous
 62
     5
100
AcDbLine
 10
252.6328091120983
 20
579.6874999999999
 30
0.0
 11
305.200149588532
 21
579.6874999999999
 31
0.0
  0
ARC
  5
14E
330
20
100
AcDbEntity
  8
_0-0_
  6
Continuous
 62
     5
100
AcDbCircle
 10
463.1391445220123
 20
716.5680094942376
 30
0.0
 40
209.0
100
AcDbArc
 50
220.914393002127
 51
259.6888685163557
  0
LINE
  5
14F
330
20
100
AcDbEntity
  8
_0-0_
  6
Continuous
 62
     5
100
AcDbLine
 10
425.7295318746036
 20
510.9433006638761
 30
0.0
 11
433.9985161551512
 21
518.7023384484887
 31
0.0
  0
LINE
  5
150
330
20
100
AcDbEntity
  8
_0-0_
  6
Continuous
 62
     5
100
AcDbLine
 10
252.6328091120983
 20
579.6874999999999
 30
0.0
 11
248.0078091120983
 21
468.6874999999999
 31
0.0
  0
LINE
  5
151
330
20
100
AcDbEntity
  8
_0-0_
  6
Continuous
 62
     5
100
AcDbLine
 10
429.9551119409912
 20
468.6874999999999
 30
0.0
 11
425.7295318746036
 21
510.9433006638763
 31
0.0
  0
LINE
  5
152
330
20
100
AcDbEntity
  8
_0-0_
  6
Continuous
 62
     5
100
AcDbLine
 10
305.200149588532
 20
579.6874999999999
 30
0.0
 11
309.364714620633
 21
588.6874999999998
 31
0.0
  0
TEXT
  5
153
330
20
100
AcDbEntity
  8
_0-0_
 62
     7
100
AcDbText
 10
376.6899652142724
 20
554.0029469846023
 30
0.0
 40
20.0
  1
200r
 41
0.8
  7
MSゴシック
100
AcDbText
  0
LINE
  5
155
330
20
100
AcDbEntity
  8
_0-0_
  6
Continuous
 62
     4
100
AcDbLine
 10
380.5941850747897
 20
534.3824672368855
 30
0.0
 11
424.790204359612
 21
560.1277211892092
 31
0.0
  0
LINE
  5
156
330
20
100
AcDbEntity
  8
_0-0_
  6
Continuous
 62
     4
100
AcDbLine
 10
380.5941850747897
 20
534.3824672368855
 30
0.0
 11
387.8310587577486
 21
536.3516445516281
 31
0.0
  0
LINE
  5
157
330
20
100
AcDbEntity
  8
_0-0_
  6
Continuous
 62
     4
100
AcDbLine
 10
380.5941850747897
 20
534.3824672368855
 30
0.0
 11
385.87691287084
 21
539.706261657488
 31
0.0
  0
LINE
  5
2E0
330
20
100
AcDbEntity
  8
_0-0_
  6
Continuous
 62
     5
100
AcDbLine
 10
931.2764771226706
 20
843.5618121069182
 30
0.0
 11
450.0175938739395
 21
843.5618121069181
 31
0.0
  0
TEXT
  5
2EC
330
20
100
AcDbEntity
  8
_0-0_
 62
     7
100
AcDbText
 10
246.592258943943
 20
680.1997008211039
 30
0.0
 40
17.5
  1
37.5
 41
0.65
  7
MSゴシック
100
AcDbText
  0
TEXT
  5
2ED
330
20
100
AcDbEntity
  8
_0-0_
 62
     7
100
AcDbText
 10
286.9581786385885
 20
680.1997008211039
 30
0.0
 40
17.5
  1
27.5
 41
0.65
  7
MSゴシック
100
AcDbText
  0
TEXT
  5
310
330
20
100
AcDbEntity
  8
_0-0_
 62
     7
100
AcDbText
 10
1172.15115136442
 20
633.6027393369361
 30
0.0
 40
20.0
  1
7.5
 41
0.7
  7
MSゴシック
100
AcDbText
  0
TEXT
  5
311
330
20
100
AcDbEntity
  8
_0-0_
 62
     7
100
AcDbText
 10
1121.289002418388
 20
637.1309571252456
 30
0.0
 40
20.0
  1
φ30
 41
0.7
  7
MSゴシック
100
AcDbText
  0
TEXT
  5
312
330
20
100
AcDbEntity
  8
_0-0_
 62
     7
100
AcDbText
 10
1086.881953254791
 20
633.6027393369361
 30
0.0
 40
20.0
  1
7.5
 41
0.7
  7
MSゴシック
100
AcDbText
  0
TEXT
  5
313
330
20
100
AcDbEntity
  8
_0-0_
 62
     7
100
AcDbText
 10
1344.473340208674
 20
634.7744773743126
 30
0.0
 40
20.0
  1
9c
 41
0.8
  7
MSゴシック
100
AcDbText
  0
TEXT
  5
314
330
20
100
AcDbEntity
  8
_0-0_
 62
     7
100
AcDbText
 10
857.3005526139141
 20
412.1309571252457
 30
0.0
 40
20.0
  1
φ14
 41
0.8
  7
MSゴシック
100
AcDbText
  0
TEXT
  5
315
330
20
100
AcDbEntity
  8
_0-0_
 62
     7
100
AcDbText
 10
1157.300552613914
 20
412.1309571252457
 30
0.0
 40
20.0
  1
φ14
 41
0.8
  7
MSゴシック
100
AcDbText
  0
ENDSEC
  0
SECTION
  2
OBJECTS
  0
DICTIONARY
  5
C
330
0
100
AcDbDictionary
281
     1
  3
ACAD_COLOR
350
1B
  3
ACAD_GROUP
350
D
  3
ACAD_LAYOUT
350
19
  3
ACAD_MATERIAL
350
1A
  3
ACAD_MLINESTYLE
350
16
  3
ACAD_PLOTSETTINGS
350
18
  3
ACAD_PLOTSTYLENAME
350
E
  3
ACDBHEADERROUNDTRIPXREC
350
338
  3
AcDbVariableDictionary
350
32C
  0
DICTIONARY
  5
1B
102
{ACAD_REACTORS
330
C
102
}
330
C
100
AcDbDictionary
281
     1
  0
DICTIONARY
  5
D
102
{ACAD_REACTORS
330
C
102
}
330
C
100
AcDbDictionary
281
     1
  0
DICTIONARY
  5
19
102
{ACAD_REACTORS
330
C
102
}
330
C
100
AcDbDictionary
281
     1
  3
Model
350
23
  3
レイアウト1
350
1F
  0
DICTIONARY
  5
1A
102
{ACAD_REACTORS
330
C
102
}
330
C
100
AcDbDictionary
281
     1
  0
DICTIONARY
  5
16
102
{ACAD_REACTORS
330
C
102
}
330
C
100
AcDbDictionary
281
     1
  3
Standard
350
17
  0
DICTIONARY
  5
18
102
{ACAD_REACTORS
330
C
102
}
330
C
100
AcDbDictionary
281
     1
  0
ACDBDICTIONARYWDFLT
  5
E
102
{ACAD_REACTORS
330
C
102
}
330
C
100
AcDbDictionary
281
     1
  3
Normal
350
F
100
AcDbDictionaryWithDefault
340
F
  0
DICTIONARY
  5
338
102
{ACAD_REACTORS
330
C
102
}
330
C
100
AcDbDictionary
281
     1
  3
COLORDICT
350
33A
  3
MATERIALDICT
350
339
  0
DICTIONARY
  5
32C
102
{ACAD_REACTORS
330
C
102
}
330
C
100
AcDbDictionary
281
     1
  3
DIMASSOC
350
32D
  3
PROJECTNAME
350
32E
  0
LAYOUT
  5
23
102
{ACAD_XDICTIONARY
360
33D
102
}
102
{ACAD_REACTORS
330
19
102
}
330
19
100
AcDbPlotSettings
  1

  2
EPSON LP-S5000
  4

  6

 40
0.0
 41
0.0
 42
0.0
 43
0.0
 44
0.0
 45
0.0
 46
0.0
 47
0.0
 48
0.0
 49
0.0
140
0.0
141
0.0
142
1.0
143
1.0
 70
  1712
 72
     0
 73
     0
 74
     0
  7

 75
     0
147
1.0
148
0.0
149
0.0
100
AcDbLayout
  1
Model
 70
     1
 71
     0
 10
0.0
 20
0.0
 11
12.0
 21
9.0
 12
0.0
 22
0.0
 32
0.0
 14
0.0
 24
0.0
 34
0.0
 15
0.0
 25
0.0
 35
0.0
146
0.0
 13
0.0
 23
0.0
 33
0.0
 16
1.0
 26
0.0
 36
0.0
 17
0.0
 27
1.0
 37
0.0
 76
     0
330
20
  0
LAYOUT
  5
1F
102
{ACAD_XDICTIONARY
360
33B
102
}
102
{ACAD_REACTORS
330
19
102
}
330
19
100
AcDbPlotSettings
  1

  2
EPSON LP-S5000
  4

  6

 40
0.0
 41
0.0
 42
0.0
 43
0.0
 44
0.0
 45
0.0
 46
0.0
 47
0.0
 48
0.0
 49
0.0
140
0.0
141
0.0
142
1.0
143
1.0
 70
   688
 72
     0
 73
     0
 74
     5
  7

 75
    16
147
1.0
148
0.0
149
0.0
100
AcDbLayout
  1
レイアウト1
 70
     1
 71
     1
 10
0.0
 20
0.0
 11
12.0
 21
9.0
 12
0.0
 22
0.0
 32
0.0
 14
1.000000000000000E+20
 24
1.000000000000000E+20
 34
1.000000000000000E+20
 15
-1.000000000000000E+20
 25
-1.000000000000000E+20
 35
-1.000000000000000E+20
146
0.0
 13
0.0
 23
0.0
 33
0.0
 16
1.0
 26
0.0
 36
0.0
 17
0.0
 27
1.0
 37
0.0
 76
     0
330
1C
  0
MLINESTYLE
  5
17
102
{ACAD_REACTORS
330
16
102
}
330
16
100
AcDbMlineStyle
  2
STANDARD
 70
     0
  3

 62
   256
 51
90.0
 52
90.0
 71
     2
 49
0.5
 62
   256
  6
BYLAYER
 49
-0.5
 62
   256
  6
BYLAYER
  0
ACDBPLACEHOLDER
  5
F
102
{ACAD_REACTORS
330
E
102
}
330
E
  0
XRECORD
  5
33A
102
{ACAD_REACTORS
330
338
102
}
330
338
100
AcDbXrecord
280
     1
340
1B
  0
XRECORD
  5
339
102
{ACAD_REACTORS
330
338
102
}
330
338
100
AcDbXrecord
280
     1
340
1A
  0
DICTIONARYVAR
  5
32D
102
{ACAD_REACTORS
330
32C
102
}
330
32C
100
DictionaryVariables
280
     0
  1
1
  0
DICTIONARYVAR
  5
32E
102
{ACAD_REACTORS
330
32C
102
}
330
32C
100
DictionaryVariables
280
     0
  1

  0
DICTIONARY
  5
33D
330
23
100
AcDbDictionary
280
     1
281
     1
  3
ACAD_XREC_ROUNDTRIP
360
33E
  0
DICTIONARY
  5
33B
330
1F
100
AcDbDictionary
280
     1
281
     1
  3
ACAD_XREC_ROUNDTRIP
360
33C
  0
XRECORD
  5
33E
102
{ACAD_REACTORS
330
33D
102
}
330
33D
100
AcDbXrecord
280
     1
102
SHADEPLOT
 70
     0
102
SHADEPLOTRESLEVEL
 70
     2
102
SHADEPLOTCUSTOMDPI
 70
   300
  0
XRECORD
  5
33C
102
{ACAD_REACTORS
330
33B
102
}
330
33B
100
AcDbXrecord
280
     1
102
SHADEPLOT
 70
     0
102
SHADEPLOTRESLEVEL
 70
     2
102
SHADEPLOTCUSTOMDPI
 70
   300
  0
ENDSEC
  0
EOF
