  0
SECTION
  2
HEADER
  9
$ACADVER
  1
AC1015
  9
$ACADMAINTVER
 70
    20
  9
$DWGCODEPAGE
  3
ANSI_932
  9
$INSBASE
 10
0.0
 20
0.0
 30
0.0
  9
$EXTMIN
 10
284.8343045507045
 20
292.1690475779706
 30
-0.0000000349181948
  9
$EXTMAX
 10
3000.036631920419
 20
4237.606669055074
 30
0.0000000814935746
  9
$LIMMIN
 10
0.0
 20
0.0
  9
$LIMMAX
 10
6300.0
 20
4455.0
  9
$ORTHOMODE
 70
     1
  9
$REGENMODE
 70
     1
  9
$FILLMODE
 70
     1
  9
$QTEXTMODE
 70
     0
  9
$MIRRTEXT
 70
     0
  9
$LTSCALE
 40
15.0
  9
$ATTMODE
 70
     1
  9
$TEXTSIZE
 40
0.2
  9
$TRACEWID
 40
0.05
  9
$TEXTSTYLE
  7
STANDARD
  9
$CLAYER
  8
0
  9
$CELTYPE
  6
CONTINUOUS
  9
$CECOLOR
 62
   256
  9
$CELTSCALE
 40
1.0
  9
$DISPSILH
 70
     0
  9
$DIMSCALE
 40
1.0
  9
$DIMASZ
 40
0.18
  9
$DIMEXO
 40
0.0625
  9
$DIMDLI
 40
0.38
  9
$DIMRND
 40
0.0
  9
$DIMDLE
 40
0.0
  9
$DIMEXE
 40
0.18
  9
$DIMTP
 40
0.0
  9
$DIMTM
 40
0.0
  9
$DIMTXT
 40
0.18
  9
$DIMCEN
 40
0.09
  9
$DIMTSZ
 40
0.0
  9
$DIMTOL
 70
     0
  9
$DIMLIM
 70
     0
  9
$DIMTIH
 70
     1
  9
$DIMTOH
 70
     1
  9
$DIMSE1
 70
     0
  9
$DIMSE2
 70
     0
  9
$DIMTAD
 70
     0
  9
$DIMZIN
 70
     0
  9
$DIMBLK
  1

  9
$DIMASO
 70
     1
  9
$DIMSHO
 70
     1
  9
$DIMPOST
  1

  9
$DIMAPOST
  1

  9
$DIMALT
 70
     0
  9
$DIMALTD
 70
     2
  9
$DIMALTF
 40
25.4
  9
$DIMLFAC
 40
1.0
  9
$DIMTOFL
 70
     0
  9
$DIMTVP
 40
0.0
  9
$DIMTIX
 70
     0
  9
$DIMSOXD
 70
     0
  9
$DIMSAH
 70
     0
  9
$DIMBLK1
  1

  9
$DIMBLK2
  1

  9
$DIMSTYLE
  2
Standard
  9
$DIMCLRD
 70
     0
  9
$DIMCLRE
 70
     0
  9
$DIMCLRT
 70
     0
  9
$DIMTFAC
 40
1.0
  9
$DIMGAP
 40
0.09
  9
$DIMJUST
 70
     0
  9
$DIMSD1
 70
     0
  9
$DIMSD2
 70
     0
  9
$DIMTOLJ
 70
     1
  9
$DIMTZIN
 70
     0
  9
$DIMALTZ
 70
     0
  9
$DIMALTTZ
 70
     0
  9
$DIMUPT
 70
     0
  9
$DIMDEC
 70
     4
  9
$DIMTDEC
 70
     4
  9
$DIMALTU
 70
     2
  9
$DIMALTTD
 70
     2
  9
$DIMTXSTY
  7
STANDARD
  9
$DIMAUNIT
 70
     0
  9
$DIMADEC
 70
     0
  9
$DIMALTRND
 40
0.0
  9
$DIMAZIN
 70
     0
  9
$DIMDSEP
 70
    46
  9
$DIMATFIT
 70
     3
  9
$DIMFRAC
 70
     0
  9
$DIMLDRBLK
  1

  9
$DIMLUNIT
 70
     2
  9
$DIMLWD
 70
    -2
  9
$DIMLWE
 70
    -2
  9
$DIMTMOVE
 70
     0
  9
$LUNITS
 70
     2
  9
$LUPREC
 70
     4
  9
$SKETCHINC
 40
0.1
  9
$FILLETRAD
 40
0.0
  9
$AUNITS
 70
     0
  9
$AUPREC
 70
     0
  9
$MENU
  1
.
  9
$ELEVATION
 40
0.0
  9
$PELEVATION
 40
0.0
  9
$THICKNESS
 40
0.0
  9
$LIMCHECK
 70
     0
  9
$CHAMFERA
 40
0.0
  9
$CHAMFERB
 40
0.0
  9
$CHAMFERC
 40
0.0
  9
$CHAMFERD
 40
0.0
  9
$SKPOLY
 70
     0
  9
$TDCREATE
 40
2456348.515584561
  9
$TDUCREATE
 40
2456348.140584560
  9
$TDUPDATE
 40
2456348.616878831
  9
$TDUUPDATE
 40
2456348.241878831
  9
$TDINDWG
 40
0.0942110532
  9
$TDUSRTIMER
 40
0.0942110532
  9
$USRTIMER
 70
     1
  9
$ANGBASE
 50
0.0
  9
$ANGDIR
 70
     0
  9
$PDMODE
 70
     0
  9
$PDSIZE
 40
0.0
  9
$PLINEWID
 40
0.0
  9
$SPLFRAME
 70
     0
  9
$SPLINETYPE
 70
     6
  9
$SPLINESEGS
 70
     8
  9
$HANDSEED
  5
B99
  9
$SURFTAB1
 70
     6
  9
$SURFTAB2
 70
     6
  9
$SURFTYPE
 70
     6
  9
$SURFU
 70
     6
  9
$SURFV
 70
     6
  9
$UCSBASE
  2

  9
$UCSNAME
  2

  9
$UCSORG
 10
0.0
 20
0.0
 30
0.0
  9
$UCSXDIR
 10
1.0
 20
0.0
 30
0.0
  9
$UCSYDIR
 10
0.0
 20
1.0
 30
0.0
  9
$UCSORTHOREF
  2

  9
$UCSORTHOVIEW
 70
     0
  9
$UCSORGTOP
 10
0.0
 20
0.0
 30
0.0
  9
$UCSORGBOTTOM
 10
0.0
 20
0.0
 30
0.0
  9
$UCSORGLEFT
 10
0.0
 20
0.0
 30
0.0
  9
$UCSORGRIGHT
 10
0.0
 20
0.0
 30
0.0
  9
$UCSORGFRONT
 10
0.0
 20
0.0
 30
0.0
  9
$UCSORGBACK
 10
0.0
 20
0.0
 30
0.0
  9
$PUCSBASE
  2

  9
$PUCSNAME
  2

  9
$PUCSORG
 10
0.0
 20
0.0
 30
0.0
  9
$PUCSXDIR
 10
1.0
 20
0.0
 30
0.0
  9
$PUCSYDIR
 10
0.0
 20
1.0
 30
0.0
  9
$PUCSORTHOREF
  2

  9
$PUCSORTHOVIEW
 70
     0
  9
$PUCSORGTOP
 10
0.0
 20
0.0
 30
0.0
  9
$PUCSORGBOTTOM
 10
0.0
 20
0.0
 30
0.0
  9
$PUCSORGLEFT
 10
0.0
 20
0.0
 30
0.0
  9
$PUCSORGRIGHT
 10
0.0
 20
0.0
 30
0.0
  9
$PUCSORGFRONT
 10
0.0
 20
0.0
 30
0.0
  9
$PUCSORGBACK
 10
0.0
 20
0.0
 30
0.0
  9
$USERI1
 70
     0
  9
$USERI2
 70
     0
  9
$USERI3
 70
     0
  9
$USERI4
 70
     0
  9
$USERI5
 70
     0
  9
$USERR1
 40
0.0
  9
$USERR2
 40
0.0
  9
$USERR3
 40
0.0
  9
$USERR4
 40
0.0
  9
$USERR5
 40
0.0
  9
$WORLDVIEW
 70
     1
  9
$SHADEDGE
 70
     3
  9
$SHADEDIF
 70
    70
  9
$TILEMODE
 70
     1
  9
$MAXACTVP
 70
    64
  9
$PINSBASE
 10
0.0
 20
0.0
 30
0.0
  9
$PLIMCHECK
 70
     0
  9
$PEXTMIN
 10
1.000000000000000E+20
 20
1.000000000000000E+20
 30
1.000000000000000E+20
  9
$PEXTMAX
 10
-1.000000000000000E+20
 20
-1.000000000000000E+20
 30
-1.000000000000000E+20
  9
$PLIMMIN
 10
0.0
 20
0.0
  9
$PLIMMAX
 10
12.0
 20
9.0
  9
$UNITMODE
 70
     0
  9
$VISRETAIN
 70
     1
  9
$PLINEGEN
 70
     0
  9
$PSLTSCALE
 70
     1
  9
$TREEDEPTH
 70
  3020
  9
$CMLSTYLE
  2
Standard
  9
$CMLJUST
 70
     0
  9
$CMLSCALE
 40
1.0
  9
$PROXYGRAPHICS
 70
     1
  9
$MEASUREMENT
 70
     0
  9
$CELWEIGHT
370
    -1
  9
$ENDCAPS
280
     0
  9
$JOINSTYLE
280
     0
  9
$LWDISPLAY
290
     0
  9
$INSUNITS
 70
     0
  9
$HYPERLINKBASE
  1

  9
$STYLESHEET
  1

  9
$XEDIT
290
     1
  9
$CEPSNTYPE
380
     0
  9
$PSTYLEMODE
290
     1
  9
$FINGERPRINTGUID
  2
{EE88E225-36D0-48E2-936D-E9E45FA1137D}
  9
$VERSIONGUID
  2
{E050F1C5-8EDE-4478-A464-4A724A04D756}
  9
$EXTNAMES
290
     1
  9
$PSVPSCALE
 40
0.0
  9
$OLESTARTUP
290
     0
  0
ENDSEC
  0
SECTION
  2
CLASSES
  0
CLASS
  1
ACDBDICTIONARYWDFLT
  2
AcDbDictionaryWithDefault
  3
ObjectDBX Classes
 90
        0
280
     0
281
     0
  0
CLASS
  1
DICTIONARYVAR
  2
AcDbDictionaryVar
  3
ObjectDBX Classes
 90
        0
280
     0
281
     0
  0
CLASS
  1
ACDBPLACEHOLDER
  2
AcDbPlaceHolder
  3
ObjectDBX Classes
 90
        0
280
     0
281
     0
  0
CLASS
  1
LAYOUT
  2
AcDbLayout
  3
ObjectDBX Classes
 90
        0
280
     0
281
     0
  0
ENDSEC
  0
SECTION
  2
TABLES
  0
TABLE
  2
VPORT
  5
8
330
0
100
AcDbSymbolTable
 70
     3
  0
VPORT
  5
B91
330
8
100
AcDbSymbolTableRecord
100
AcDbViewportTableRecord
  2
*Active
 70
     0
 10
0.0
 20
0.0
 11
1.0
 21
1.0
 12
3150.0
 22
2227.5
 13
0.0
 23
0.0
 14
1.0
 24
1.0
 15
0.0
 25
0.0
 16
0.0
 26
0.0
 36
1.0
 17
0.0
 27
0.0
 37
0.0
 40
4603.878755461157
 41
1.376978417266186
 42
50.0
 43
0.0
 44
0.0
 50
0.0
 51
0.0
 71
     0
 72
   100
 73
     1
 74
     1
 75
     0
 76
     0
 77
     0
 78
     0
281
     0
 65
     1
110
0.0
120
0.0
130
0.0
111
1.0
121
0.0
131
0.0
112
0.0
122
1.0
132
0.0
 79
     0
146
0.0
  0
ENDTAB
  0
TABLE
  2
LTYPE
  5
5
330
0
100
AcDbSymbolTable
 70
    35
  0
LTYPE
  5
13
330
5
100
AcDbSymbolTableRecord
100
AcDbLinetypeTableRecord
  2
ByBlock
 70
     0
  3

 72
    65
 73
     0
 40
0.0
  0
LTYPE
  5
14
330
5
100
AcDbSymbolTableRecord
100
AcDbLinetypeTableRecord
  2
ByLayer
 70
     0
  3

 72
    65
 73
     0
 40
0.0
  0
LTYPE
  5
15
330
5
100
AcDbSymbolTableRecord
100
AcDbLinetypeTableRecord
  2
CONTINUOUS
 70
     0
  3
実線
 72
    65
 73
     0
 40
0.0
  0
LTYPE
  5
24
330
5
100
AcDbSymbolTableRecord
100
AcDbLinetypeTableRecord
  2
DASHED1
 70
     0
  3
--  --  --  --  --  --  --  --  
 72
    65
 73
     2
 40
2.5
 49
1.25
 74
     0
 49
-1.25
 74
     0
  0
LTYPE
  5
25
330
5
100
AcDbSymbolTableRecord
100
AcDbLinetypeTableRecord
  2
DASHED2
 70
     0
  3
----    ----    ----    ----    
 72
    65
 73
     2
 40
5.0
 49
2.5
 74
     0
 49
-2.5
 74
     0
  0
LTYPE
  5
26
330
5
100
AcDbSymbolTableRecord
100
AcDbLinetypeTableRecord
  2
DASHED3
 70
     0
  3
------  ------  ------  ------  
 72
    65
 73
     2
 40
5.0
 49
3.75
 74
     0
 49
-1.25
 74
     0
  0
LTYPE
  5
27
330
5
100
AcDbSymbolTableRecord
100
AcDbLinetypeTableRecord
  2
CENTER1
 70
     0
  3
----- - ----- - ----- - ----- - 
 72
    65
 73
     4
 40
10.0
 49
6.25
 74
     0
 49
-1.25
 74
     0
 49
1.25
 74
     0
 49
-1.25
 74
     0
  0
LTYPE
  5
28
330
5
100
AcDbSymbolTableRecord
100
AcDbLinetypeTableRecord
  2
CENTER2
 70
     0
  3
----------  --  ----------  --  
 72
    65
 73
     4
 40
20.0
 49
12.5
 74
     0
 49
-2.5
 74
     0
 49
2.5
 74
     0
 49
-2.5
 74
     0
  0
LTYPE
  5
29
330
5
100
AcDbSymbolTableRecord
100
AcDbLinetypeTableRecord
  2
PHANTOM1
 70
     0
  3
--- - - --- - - --- - - --- - - 
 72
    65
 73
     6
 40
10.0
 49
3.25
 74
     0
 49
-1.25
 74
     0
 49
1.25
 74
     0
 49
-1.25
 74
     0
 49
1.25
 74
     0
 49
-1.25
 74
     0
  0
LTYPE
  5
2A
330
5
100
AcDbSymbolTableRecord
100
AcDbLinetypeTableRecord
  2
PHANTOM2
 70
     0
  3
--------  -  -  --------  -  -  
 72
    65
 73
     6
 40
20.0
 49
10.0
 74
     0
 49
-2.5
 74
     0
 49
1.25
 74
     0
 49
-2.5
 74
     0
 49
1.25
 74
     0
 49
-2.5
 74
     0
  0
LTYPE
  5
2B
330
5
100
AcDbSymbolTableRecord
100
AcDbLinetypeTableRecord
  2
DOT
 70
     0
  3
-   -   -   -   -   -   -   -   
 72
    65
 73
     2
 40
2.5
 49
0.625
 74
     0
 49
-1.875
 74
     0
  0
LTYPE
  5
2C
330
5
100
AcDbSymbolTableRecord
100
AcDbLinetypeTableRecord
  2
DUMMY
 70
     0
  3
ダミー
 72
    65
 73
     0
 40
0.0
  0
LTYPE
  5
2D
330
5
100
AcDbSymbolTableRecord
100
AcDbLinetypeTableRecord
  2
RAND1
 70
     0
  3
ランダム線1
 72
    65
 73
     4
 40
10.0
 49
1.0
 74
     0
 49
-2.0
 74
     0
 49
3.0
 74
     0
 49
-4.0
 74
     0
  0
LTYPE
  5
2E
330
5
100
AcDbSymbolTableRecord
100
AcDbLinetypeTableRecord
  2
RAND2
 70
     0
  3
ランダム線2
 72
    65
 73
     4
 40
14.0
 49
2.0
 74
     0
 49
-3.0
 74
     0
 49
4.0
 74
     0
 49
-5.0
 74
     0
  0
LTYPE
  5
2F
330
5
100
AcDbSymbolTableRecord
100
AcDbLinetypeTableRecord
  2
RAND3
 70
     0
  3
ランダム線3
 72
    65
 73
     4
 40
18.0
 49
3.0
 74
     0
 49
-4.0
 74
     0
 49
5.0
 74
     0
 49
-6.0
 74
     0
  0
LTYPE
  5
30
330
5
100
AcDbSymbolTableRecord
100
AcDbLinetypeTableRecord
  2
RAND4
 70
     0
  3
ランダム線4
 72
    65
 73
     4
 40
22.0
 49
4.0
 74
     0
 49
-5.0
 74
     0
 49
6.0
 74
     0
 49
-7.0
 74
     0
  0
LTYPE
  5
31
330
5
100
AcDbSymbolTableRecord
100
AcDbLinetypeTableRecord
  2
RAND5
 70
     0
  3
ランダム線5
 72
    65
 73
     4
 40
26.0
 49
5.0
 74
     0
 49
-6.0
 74
     0
 49
7.0
 74
     0
 49
-8.0
 74
     0
  0
LTYPE
  5
32
330
5
100
AcDbSymbolTableRecord
100
AcDbLinetypeTableRecord
  2
LONG1
 70
     0
  3
----------  --  ----------  --  
 72
    65
 73
     4
 40
40.0
 49
32.5
 74
     0
 49
-2.5
 74
     0
 49
2.5
 74
     0
 49
-2.5
 74
     0
  0
LTYPE
  5
33
330
5
100
AcDbSymbolTableRecord
100
AcDbLinetypeTableRecord
  2
LONG2
 70
     0
  3
--------  -  -  --------  -  -  
 72
    65
 73
     6
 40
40.0
 49
30.0
 74
     0
 49
-2.5
 74
     0
 49
1.25
 74
     0
 49
-2.5
 74
     0
 49
1.25
 74
     0
 49
-2.5
 74
     0
  0
LTYPE
  5
34
330
5
100
AcDbSymbolTableRecord
100
AcDbLinetypeTableRecord
  2
LONG3
 70
     0
  3
+++++++++++++++..+++++++++++++++
 72
    65
 73
     2
 40
40.0
 49
37.5
 74
     0
 49
-2.5
 74
     0
  0
LTYPE
  5
35
330
5
100
AcDbSymbolTableRecord
100
AcDbLinetypeTableRecord
  2
LONG4
 70
     0
  3
+++++++++++++++..+++++++++++++++
 72
    65
 73
     2
 40
80.0
 49
75.0
 74
     0
 49
-5.0
 74
     0
  0
LTYPE
  5
36
330
5
100
AcDbSymbolTableRecord
100
AcDbLinetypeTableRecord
  2
LONG5
 70
     0
  3
----------  --  ----------  --  
 72
    65
 73
     4
 40
60.0
 49
37.5
 74
     0
 49
-7.5
 74
     0
 49
7.5
 74
     0
 49
-7.5
 74
     0
  0
LTYPE
  5
37
330
5
100
AcDbSymbolTableRecord
100
AcDbLinetypeTableRecord
  2
DASHED
 70
     0
  3
-------   -------------   ------
 72
    65
 73
     2
 40
7.5
 49
6.0
 74
     0
 49
-1.5
 74
     0
  0
LTYPE
  5
38
330
5
100
AcDbSymbolTableRecord
100
AcDbLinetypeTableRecord
  2
DASHED_SPACED
 70
     0
  3
----        --------        ----
 72
    65
 73
     2
 40
12.0
 49
6.0
 74
     0
 49
-6.0
 74
     0
  0
LTYPE
  5
39
330
5
100
AcDbSymbolTableRecord
100
AcDbLinetypeTableRecord
  2
LONG_DASHED_DOTTED
 70
     0
  3
------------- --- --------------
 72
    65
 73
     4
 40
15.25
 49
12.0
 74
     0
 49
-1.5
 74
     0
 49
0.25
 74
     0
 49
-1.5
 74
     0
  0
LTYPE
  5
3A
330
5
100
AcDbSymbolTableRecord
100
AcDbLinetypeTableRecord
  2
LONG_DASHED_DOUBLE-DOTTED
 70
     0
  3
----------- --- --- ------------
 72
    65
 73
     6
 40
17.0
 49
12.0
 74
     0
 49
-1.5
 74
     0
 49
0.25
 74
     0
 49
-1.5
 74
     0
 49
0.25
 74
     0
 49
-1.5
 74
     0
  0
LTYPE
  5
3B
330
5
100
AcDbSymbolTableRecord
100
AcDbLinetypeTableRecord
  2
LONG_DASHED_TRIPLICATE-DOTTED
 70
     0
  3
--------- --- --- --- ----------
 72
    65
 73
     8
 40
18.75
 49
12.0
 74
     0
 49
-1.5
 74
     0
 49
0.25
 74
     0
 49
-1.5
 74
     0
 49
0.25
 74
     0
 49
-1.5
 74
     0
 49
0.25
 74
     0
 49
-1.5
 74
     0
  0
LTYPE
  5
3C
330
5
100
AcDbSymbolTableRecord
100
AcDbLinetypeTableRecord
  2
DOTTED
 70
     0
  3
   -       -       -       -    
 72
    65
 73
     2
 40
1.75
 49
0.25
 74
     0
 49
-1.5
 74
     0
  0
LTYPE
  5
3D
330
5
100
AcDbSymbolTableRecord
100
AcDbLinetypeTableRecord
  2
CHAIN
 70
     0
  3
-------------- -- --------------
 72
    65
 73
     4
 40
18.5
 49
12.0
 74
     0
 49
-1.5
 74
     0
 49
3.5
 74
     0
 49
-1.5
 74
     0
  0
LTYPE
  5
3E
330
5
100
AcDbSymbolTableRecord
100
AcDbLinetypeTableRecord
  2
CHAIN_DOUBLE_DASH
 70
     0
  3
------------ -- -- -------------
 72
    65
 73
     6
 40
23.5
 49
12.0
 74
     0
 49
-1.5
 74
     0
 49
3.5
 74
     0
 49
-1.5
 74
     0
 49
3.5
 74
     0
 49
-1.5
 74
     0
  0
LTYPE
  5
3F
330
5
100
AcDbSymbolTableRecord
100
AcDbLinetypeTableRecord
  2
DASHED_DOTTED
 70
     0
  3
-----------     -     ----------
 72
    65
 73
     4
 40
9.25
 49
6.0
 74
     0
 49
-1.5
 74
     0
 49
0.25
 74
     0
 49
-1.5
 74
     0
  0
LTYPE
  5
40
330
5
100
AcDbSymbolTableRecord
100
AcDbLinetypeTableRecord
  2
DOUBLE-DASHED_DOTTED
 70
     0
  3
------   -----------   -   -----
 72
    65
 73
     6
 40
16.75
 49
6.0
 74
     0
 49
-1.5
 74
     0
 49
6.0
 74
     0
 49
-1.5
 74
     0
 49
0.25
 74
     0
 49
-1.5
 74
     0
  0
LTYPE
  5
41
330
5
100
AcDbSymbolTableRecord
100
AcDbLinetypeTableRecord
  2
DASHED_DOUBLE-DOTTED
 70
     0
  3
---------    -    -    ---------
 72
    65
 73
     6
 40
11.0
 49
6.0
 74
     0
 49
-1.5
 74
     0
 49
0.25
 74
     0
 49
-1.5
 74
     0
 49
0.25
 74
     0
 49
-1.5
 74
     0
  0
LTYPE
  5
42
330
5
100
AcDbSymbolTableRecord
100
AcDbLinetypeTableRecord
  2
DOUBLE-DASHED_DOUBLE-DOTTED
 70
     0
  3
-----   ---------   -   -   ----
 72
    65
 73
     8
 40
18.5
 49
6.0
 74
     0
 49
-1.5
 74
     0
 49
6.0
 74
     0
 49
-1.5
 74
     0
 49
0.25
 74
     0
 49
-1.5
 74
     0
 49
0.25
 74
     0
 49
-1.5
 74
     0
  0
LTYPE
  5
43
330
5
100
AcDbSymbolTableRecord
100
AcDbLinetypeTableRecord
  2
DASHED_TRIPLICATE-DOTTED
 70
     0
  3
-------    -    -    -    ------
 72
    65
 73
     8
 40
12.75
 49
6.0
 74
     0
 49
-1.5
 74
     0
 49
0.25
 74
     0
 49
-1.5
 74
     0
 49
0.25
 74
     0
 49
-1.5
 74
     0
 49
0.25
 74
     0
 49
-1.5
 74
     0
  0
LTYPE
  5
44
330
5
100
AcDbSymbolTableRecord
100
AcDbLinetypeTableRecord
  2
DOUBLE-DASHED_TRIPLICATE-DOTTED
 70
     0
  3
-----  ---------  -  -  -  -----
 72
    65
 73
    10
 40
20.25
 49
6.0
 74
     0
 49
-1.5
 74
     0
 49
6.0
 74
     0
 49
-1.5
 74
     0
 49
0.25
 74
     0
 49
-1.5
 74
     0
 49
0.25
 74
     0
 49
-1.5
 74
     0
 49
0.25
 74
     0
 49
-1.5
 74
     0
  0
LTYPE
  5
45
330
5
100
AcDbSymbolTableRecord
100
AcDbLinetypeTableRecord
  2
UNDEFINED
 70
     0
  3
--------------------------------
 72
    65
 73
     0
 40
0.0
  0
ENDTAB
  0
TABLE
  2
LAYER
  5
2
330
0
100
AcDbSymbolTable
 70
     3
  0
LAYER
  5
10
330
2
100
AcDbSymbolTableRecord
100
AcDbLayerTableRecord
  2
0
 70
     0
 62
     7
  6
CONTINUOUS
370
    -3
390
F
  0
LAYER
  5
47
330
2
100
AcDbSymbolTableRecord
100
AcDbLayerTableRecord
  2
_0-0_
 70
     0
 62
     7
  6
CONTINUOUS
370
    -3
390
F
  0
LAYER
  5
48
330
2
100
AcDbSymbolTableRecord
100
AcDbLayerTableRecord
  2
ADD_LINE
 70
     0
 62
     7
  6
CONTINUOUS
370
    -3
390
F
  0
ENDTAB
  0
TABLE
  2
STYLE
  5
3
330
0
100
AcDbSymbolTable
 70
     3
  0
STYLE
  5
11
330
3
100
AcDbSymbolTableRecord
100
AcDbTextStyleTableRecord
  2
STANDARD
 70
     0
 40
0.0
 41
1.0
 50
0.0
 71
     0
 42
0.2
  3
txt
  4
bigfont.shx
  0
STYLE
  5
46
330
3
100
AcDbSymbolTableRecord
100
AcDbTextStyleTableRecord
  2
TATEGAKI
 70
     4
 40
0.0
 41
1.0
 50
0.0
 71
     0
 42
1.0
  3
txt
  4
bigfont.shx
  0
STYLE
  5
46B
330
3
100
AcDbSymbolTableRecord
100
AcDbTextStyleTableRecord
  2
MSゴシック
 70
     0
 40
0.0
 41
0.8
 50
0.0
 71
     0
 42
0.2
  3

  4

1001
ACAD
1000
MS Gothic
1071
    32817
  0
ENDTAB
  0
TABLE
  2
VIEW
  5
6
330
0
100
AcDbSymbolTable
 70
     0
  0
ENDTAB
  0
TABLE
  2
UCS
  5
7
330
0
100
AcDbSymbolTable
 70
     0
  0
ENDTAB
  0
TABLE
  2
APPID
  5
9
330
0
100
AcDbSymbolTable
 70
     1
  0
APPID
  5
12
330
9
100
AcDbSymbolTableRecord
100
AcDbRegAppTableRecord
  2
ACAD
 70
     0
  0
ENDTAB
  0
TABLE
  2
DIMSTYLE
  5
A
330
0
100
AcDbSymbolTable
 70
     1
100
AcDbDimStyleTable
 71
     0
  0
DIMSTYLE
105
45E
330
A
100
AcDbSymbolTableRecord
100
AcDbDimStyleTableRecord
  2
Standard
 70
     0
340
11
  0
ENDTAB
  0
TABLE
  2
BLOCK_RECORD
  5
1
330
0
100
AcDbSymbolTable
 70
     0
  0
BLOCK_RECORD
  5
20
330
1
100
AcDbSymbolTableRecord
100
AcDbBlockTableRecord
  2
*Model_Space
340
23
  0
BLOCK_RECORD
  5
1C
330
1
100
AcDbSymbolTableRecord
100
AcDbBlockTableRecord
  2
*Paper_Space
340
1F
  0
ENDTAB
  0
ENDSEC
  0
SECTION
  2
BLOCKS
  0
BLOCK
  5
21
330
20
100
AcDbEntity
  8
0
100
AcDbBlockBegin
  2
*Model_Space
 70
     0
 10
0.0
 20
0.0
 30
0.0
  3
*Model_Space
  1

  0
ENDBLK
  5
22
330
20
100
AcDbEntity
  8
0
100
AcDbBlockEnd
  0
BLOCK
  5
1D
330
1C
100
AcDbEntity
 67
     1
  8
0
100
AcDbBlockBegin
  2
*Paper_Space
 70
     0
 10
0.0
 20
0.0
 30
0.0
  3
*Paper_Space
  1

  0
ENDBLK
  5
1E
330
1C
100
AcDbEntity
 67
     1
  8
0
100
AcDbBlockEnd
  0
ENDSEC
  0
SECTION
  2
ENTITIES
  0
TEXT
  5
4D
330
20
100
AcDbEntity
  8
_0-0_
 62
     7
100
AcDbText
 10
1128.75
 20
1285.25
 30
0.0
 40
52.5
  1
ｄ'
 41
0.9
  7
MSゴシック
100
AcDbText
  0
TEXT
  5
4E
330
20
100
AcDbEntity
  8
_0-0_
 62
     7
100
AcDbText
 10
1803.75
 20
1285.25
 30
0.0
 40
52.5
  1
ｔ'
 41
0.9
  7
MSゴシック
100
AcDbText
  0
LINE
  5
4F
330
20
100
AcDbEntity
  8
_0-0_
  6
Continuous
 62
   136
100
AcDbLine
 10
285.0
 20
292.5
 30
0.0
 11
3000.0
 21
292.5
 31
0.0
  0
LINE
  5
50
330
20
100
AcDbEntity
  8
_0-0_
  6
Continuous
 62
   136
100
AcDbLine
 10
285.0
 20
4237.499999999999
 30
0.0
 11
285.0
 21
292.5
 31
0.0
  0
LINE
  5
51
330
20
100
AcDbEntity
  8
_0-0_
  6
Continuous
 62
   136
100
AcDbLine
 10
3000.0
 20
4237.499999999999
 30
0.0
 11
285.0
 21
4237.499999999999
 31
0.0
  0
LINE
  5
52
330
20
100
AcDbEntity
  8
_0-0_
  6
Continuous
 62
   136
100
AcDbLine
 10
3000.0
 20
292.5
 30
0.0
 11
3000.0
 21
4237.499999999999
 31
0.0
  0
TEXT
  5
53
330
20
100
AcDbEntity
  8
_0-0_
 62
     7
100
AcDbText
 10
1143.75
 20
1475.75
 30
0.0
 40
97.5
  1
寸法・配筋・質量表
 41
0.9
  7
MSゴシック
100
AcDbText
  0
LINE
  5
55
330
20
100
AcDbEntity
  8
_0-0_
  6
Continuous
 62
     6
100
AcDbLine
 10
337.5
 20
1424.5
 30
0.0
 11
2947.5
 21
1424.5
 31
0.0
  0
TEXT
  5
56
330
20
100
AcDbEntity
  8
_0-0_
 62
     7
100
AcDbText
 10
571.875
 20
678.75
 30
0.0
 40
52.5
  1
500
 41
0.9
  7
MSゴシック
100
AcDbText
  0
LINE
  5
57
330
20
100
AcDbEntity
  8
_0-0_
  6
Continuous
 62
     6
100
AcDbLine
 10
337.5
 20
1424.5
 30
0.0
 11
337.5
 21
667.4999999999999
 31
0.0
  0
LINE
  5
58
330
20
100
AcDbEntity
  8
_0-0_
  6
Continuous
 62
     6
100
AcDbLine
 10
337.5
 20
1267.5
 30
0.0
 11
2947.5
 21
1267.5
 31
0.0
  0
LINE
  5
59
330
20
100
AcDbEntity
  8
_0-0_
  6
Continuous
 62
     6
100
AcDbLine
 10
337.5
 20
1192.5
 30
0.0
 11
2947.5
 21
1192.5
 31
0.0
  0
LINE
  5
5A
330
20
100
AcDbEntity
  8
_0-0_
  6
Continuous
 62
     6
100
AcDbLine
 10
337.5
 20
1117.5
 30
0.0
 11
2947.5
 21
1117.5
 31
0.0
  0
LINE
  5
5B
330
20
100
AcDbEntity
  8
_0-0_
  6
Continuous
 62
     6
100
AcDbLine
 10
337.5
 20
1042.5
 30
0.0
 11
2947.5
 21
1042.5
 31
0.0
  0
LINE
  5
5C
330
20
100
AcDbEntity
  8
_0-0_
  6
Continuous
 62
     6
100
AcDbLine
 10
337.5
 20
967.5
 30
0.0
 11
2947.5
 21
967.5
 31
0.0
  0
LINE
  5
5D
330
20
100
AcDbEntity
  8
_0-0_
  6
Continuous
 62
     6
100
AcDbLine
 10
337.5
 20
892.5
 30
0.0
 11
2947.5
 21
892.5
 31
0.0
  0
LINE
  5
5E
330
20
100
AcDbEntity
  8
_0-0_
  6
Continuous
 62
     6
100
AcDbLine
 10
337.5
 20
817.5
 30
0.0
 11
2947.5
 21
817.5
 31
0.0
  0
LINE
  5
5F
330
20
100
AcDbEntity
  8
_0-0_
  6
Continuous
 62
     6
100
AcDbLine
 10
547.5
 20
1424.5
 30
0.0
 11
547.5
 21
667.4999999999999
 31
0.0
  0
LINE
  5
60
330
20
100
AcDbEntity
  8
_0-0_
  6
Continuous
 62
     6
100
AcDbLine
 10
2437.5
 20
1424.5
 30
0.0
 11
2437.5
 21
667.4999999999999
 31
0.0
  0
LINE
  5
61
330
20
100
AcDbEntity
  8
_0-0_
  6
Continuous
 62
     6
100
AcDbLine
 10
337.5
 20
742.4999999999999
 30
0.0
 11
2947.5
 21
742.4999999999999
 31
0.0
  0
LINE
  5
62
330
20
100
AcDbEntity
  8
_0-0_
  6
Continuous
 62
     6
100
AcDbLine
 10
337.5
 20
667.4999999999999
 30
0.0
 11
2947.5
 21
667.4999999999999
 31
0.0
  0
LINE
  5
63
330
20
100
AcDbEntity
  8
_0-0_
  6
Continuous
 62
     6
100
AcDbLine
 10
2782.5
 20
1424.5
 30
0.0
 11
2782.5
 21
667.4999999999999
 31
0.0
  0
LINE
  5
64
330
20
100
AcDbEntity
  8
_0-0_
  6
Continuous
 62
     6
100
AcDbLine
 10
2947.5
 20
667.4999999999999
 30
0.0
 11
2947.5
 21
1424.5
 31
0.0
  0
LINE
  5
65
330
20
100
AcDbEntity
  8
_0-0_
  6
Continuous
 62
     6
100
AcDbLine
 10
547.5
 20
1349.5
 30
0.0
 11
2782.5
 21
1349.5
 31
0.0
  0
TEXT
  5
66
330
20
100
AcDbEntity
  8
_0-0_
 62
     7
100
AcDbText
 10
2827.5
 20
1289.5
 30
0.0
 40
45.0
  1
(kg)
 41
0.8
  7
MSゴシック
100
AcDbText
  0
TEXT
  5
67
330
20
100
AcDbEntity
  8
_0-0_
 62
     7
100
AcDbText
 10
2790.0
 20
1364.5
 30
0.0
 40
45.0
  1
参考質量
 41
0.65
  7
MSゴシック
100
AcDbText
  0
LINE
  5
68
330
20
100
AcDbEntity
  8
_0-0_
  6
Continuous
 62
     6
100
AcDbLine
 10
682.5
 20
1349.5
 30
0.0
 11
682.5
 21
667.4999999999999
 31
0.0
  0
LINE
  5
69
330
20
100
AcDbEntity
  8
_0-0_
  6
Continuous
 62
     6
100
AcDbLine
 10
817.5
 20
1349.5
 30
0.0
 11
817.5
 21
667.4999999999999
 31
0.0
  0
LINE
  5
6A
330
20
100
AcDbEntity
  8
_0-0_
  6
Continuous
 62
     6
100
AcDbLine
 10
952.5
 20
1349.5
 30
0.0
 11
952.5
 21
667.4999999999999
 31
0.0
  0
LINE
  5
6B
330
20
100
AcDbEntity
  8
_0-0_
  6
Continuous
 62
     6
100
AcDbLine
 10
1087.5
 20
1349.5
 30
0.0
 11
1087.5
 21
667.4999999999999
 31
0.0
  0
LINE
  5
6C
330
20
100
AcDbEntity
  8
_0-0_
  6
Continuous
 62
     6
100
AcDbLine
 10
1222.5
 20
1349.5
 30
0.0
 11
1222.5
 21
667.4999999999999
 31
0.0
  0
LINE
  5
6D
330
20
100
AcDbEntity
  8
_0-0_
  6
Continuous
 62
     6
100
AcDbLine
 10
1357.5
 20
1349.5
 30
0.0
 11
1357.5
 21
667.4999999999999
 31
0.0
  0
LINE
  5
6E
330
20
100
AcDbEntity
  8
_0-0_
  6
Continuous
 62
     6
100
AcDbLine
 10
1492.5
 20
1349.5
 30
0.0
 11
1492.5
 21
667.4999999999999
 31
0.0
  0
LINE
  5
6F
330
20
100
AcDbEntity
  8
_0-0_
  6
Continuous
 62
     6
100
AcDbLine
 10
1627.5
 20
1349.5
 30
0.0
 11
1627.5
 21
667.4999999999999
 31
0.0
  0
LINE
  5
70
330
20
100
AcDbEntity
  8
_0-0_
  6
Continuous
 62
     6
100
AcDbLine
 10
1762.5
 20
1349.5
 30
0.0
 11
1762.5
 21
667.4999999999999
 31
0.0
  0
LINE
  5
71
330
20
100
AcDbEntity
  8
_0-0_
  6
Continuous
 62
     6
100
AcDbLine
 10
2610.0
 20
1349.5
 30
0.0
 11
2610.0
 21
667.4999999999999
 31
0.0
  0
LINE
  5
72
330
20
100
AcDbEntity
  8
_0-0_
  6
Continuous
 62
     6
100
AcDbLine
 10
2302.5
 20
1349.5
 30
0.0
 11
2302.5
 21
667.4999999999999
 31
0.0
  0
LINE
  5
73
330
20
100
AcDbEntity
  8
_0-0_
  6
Continuous
 62
     6
100
AcDbLine
 10
2167.5
 20
1349.5
 30
0.0
 11
2167.5
 21
667.4999999999999
 31
0.0
  0
LINE
  5
74
330
20
100
AcDbEntity
  8
_0-0_
  6
Continuous
 62
     6
100
AcDbLine
 10
2032.5
 20
1349.5
 30
0.0
 11
2032.5
 21
667.4999999999999
 31
0.0
  0
LINE
  5
75
330
20
100
AcDbEntity
  8
_0-0_
  6
Continuous
 62
     6
100
AcDbLine
 10
1897.5
 20
1349.5
 30
0.0
 11
1897.5
 21
667.4999999999999
 31
0.0
  0
TEXT
  5
76
330
20
100
AcDbEntity
  8
_0-0_
 62
     7
100
AcDbText
 10
571.875
 20
753.75
 30
0.0
 40
52.5
  1
500
 41
0.9
  7
MSゴシック
100
AcDbText
  0
TEXT
  5
77
330
20
100
AcDbEntity
  8
_0-0_
 62
     7
100
AcDbText
 10
571.875
 20
1203.75
 30
0.0
 40
52.5
  1
250
 41
0.9
  7
MSゴシック
100
AcDbText
  0
TEXT
  5
78
330
20
100
AcDbEntity
  8
_0-0_
 62
     7
100
AcDbText
 10
571.875
 20
1128.75
 30
0.0
 40
52.5
  1
300
 41
0.9
  7
MSゴシック
100
AcDbText
  0
TEXT
  5
79
330
20
100
AcDbEntity
  8
_0-0_
 62
     7
100
AcDbText
 10
571.875
 20
1053.75
 30
0.0
 40
52.5
  1
300
 41
0.9
  7
MSゴシック
100
AcDbText
  0
TEXT
  5
7A
330
20
100
AcDbEntity
  8
_0-0_
 62
     7
100
AcDbText
 10
571.875
 20
978.7499999999999
 30
0.0
 40
52.5
  1
300
 41
0.9
  7
MSゴシック
100
AcDbText
  0
TEXT
  5
7B
330
20
100
AcDbEntity
  8
_0-0_
 62
     7
100
AcDbText
 10
571.875
 20
903.7499999999999
 30
0.0
 40
52.5
  1
400
 41
0.9
  7
MSゴシック
100
AcDbText
  0
TEXT
  5
7C
330
20
100
AcDbEntity
  8
_0-0_
 62
     7
100
AcDbText
 10
571.875
 20
828.7499999999999
 30
0.0
 40
52.5
  1
400
 41
0.9
  7
MSゴシック
100
AcDbText
  0
LINE
  5
7D
330
20
100
AcDbEntity
  8
_0-0_
  6
Continuous
 62
     6
100
AcDbLine
 10
541.4999999999999
 20
1424.5
 30
0.0
 11
541.4999999999999
 21
667.4999999999999
 31
0.0
  0
LINE
  5
7E
330
20
100
AcDbEntity
  8
_0-0_
  6
Continuous
 62
     6
100
AcDbLine
 10
337.5
 20
1273.5
 30
0.0
 11
2947.5
 21
1273.5
 31
0.0
  0
TEXT
  5
7F
330
20
100
AcDbEntity
  8
_0-0_
 62
     7
100
AcDbText
 10
841.8749999999999
 20
903.7499999999999
 30
0.0
 40
52.5
  1
400
 41
0.9
  7
MSゴシック
100
AcDbText
  0
TEXT
  5
81
330
20
100
AcDbEntity
  8
_0-0_
 62
     7
100
AcDbText
 10
706.875
 20
1203.75
 30
0.0
 40
52.5
  1
230
 41
0.9
  7
MSゴシック
100
AcDbText
  0
TEXT
  5
82
330
20
100
AcDbEntity
  8
_0-0_
 62
     7
100
AcDbText
 10
706.875
 20
1128.75
 30
0.0
 40
52.5
  1
280
 41
0.9
  7
MSゴシック
100
AcDbText
  0
TEXT
  5
83
330
20
100
AcDbEntity
  8
_0-0_
 62
     7
100
AcDbText
 10
706.875
 20
1053.75
 30
0.0
 40
52.5
  1
270
 41
0.9
  7
MSゴシック
100
AcDbText
  0
TEXT
  5
84
330
20
100
AcDbEntity
  8
_0-0_
 62
     7
100
AcDbText
 10
706.875
 20
978.7499999999999
 30
0.0
 40
52.5
  1
260
 41
0.9
  7
MSゴシック
100
AcDbText
  0
TEXT
  5
85
330
20
100
AcDbEntity
  8
_0-0_
 62
     7
100
AcDbText
 10
706.875
 20
903.7499999999999
 30
0.0
 40
52.5
  1
370
 41
0.9
  7
MSゴシック
100
AcDbText
  0
TEXT
  5
86
330
20
100
AcDbEntity
  8
_0-0_
 62
     7
100
AcDbText
 10
706.875
 20
828.7499999999999
 30
0.0
 40
52.5
  1
360
 41
0.9
  7
MSゴシック
100
AcDbText
  0
TEXT
  5
87
330
20
100
AcDbEntity
  8
_0-0_
 62
     7
100
AcDbText
 10
706.875
 20
753.75
 30
0.0
 40
52.5
  1
460
 41
0.9
  7
MSゴシック
100
AcDbText
  0
TEXT
  5
88
330
20
100
AcDbEntity
  8
_0-0_
 62
     7
100
AcDbText
 10
706.875
 20
678.75
 30
0.0
 40
52.5
  1
450
 41
0.9
  7
MSゴシック
100
AcDbText
  0
TEXT
  5
89
330
20
100
AcDbEntity
  8
_0-0_
 62
     7
100
AcDbText
 10
841.8749999999999
 20
1203.75
 30
0.0
 40
52.5
  1
250
 41
0.9
  7
MSゴシック
100
AcDbText
  0
TEXT
  5
8A
330
20
100
AcDbEntity
  8
_0-0_
 62
     7
100
AcDbText
 10
841.8749999999999
 20
1128.75
 30
0.0
 40
52.5
  1
300
 41
0.9
  7
MSゴシック
100
AcDbText
  0
TEXT
  5
8B
330
20
100
AcDbEntity
  8
_0-0_
 62
     7
100
AcDbText
 10
841.8749999999999
 20
1053.75
 30
0.0
 40
52.5
  1
400
 41
0.9
  7
MSゴシック
100
AcDbText
  0
TEXT
  5
8C
330
20
100
AcDbEntity
  8
_0-0_
 62
     7
100
AcDbText
 10
841.8749999999999
 20
978.7499999999999
 30
0.0
 40
52.5
  1
500
 41
0.9
  7
MSゴシック
100
AcDbText
  0
TEXT
  5
8D
330
20
100
AcDbEntity
  8
_0-0_
 62
     7
100
AcDbText
 10
841.8749999999999
 20
828.7499999999999
 30
0.0
 40
52.5
  1
500
 41
0.9
  7
MSゴシック
100
AcDbText
  0
TEXT
  5
8E
330
20
100
AcDbEntity
  8
_0-0_
 62
     7
100
AcDbText
 10
841.8749999999999
 20
753.75
 30
0.0
 40
52.5
  1
500
 41
0.9
  7
MSゴシック
100
AcDbText
  0
TEXT
  5
8F
330
20
100
AcDbEntity
  8
_0-0_
 62
     7
100
AcDbText
 10
841.8749999999999
 20
678.75
 30
0.0
 40
52.5
  1
600
 41
0.9
  7
MSゴシック
100
AcDbText
  0
TEXT
  5
90
330
20
100
AcDbEntity
  8
_0-0_
 62
     7
100
AcDbText
 10
991.8750000000001
 20
1203.75
 30
0.0
 40
52.5
  1
45
 41
0.9
  7
MSゴシック
100
AcDbText
  0
TEXT
  5
91
330
20
100
AcDbEntity
  8
_0-0_
 62
     7
100
AcDbText
 10
991.8750000000001
 20
1128.75
 30
0.0
 40
52.5
  1
50
 41
0.9
  7
MSゴシック
100
AcDbText
  0
TEXT
  5
92
330
20
100
AcDbEntity
  8
_0-0_
 62
     7
100
AcDbText
 10
991.8750000000001
 20
1053.75
 30
0.0
 40
52.5
  1
50
 41
0.9
  7
MSゴシック
100
AcDbText
  0
TEXT
  5
93
330
20
100
AcDbEntity
  8
_0-0_
 62
     7
100
AcDbText
 10
991.8750000000001
 20
978.7499999999999
 30
0.0
 40
52.5
  1
50
 41
0.9
  7
MSゴシック
100
AcDbText
  0
TEXT
  5
94
330
20
100
AcDbEntity
  8
_0-0_
 62
     7
100
AcDbText
 10
991.8750000000001
 20
903.7499999999999
 30
0.0
 40
52.5
  1
55
 41
0.9
  7
MSゴシック
100
AcDbText
  0
TEXT
  5
95
330
20
100
AcDbEntity
  8
_0-0_
 62
     7
100
AcDbText
 10
991.8750000000001
 20
828.7499999999999
 30
0.0
 40
52.5
  1
55
 41
0.9
  7
MSゴシック
100
AcDbText
  0
TEXT
  5
96
330
20
100
AcDbEntity
  8
_0-0_
 62
     7
100
AcDbText
 10
991.8750000000001
 20
753.75
 30
0.0
 40
52.5
  1
60
 41
0.9
  7
MSゴシック
100
AcDbText
  0
TEXT
  5
97
330
20
100
AcDbEntity
  8
_0-0_
 62
     7
100
AcDbText
 10
991.8750000000001
 20
678.75
 30
0.0
 40
52.5
  1
60
 41
0.9
  7
MSゴシック
100
AcDbText
  0
TEXT
  5
98
330
20
100
AcDbEntity
  8
_0-0_
 62
     7
100
AcDbText
 10
1126.875
 20
1203.75
 30
0.0
 40
52.5
  1
55
 41
0.9
  7
MSゴシック
100
AcDbText
  0
TEXT
  5
99
330
20
100
AcDbEntity
  8
_0-0_
 62
     7
100
AcDbText
 10
1126.875
 20
1128.75
 30
0.0
 40
52.5
  1
55
 41
0.9
  7
MSゴシック
100
AcDbText
  0
TEXT
  5
9A
330
20
100
AcDbEntity
  8
_0-0_
 62
     7
100
AcDbText
 10
1126.875
 20
1053.75
 30
0.0
 40
52.5
  1
55
 41
0.9
  7
MSゴシック
100
AcDbText
  0
TEXT
  5
9B
330
20
100
AcDbEntity
  8
_0-0_
 62
     7
100
AcDbText
 10
1126.875
 20
978.7499999999999
 30
0.0
 40
52.5
  1
55
 41
0.9
  7
MSゴシック
100
AcDbText
  0
TEXT
  5
9C
330
20
100
AcDbEntity
  8
_0-0_
 62
     7
100
AcDbText
 10
1126.875
 20
903.7499999999999
 30
0.0
 40
52.5
  1
55
 41
0.9
  7
MSゴシック
100
AcDbText
  0
TEXT
  5
9D
330
20
100
AcDbEntity
  8
_0-0_
 62
     7
100
AcDbText
 10
1126.875
 20
828.7499999999999
 30
0.0
 40
52.5
  1
55
 41
0.9
  7
MSゴシック
100
AcDbText
  0
TEXT
  5
9E
330
20
100
AcDbEntity
  8
_0-0_
 62
     7
100
AcDbText
 10
1126.875
 20
753.75
 30
0.0
 40
52.5
  1
60
 41
0.9
  7
MSゴシック
100
AcDbText
  0
TEXT
  5
9F
330
20
100
AcDbEntity
  8
_0-0_
 62
     7
100
AcDbText
 10
1126.875
 20
678.75
 30
0.0
 40
52.5
  1
60
 41
0.9
  7
MSゴシック
100
AcDbText
  0
TEXT
  5
A0
330
20
100
AcDbEntity
  8
_0-0_
 62
     7
100
AcDbText
 10
1261.875
 20
1203.75
 30
0.0
 40
52.5
  1
65
 41
0.9
  7
MSゴシック
100
AcDbText
  0
TEXT
  5
A1
330
20
100
AcDbEntity
  8
_0-0_
 62
     7
100
AcDbText
 10
1261.875
 20
1128.75
 30
0.0
 40
52.5
  1
70
 41
0.9
  7
MSゴシック
100
AcDbText
  0
TEXT
  5
A2
330
20
100
AcDbEntity
  8
_0-0_
 62
     7
100
AcDbText
 10
1261.875
 20
1053.75
 30
0.0
 40
52.5
  1
70
 41
0.9
  7
MSゴシック
100
AcDbText
  0
TEXT
  5
A3
330
20
100
AcDbEntity
  8
_0-0_
 62
     7
100
AcDbText
 10
1261.875
 20
978.7499999999999
 30
0.0
 40
52.5
  1
80
 41
0.9
  7
MSゴシック
100
AcDbText
  0
TEXT
  5
A4
330
20
100
AcDbEntity
  8
_0-0_
 62
     7
100
AcDbText
 10
1261.875
 20
903.7499999999999
 30
0.0
 40
52.5
  1
70
 41
0.9
  7
MSゴシック
100
AcDbText
  0
TEXT
  5
A5
330
20
100
AcDbEntity
  8
_0-0_
 62
     7
100
AcDbText
 10
1261.875
 20
828.7499999999999
 30
0.0
 40
52.5
  1
80
 41
0.9
  7
MSゴシック
100
AcDbText
  0
TEXT
  5
A6
330
20
100
AcDbEntity
  8
_0-0_
 62
     7
100
AcDbText
 10
1261.875
 20
753.75
 30
0.0
 40
52.5
  1
80
 41
0.9
  7
MSゴシック
100
AcDbText
  0
TEXT
  5
A7
330
20
100
AcDbEntity
  8
_0-0_
 62
     7
100
AcDbText
 10
1261.875
 20
678.75
 30
0.0
 40
52.5
  1
90
 41
0.9
  7
MSゴシック
100
AcDbText
  0
TEXT
  5
A8
330
20
100
AcDbEntity
  8
_0-0_
 62
     7
100
AcDbText
 10
1396.875
 20
1203.75
 30
0.0
 40
52.5
  1
65
 41
0.9
  7
MSゴシック
100
AcDbText
  0
TEXT
  5
A9
330
20
100
AcDbEntity
  8
_0-0_
 62
     7
100
AcDbText
 10
1396.875
 20
1128.75
 30
0.0
 40
52.5
  1
70
 41
0.9
  7
MSゴシック
100
AcDbText
  0
TEXT
  5
AA
330
20
100
AcDbEntity
  8
_0-0_
 62
     7
100
AcDbText
 10
1396.875
 20
1053.75
 30
0.0
 40
52.5
  1
70
 41
0.9
  7
MSゴシック
100
AcDbText
  0
TEXT
  5
AB
330
20
100
AcDbEntity
  8
_0-0_
 62
     7
100
AcDbText
 10
1396.875
 20
978.7499999999999
 30
0.0
 40
52.5
  1
80
 41
0.9
  7
MSゴシック
100
AcDbText
  0
TEXT
  5
AC
330
20
100
AcDbEntity
  8
_0-0_
 62
     7
100
AcDbText
 10
1396.875
 20
903.7499999999999
 30
0.0
 40
52.5
  1
70
 41
0.9
  7
MSゴシック
100
AcDbText
  0
TEXT
  5
AD
330
20
100
AcDbEntity
  8
_0-0_
 62
     7
100
AcDbText
 10
1396.875
 20
828.7499999999999
 30
0.0
 40
52.5
  1
80
 41
0.9
  7
MSゴシック
100
AcDbText
  0
TEXT
  5
AE
330
20
100
AcDbEntity
  8
_0-0_
 62
     7
100
AcDbText
 10
1396.875
 20
753.75
 30
0.0
 40
52.5
  1
80
 41
0.9
  7
MSゴシック
100
AcDbText
  0
TEXT
  5
AF
330
20
100
AcDbEntity
  8
_0-0_
 62
     7
100
AcDbText
 10
1396.875
 20
678.75
 30
0.0
 40
52.5
  1
90
 41
0.9
  7
MSゴシック
100
AcDbText
  0
TEXT
  5
B0
330
20
100
AcDbEntity
  8
_0-0_
 62
     7
100
AcDbText
 10
1531.875
 20
1203.75
 30
0.0
 40
52.5
  1
30
 41
0.9
  7
MSゴシック
100
AcDbText
  0
TEXT
  5
B1
330
20
100
AcDbEntity
  8
_0-0_
 62
     7
100
AcDbText
 10
1531.875
 20
1128.75
 30
0.0
 40
52.5
  1
30
 41
0.9
  7
MSゴシック
100
AcDbText
  0
TEXT
  5
B2
330
20
100
AcDbEntity
  8
_0-0_
 62
     7
100
AcDbText
 10
1531.875
 20
1053.75
 30
0.0
 40
52.5
  1
40
 41
0.9
  7
MSゴシック
100
AcDbText
  0
TEXT
  5
B3
330
20
100
AcDbEntity
  8
_0-0_
 62
     7
100
AcDbText
 10
1531.875
 20
978.7499999999999
 30
0.0
 40
52.5
  1
40
 41
0.9
  7
MSゴシック
100
AcDbText
  0
TEXT
  5
B4
330
20
100
AcDbEntity
  8
_0-0_
 62
     7
100
AcDbText
 10
1531.875
 20
903.7499999999999
 30
0.0
 40
52.5
  1
40
 41
0.9
  7
MSゴシック
100
AcDbText
  0
TEXT
  5
B5
330
20
100
AcDbEntity
  8
_0-0_
 62
     7
100
AcDbText
 10
1531.875
 20
828.7499999999999
 30
0.0
 40
52.5
  1
40
 41
0.9
  7
MSゴシック
100
AcDbText
  0
TEXT
  5
B6
330
20
100
AcDbEntity
  8
_0-0_
 62
     7
100
AcDbText
 10
1531.875
 20
753.75
 30
0.0
 40
52.5
  1
40
 41
0.9
  7
MSゴシック
100
AcDbText
  0
TEXT
  5
B7
330
20
100
AcDbEntity
  8
_0-0_
 62
     7
100
AcDbText
 10
1531.875
 20
678.75
 30
0.0
 40
52.5
  1
40
 41
0.9
  7
MSゴシック
100
AcDbText
  0
TEXT
  5
B8
330
20
100
AcDbEntity
  8
_0-0_
 62
     7
100
AcDbText
 10
1651.875
 20
1203.75
 30
0.0
 40
52.5
  1
 90
 41
0.9
  7
MSゴシック
100
AcDbText
  0
TEXT
  5
B9
330
20
100
AcDbEntity
  8
_0-0_
 62
     7
100
AcDbText
 10
1651.875
 20
1128.75
 30
0.0
 40
52.5
  1
 95
 41
0.9
  7
MSゴシック
100
AcDbText
  0
TEXT
  5
BA
330
20
100
AcDbEntity
  8
_0-0_
 62
     7
100
AcDbText
 10
1651.875
 20
1053.75
 30
0.0
 40
52.5
  1
 95
 41
0.9
  7
MSゴシック
100
AcDbText
  0
TEXT
  5
BB
330
20
100
AcDbEntity
  8
_0-0_
 62
     7
100
AcDbText
 10
1651.875
 20
978.7499999999999
 30
0.0
 40
52.5
  1
 95
 41
0.9
  7
MSゴシック
100
AcDbText
  0
TEXT
  5
BC
330
20
100
AcDbEntity
  8
_0-0_
 62
     7
100
AcDbText
 10
1651.875
 20
903.7499999999999
 30
0.0
 40
52.5
  1
110
 41
0.9
  7
MSゴシック
100
AcDbText
  0
TEXT
  5
BD
330
20
100
AcDbEntity
  8
_0-0_
 62
     7
100
AcDbText
 10
1651.875
 20
828.7499999999999
 30
0.0
 40
52.5
  1
110
 41
0.9
  7
MSゴシック
100
AcDbText
  0
TEXT
  5
BE
330
20
100
AcDbEntity
  8
_0-0_
 62
     7
100
AcDbText
 10
1651.875
 20
753.75
 30
0.0
 40
52.5
  1
125
 41
0.9
  7
MSゴシック
100
AcDbText
  0
TEXT
  5
BF
330
20
100
AcDbEntity
  8
_0-0_
 62
     7
100
AcDbText
 10
1651.875
 20
678.75
 30
0.0
 40
52.5
  1
125
 41
0.9
  7
MSゴシック
100
AcDbText
  0
TEXT
  5
C0
330
20
100
AcDbEntity
  8
_0-0_
 62
     7
100
AcDbText
 10
1786.875
 20
1203.75
 30
0.0
 40
52.5
  1
120
 41
0.9
  7
MSゴシック
100
AcDbText
  0
TEXT
  5
C1
330
20
100
AcDbEntity
  8
_0-0_
 62
     7
100
AcDbText
 10
1786.875
 20
1128.75
 30
0.0
 40
52.5
  1
140
 41
0.9
  7
MSゴシック
100
AcDbText
  0
TEXT
  5
C2
330
20
100
AcDbEntity
  8
_0-0_
 62
     7
100
AcDbText
 10
1786.875
 20
1053.75
 30
0.0
 40
52.5
  1
140
 41
0.9
  7
MSゴシック
100
AcDbText
  0
TEXT
  5
C3
330
20
100
AcDbEntity
  8
_0-0_
 62
     7
100
AcDbText
 10
1786.875
 20
978.7499999999999
 30
0.0
 40
52.5
  1
140
 41
0.9
  7
MSゴシック
100
AcDbText
  0
TEXT
  5
C4
330
20
100
AcDbEntity
  8
_0-0_
 62
     7
100
AcDbText
 10
1786.875
 20
903.7499999999999
 30
0.0
 40
52.5
  1
140
 41
0.9
  7
MSゴシック
100
AcDbText
  0
TEXT
  5
C5
330
20
100
AcDbEntity
  8
_0-0_
 62
     7
100
AcDbText
 10
1786.875
 20
828.7499999999999
 30
0.0
 40
52.5
  1
140
 41
0.9
  7
MSゴシック
100
AcDbText
  0
TEXT
  5
C6
330
20
100
AcDbEntity
  8
_0-0_
 62
     7
100
AcDbText
 10
1786.875
 20
753.75
 30
0.0
 40
52.5
  1
155
 41
0.9
  7
MSゴシック
100
AcDbText
  0
TEXT
  5
C7
330
20
100
AcDbEntity
  8
_0-0_
 62
     7
100
AcDbText
 10
1786.875
 20
678.75
 30
0.0
 40
52.5
  1
175
 41
0.9
  7
MSゴシック
100
AcDbText
  0
TEXT
  5
C8
330
20
100
AcDbEntity
  8
_0-0_
 62
     7
100
AcDbText
 10
1936.875
 20
1203.75
 30
0.0
 40
52.5
  1
50
 41
0.9
  7
MSゴシック
100
AcDbText
  0
TEXT
  5
C9
330
20
100
AcDbEntity
  8
_0-0_
 62
     7
100
AcDbText
 10
1936.875
 20
1128.75
 30
0.0
 40
52.5
  1
50
 41
0.9
  7
MSゴシック
100
AcDbText
  0
TEXT
  5
CA
330
20
100
AcDbEntity
  8
_0-0_
 62
     7
100
AcDbText
 10
1936.875
 20
1053.75
 30
0.0
 40
52.5
  1
50
 41
0.9
  7
MSゴシック
100
AcDbText
  0
TEXT
  5
CB
330
20
100
AcDbEntity
  8
_0-0_
 62
     7
100
AcDbText
 10
1936.875
 20
978.7499999999999
 30
0.0
 40
52.5
  1
50
 41
0.9
  7
MSゴシック
100
AcDbText
  0
TEXT
  5
CC
330
20
100
AcDbEntity
  8
_0-0_
 62
     7
100
AcDbText
 10
1936.875
 20
903.7499999999999
 30
0.0
 40
52.5
  1
50
 41
0.9
  7
MSゴシック
100
AcDbText
  0
TEXT
  5
CD
330
20
100
AcDbEntity
  8
_0-0_
 62
     7
100
AcDbText
 10
1936.875
 20
828.7499999999999
 30
0.0
 40
52.5
  1
50
 41
0.9
  7
MSゴシック
100
AcDbText
  0
TEXT
  5
CE
330
20
100
AcDbEntity
  8
_0-0_
 62
     7
100
AcDbText
 10
1936.875
 20
753.75
 30
0.0
 40
52.5
  1
50
 41
0.9
  7
MSゴシック
100
AcDbText
  0
TEXT
  5
CF
330
20
100
AcDbEntity
  8
_0-0_
 62
     7
100
AcDbText
 10
1936.875
 20
678.75
 30
0.0
 40
52.5
  1
50
 41
0.9
  7
MSゴシック
100
AcDbText
  0
TEXT
  5
D0
330
20
100
AcDbEntity
  8
_0-0_
 62
     7
100
AcDbText
 10
2056.875
 20
1203.75
 30
0.0
 40
52.5
  1
351
 41
0.9
  7
MSゴシック
100
AcDbText
  0
TEXT
  5
D1
330
20
100
AcDbEntity
  8
_0-0_
 62
     7
100
AcDbText
 10
2056.875
 20
1128.75
 30
0.0
 40
52.5
  1
351
 41
0.9
  7
MSゴシック
100
AcDbText
  0
TEXT
  5
D2
330
20
100
AcDbEntity
  8
_0-0_
 62
     7
100
AcDbText
 10
2056.875
 20
1053.75
 30
0.0
 40
52.5
  1
351
 41
0.9
  7
MSゴシック
100
AcDbText
  0
TEXT
  5
D3
330
20
100
AcDbEntity
  8
_0-0_
 62
     7
100
AcDbText
 10
2056.875
 20
978.7499999999999
 30
0.0
 40
52.5
  1
351
 41
0.9
  7
MSゴシック
100
AcDbText
  0
TEXT
  5
D4
330
20
100
AcDbEntity
  8
_0-0_
 62
     7
100
AcDbText
 10
2056.875
 20
903.7499999999999
 30
0.0
 40
52.5
  1
351
 41
0.9
  7
MSゴシック
100
AcDbText
  0
TEXT
  5
D5
330
20
100
AcDbEntity
  8
_0-0_
 62
     7
100
AcDbText
 10
2056.875
 20
828.7499999999999
 30
0.0
 40
52.5
  1
351
 41
0.9
  7
MSゴシック
100
AcDbText
  0
TEXT
  5
D6
330
20
100
AcDbEntity
  8
_0-0_
 62
     7
100
AcDbText
 10
2056.875
 20
753.75
 30
0.0
 40
52.5
  1
351
 41
0.9
  7
MSゴシック
100
AcDbText
  0
TEXT
  5
D7
330
20
100
AcDbEntity
  8
_0-0_
 62
     7
100
AcDbText
 10
2056.875
 20
678.75
 30
0.0
 40
52.5
  1
351
 41
0.9
  7
MSゴシック
100
AcDbText
  0
TEXT
  5
D8
330
20
100
AcDbEntity
  8
_0-0_
 62
     7
100
AcDbText
 10
2191.875
 20
1203.75
 30
0.0
 40
52.5
  1
446
 41
0.9
  7
MSゴシック
100
AcDbText
  0
TEXT
  5
D9
330
20
100
AcDbEntity
  8
_0-0_
 62
     7
100
AcDbText
 10
2191.875
 20
1128.75
 30
0.0
 40
52.5
  1
459
 41
0.9
  7
MSゴシック
100
AcDbText
  0
TEXT
  5
DA
330
20
100
AcDbEntity
  8
_0-0_
 62
     7
100
AcDbText
 10
2191.875
 20
1053.75
 30
0.0
 40
52.5
  1
459
 41
0.9
  7
MSゴシック
100
AcDbText
  0
TEXT
  5
DB
330
20
100
AcDbEntity
  8
_0-0_
 62
     7
100
AcDbText
 10
2191.875
 20
978.7499999999999
 30
0.0
 40
52.5
  1
459
 41
0.9
  7
MSゴシック
100
AcDbText
  0
TEXT
  5
DC
330
20
100
AcDbEntity
  8
_0-0_
 62
     7
100
AcDbText
 10
2191.875
 20
903.7499999999999
 30
0.0
 40
52.5
  1
481
 41
0.9
  7
MSゴシック
100
AcDbText
  0
TEXT
  5
DD
330
20
100
AcDbEntity
  8
_0-0_
 62
     7
100
AcDbText
 10
2191.875
 20
828.7499999999999
 30
0.0
 40
52.5
  1
481
 41
0.9
  7
MSゴシック
100
AcDbText
  0
TEXT
  5
DE
330
20
100
AcDbEntity
  8
_0-0_
 62
     7
100
AcDbText
 10
2191.875
 20
753.75
 30
0.0
 40
52.5
  1
506
 41
0.9
  7
MSゴシック
100
AcDbText
  0
TEXT
  5
DF
330
20
100
AcDbEntity
  8
_0-0_
 62
     7
100
AcDbText
 10
2191.875
 20
678.75
 30
0.0
 40
52.5
  1
506
 41
0.9
  7
MSゴシック
100
AcDbText
  0
TEXT
  5
E0
330
20
100
AcDbEntity
  8
_0-0_
 62
     7
100
AcDbText
 10
2326.875
 20
1203.75
 30
0.0
 40
52.5
  1
256
 41
0.9
  7
MSゴシック
100
AcDbText
  0
TEXT
  5
E1
330
20
100
AcDbEntity
  8
_0-0_
 62
     7
100
AcDbText
 10
2326.875
 20
1128.75
 30
0.0
 40
52.5
  1
243
 41
0.9
  7
MSゴシック
100
AcDbText
  0
TEXT
  5
E2
330
20
100
AcDbEntity
  8
_0-0_
 62
     7
100
AcDbText
 10
2326.875
 20
1053.75
 30
0.0
 40
52.5
  1
243
 41
0.9
  7
MSゴシック
100
AcDbText
  0
TEXT
  5
E3
330
20
100
AcDbEntity
  8
_0-0_
 62
     7
100
AcDbText
 10
2326.875
 20
978.7499999999999
 30
0.0
 40
52.5
  1
243
 41
0.9
  7
MSゴシック
100
AcDbText
  0
TEXT
  5
E4
330
20
100
AcDbEntity
  8
_0-0_
 62
     7
100
AcDbText
 10
2326.875
 20
903.7499999999999
 30
0.0
 40
52.5
  1
221
 41
0.9
  7
MSゴシック
100
AcDbText
  0
TEXT
  5
E5
330
20
100
AcDbEntity
  8
_0-0_
 62
     7
100
AcDbText
 10
2326.875
 20
828.7499999999999
 30
0.0
 40
52.5
  1
221
 41
0.9
  7
MSゴシック
100
AcDbText
  0
TEXT
  5
E6
330
20
100
AcDbEntity
  8
_0-0_
 62
     7
100
AcDbText
 10
2326.875
 20
753.75
 30
0.0
 40
52.5
  1
196
 41
0.9
  7
MSゴシック
100
AcDbText
  0
TEXT
  5
E7
330
20
100
AcDbEntity
  8
_0-0_
 62
     7
100
AcDbText
 10
2326.875
 20
678.75
 30
0.0
 40
52.5
  1
196
 41
0.9
  7
MSゴシック
100
AcDbText
  0
TEXT
  5
E8
330
20
100
AcDbEntity
  8
_0-0_
 62
     7
100
AcDbText
 10
2821.875
 20
678.75
 30
0.0
 40
52.5
  1
292
 41
0.8
  7
MSゴシック
100
AcDbText
  0
TEXT
  5
E9
330
20
100
AcDbEntity
  8
_0-0_
 62
     7
100
AcDbText
 10
2821.875
 20
1203.75
 30
0.0
 40
52.5
  1
107
 41
0.8
  7
MSゴシック
100
AcDbText
  0
TEXT
  5
EA
330
20
100
AcDbEntity
  8
_0-0_
 62
     7
100
AcDbText
 10
2821.875
 20
1128.75
 30
0.0
 40
52.5
  1
136
 41
0.8
  7
MSゴシック
100
AcDbText
  0
TEXT
  5
EB
330
20
100
AcDbEntity
  8
_0-0_
 62
     7
100
AcDbText
 10
2821.875
 20
1053.75
 30
0.0
 40
52.5
  1
158
 41
0.8
  7
MSゴシック
100
AcDbText
  0
TEXT
  5
EC
330
20
100
AcDbEntity
  8
_0-0_
 62
     7
100
AcDbText
 10
2821.875
 20
978.7499999999999
 30
0.0
 40
52.5
  1
194
 41
0.8
  7
MSゴシック
100
AcDbText
  0
TEXT
  5
ED
330
20
100
AcDbEntity
  8
_0-0_
 62
     7
100
AcDbText
 10
2821.875
 20
903.7499999999999
 30
0.0
 40
52.5
  1
176
 41
0.8
  7
MSゴシック
100
AcDbText
  0
TEXT
  5
EE
330
20
100
AcDbEntity
  8
_0-0_
 62
     7
100
AcDbText
 10
2821.875
 20
828.7499999999999
 30
0.0
 40
52.5
  1
213
 41
0.8
  7
MSゴシック
100
AcDbText
  0
TEXT
  5
EF
330
20
100
AcDbEntity
  8
_0-0_
 62
     7
100
AcDbText
 10
2821.875
 20
753.75
 30
0.0
 40
52.5
  1
239
 41
0.8
  7
MSゴシック
100
AcDbText
  0
TEXT
  5
11E
330
20
100
AcDbEntity
  8
_0-0_
 62
     7
100
AcDbText
 10
2437.65198752212
 20
1203.75
 30
0.0
 40
52.5
  1
φ5.0- 8
 41
0.6
  7
MSゴシック
100
AcDbText
  0
TEXT
  5
15F
330
20
100
AcDbEntity
  8
_0-0_
 62
     7
100
AcDbText
 10
373.8750000000002
 20
678.75
 30
0.0
 40
52.5
  1
500B
 41
0.9
  7
MSゴシック
100
AcDbText
  0
TEXT
  5
160
330
20
100
AcDbEntity
  8
_0-0_
 62
     7
100
AcDbText
 10
373.8750000000002
 20
753.75
 30
0.0
 40
52.5
  1
500A
 41
0.9
  7
MSゴシック
100
AcDbText
  0
TEXT
  5
161
330
20
100
AcDbEntity
  8
_0-0_
 62
     7
100
AcDbText
 10
373.8750000000002
 20
903.7499999999999
 30
0.0
 40
52.5
  1
400A
 41
0.9
  7
MSゴシック
100
AcDbText
  0
TEXT
  5
162
330
20
100
AcDbEntity
  8
_0-0_
 62
     7
100
AcDbText
 10
373.8750000000002
 20
828.7499999999999
 30
0.0
 40
52.5
  1
400B
 41
0.9
  7
MSゴシック
100
AcDbText
  0
TEXT
  5
163
330
20
100
AcDbEntity
  8
_0-0_
 62
     7
100
AcDbText
 10
373.8750000000002
 20
1128.75
 30
0.0
 40
52.5
  1
300A
 41
0.9
  7
MSゴシック
100
AcDbText
  0
TEXT
  5
164
330
20
100
AcDbEntity
  8
_0-0_
 62
     7
100
AcDbText
 10
373.8750000000002
 20
1053.75
 30
0.0
 40
52.5
  1
300B
 41
0.9
  7
MSゴシック
100
AcDbText
  0
TEXT
  5
165
330
20
100
AcDbEntity
  8
_0-0_
 62
     7
100
AcDbText
 10
373.8750000000002
 20
978.7499999999999
 30
0.0
 40
52.5
  1
300C
 41
0.9
  7
MSゴシック
100
AcDbText
  0
TEXT
  5
166
330
20
100
AcDbEntity
  8
_0-0_
 62
     7
100
AcDbText
 10
373.8750000000002
 20
1203.75
 30
0.0
 40
52.5
  1
250 
 41
0.9
  7
MSゴシック
100
AcDbText
  0
TEXT
  5
167
330
20
100
AcDbEntity
  8
_0-0_
 62
     7
100
AcDbText
 10
588.75
 20
1285.25
 30
0.0
 40
52.5
  1
ａ
 41
0.9
  7
MSゴシック
100
AcDbText
  0
TEXT
  5
168
330
20
100
AcDbEntity
  8
_0-0_
 62
     7
100
AcDbText
 10
723.7499999999999
 20
1285.25
 30
0.0
 40
52.5
  1
ｂ
 41
0.9
  7
MSゴシック
100
AcDbText
  0
TEXT
  5
169
330
20
100
AcDbEntity
  8
_0-0_
 62
     7
100
AcDbText
 10
858.75
 20
1285.25
 30
0.0
 40
52.5
  1
ｃ
 41
0.9
  7
MSゴシック
100
AcDbText
  0
TEXT
  5
16A
330
20
100
AcDbEntity
  8
_0-0_
 62
     7
100
AcDbText
 10
993.75
 20
1285.25
 30
0.0
 40
52.5
  1
ｄ
 41
0.9
  7
MSゴシック
100
AcDbText
  0
TEXT
  5
16B
330
20
100
AcDbEntity
  8
_0-0_
 62
     7
100
AcDbText
 10
1263.75
 20
1285.25
 30
0.0
 40
52.5
  1
ｅ
 41
0.9
  7
MSゴシック
100
AcDbText
  0
TEXT
  5
16C
330
20
100
AcDbEntity
  8
_0-0_
 62
     7
100
AcDbText
 10
1398.75
 20
1285.25
 30
0.0
 40
52.5
  1
ｆ
 41
0.9
  7
MSゴシック
100
AcDbText
  0
TEXT
  5
16D
330
20
100
AcDbEntity
  8
_0-0_
 62
     7
100
AcDbText
 10
1668.75
 20
1285.25
 30
0.0
 40
52.5
  1
ｔ
 41
0.9
  7
MSゴシック
100
AcDbText
  0
TEXT
  5
16E
330
20
100
AcDbEntity
  8
_0-0_
 62
     7
100
AcDbText
 10
1938.75
 20
1285.25
 30
0.0
 40
52.5
  1
ｒ
 41
0.9
  7
MSゴシック
100
AcDbText
  0
TEXT
  5
16F
330
20
100
AcDbEntity
  8
_0-0_
 62
     7
100
AcDbText
 10
1533.75
 20
1285.25
 30
0.0
 40
52.5
  1
ｈ
 41
0.9
  7
MSゴシック
100
AcDbText
  0
TEXT
  5
170
330
20
100
AcDbEntity
  8
_0-0_
 62
     7
100
AcDbText
 10
2073.75
 20
1285.25
 30
0.0
 40
52.5
  1
Ｌ
 41
0.9
  7
MSゴシック
100
AcDbText
  0
TEXT
  5
171
330
20
100
AcDbEntity
  8
_0-0_
 62
     7
100
AcDbText
 10
2452.500000000001
 20
1364.5
 30
0.0
 40
45.0
  1
配筋(径－数量)
 41
0.8
  7
MSゴシック
100
AcDbText
  0
TEXT
  5
172
330
20
100
AcDbEntity
  8
_0-0_
 62
     7
100
AcDbText
 10
353.2500000000002
 20
1322.75
 30
0.0
 40
52.5
  1
呼び名
 41
0.8
  7
MSゴシック
100
AcDbText
  0
TEXT
  5
173
330
20
100
AcDbEntity
  8
_0-0_
 62
     7
100
AcDbText
 10
1076.25
 20
1360.75
 30
0.0
 40
52.5
  1
寸　　　　　　　　　　　　法
 41
0.9
  7
MSゴシック
100
AcDbText
  0
TEXT
  5
174
330
20
100
AcDbEntity
  8
_0-0_
 62
     7
100
AcDbText
 10
2223.75
 20
1360.75
 30
0.0
 40
52.5
  1
(ｍｍ)
 41
0.8
  7
MSゴシック
100
AcDbText
  0
TEXT
  5
175
330
20
100
AcDbEntity
  8
_0-0_
 62
     7
100
AcDbText
 10
2501.25
 20
1289.0
 30
0.0
 40
45.0
  1
①
  7
MSゴシック
100
AcDbText
  0
TEXT
  5
176
330
20
100
AcDbEntity
  8
_0-0_
 62
     7
100
AcDbText
 10
2673.75
 20
1289.0
 30
0.0
 40
45.0
  1
②
  7
MSゴシック
100
AcDbText
  0
TEXT
  5
17E
330
20
100
AcDbEntity
  8
_0-0_
 62
     7
100
AcDbText
 10
2290.668566561845
 20
2630.411098008386
 30
0.0
 40
60.0
  1
ａ
 41
0.8
  7
MSゴシック
100
AcDbText
  0
TEXT
  5
17F
330
20
100
AcDbEntity
  8
_0-0_
 62
     7
100
AcDbText
 10
2461.214906001896
 20
2634.161098008386
 30
0.0
 40
52.5
  1
ｄ'
 41
0.8
  7
MSゴシック
100
AcDbText
  0
LINE
  5
180
330
20
100
AcDbEntity
  8
_0-0_
  6
Continuous
 62
     4
100
AcDbLine
 10
2053.62195147476
 20
2017.911098008386
 30
0.0
 11
2049.714867477255
 21
2040.069272451161
 31
0.0
  0
LINE
  5
181
330
20
100
AcDbEntity
  8
_0-0_
  6
Continuous
 62
     4
100
AcDbLine
 10
2053.62195147476
 20
2017.911098008386
 30
0.0
 11
2061.317404699589
 21
2039.054181976069
 31
0.0
  0
LINE
  5
182
330
20
100
AcDbEntity
  8
_0-0_
  6
Continuous
 62
     4
100
AcDbLine
 10
2060.668566561845
 20
2642.911098008386
 30
0.0
 11
2060.668566561845
 21
2497.911098008386
 31
0.0
  0
LINE
  5
183
330
20
100
AcDbEntity
  8
_0-0_
  6
Continuous
 62
     4
100
AcDbLine
 10
2110.668566561844
 20
2642.911098008386
 30
0.0
 11
2110.668566561844
 21
2497.911098008386
 31
0.0
  0
LINE
  5
184
330
20
100
AcDbEntity
  8
_0-0_
  6
Continuous
 62
     4
100
AcDbLine
 10
2530.668566561845
 20
2642.911098008386
 30
0.0
 11
2530.668566561845
 21
2497.911098008386
 31
0.0
  0
LINE
  5
185
330
20
100
AcDbEntity
  8
_0-0_
  6
Continuous
 62
     4
100
AcDbLine
 10
2580.668566561846
 20
2642.911098008386
 30
0.0
 11
2580.668566561846
 21
2497.911098008386
 31
0.0
  0
LINE
  5
186
330
20
100
AcDbEntity
  8
_0-0_
  6
Continuous
 62
     5
100
AcDbLine
 10
2060.668566561845
 20
2482.911098008386
 30
0.0
 11
2060.668566561845
 21
2342.911098008386
 31
0.0
  0
LINE
  5
187
330
20
100
AcDbEntity
  8
_0-0_
  6
Continuous
 62
     5
100
AcDbLine
 10
2060.668566561845
 20
2482.911098008386
 30
0.0
 11
2110.668566561844
 21
2482.911098008386
 31
0.0
  0
LINE
  5
188
330
20
100
AcDbEntity
  8
_0-0_
  6
Continuous
 62
     5
100
AcDbLine
 10
2110.668566561844
 20
2482.911098008386
 30
0.0
 11
2115.668566561845
 21
2387.911098008386
 31
0.0
  0
LINE
  5
189
330
20
100
AcDbEntity
  8
_0-0_
  6
Continuous
 62
     5
100
AcDbLine
 10
2140.668566561845
 20
2017.911098008386
 30
0.0
 11
2500.668566561845
 21
2017.911098008386
 31
0.0
  0
LINE
  5
18A
330
20
100
AcDbEntity
  8
_0-0_
  6
Continuous
 62
     5
100
AcDbLine
 10
2500.668566561845
 20
2017.911098008386
 30
0.0
 11
2530.668566561845
 21
2047.911098008386
 31
0.0
  0
LINE
  5
18B
330
20
100
AcDbEntity
  8
_0-0_
  6
Continuous
 62
     5
100
AcDbLine
 10
2140.668566561845
 20
2017.911098008386
 30
0.0
 11
2110.668566561844
 21
2047.911098008386
 31
0.0
  0
LINE
  5
18C
330
20
100
AcDbEntity
  8
_0-0_
  6
Continuous
 62
     5
100
AcDbLine
 10
2060.668566561845
 20
2342.911098008386
 30
0.0
 11
2110.668566561844
 21
2256.308557629943
 31
0.0
  0
LINE
  5
18D
330
20
100
AcDbEntity
  8
_0-0_
  6
Continuous
 62
     5
100
AcDbLine
 10
2110.668566561844
 20
2047.911098008386
 30
0.0
 11
2110.668566561844
 21
2256.308557629943
 31
0.0
  0
LINE
  5
18E
330
20
100
AcDbEntity
  8
_0-0_
  6
Continuous
 62
     5
100
AcDbLine
 10
2580.668566561846
 20
2482.911098008386
 30
0.0
 11
2580.668566561846
 21
2342.911098008386
 31
0.0
  0
LINE
  5
18F
330
20
100
AcDbEntity
  8
_0-0_
  6
Continuous
 62
     5
100
AcDbLine
 10
2580.668566561846
 20
2482.911098008386
 30
0.0
 11
2530.668566561845
 21
2482.911098008386
 31
0.0
  0
LINE
  5
190
330
20
100
AcDbEntity
  8
_0-0_
  6
Continuous
 62
     5
100
AcDbLine
 10
2530.668566561845
 20
2482.911098008386
 30
0.0
 11
2525.668566561845
 21
2387.911098008386
 31
0.0
  0
LINE
  5
191
330
20
100
AcDbEntity
  8
_0-0_
  6
Continuous
 62
     5
100
AcDbLine
 10
2525.668566561845
 20
2387.911098008386
 30
0.0
 11
2470.668566561845
 21
2387.911098008386
 31
0.0
  0
LINE
  5
192
330
20
100
AcDbEntity
  8
_0-0_
  6
Continuous
 62
     5
100
AcDbLine
 10
2500.668566561845
 20
2017.911098008386
 30
0.0
 11
2530.668566561845
 21
2047.911098008386
 31
0.0
  0
LINE
  5
193
330
20
100
AcDbEntity
  8
_0-0_
  6
Continuous
 62
     5
100
AcDbLine
 10
2580.668566561846
 20
2342.911098008386
 30
0.0
 11
2530.668566561845
 21
2256.308557629943
 31
0.0
  0
LINE
  5
194
330
20
100
AcDbEntity
  8
_0-0_
  6
Continuous
 62
     5
100
AcDbLine
 10
2530.668566561845
 20
2047.911098008386
 30
0.0
 11
2530.668566561845
 21
2256.308557629943
 31
0.0
  0
LINE
  5
195
330
20
100
AcDbEntity
  8
_0-0_
  6
Continuous
 62
     5
100
AcDbLine
 10
2115.668566561845
 20
2387.911098008386
 30
0.0
 11
2170.668566561845
 21
2387.911098008386
 31
0.0
  0
LINE
  5
196
330
20
100
AcDbEntity
  8
_0-0_
  6
Continuous
 62
     5
100
AcDbLine
 10
2179.057424612233
 20
2136.245356496754
 30
0.0
 11
2170.668566561845
 21
2387.911098008386
 31
0.0
  0
ARC
  5
197
330
20
100
AcDbEntity
  8
_0-0_
  6
Continuous
 62
     5
100
AcDbCircle
 10
2229.029669961191
 20
2137.911098008386
 30
0.0
 40
50.0
100
AcDbArc
 50
181.9091524329964
 51
270.0
  0
LINE
  5
198
330
20
100
AcDbEntity
  8
_0-0_
  6
Continuous
 62
     5
100
AcDbLine
 10
2412.307463162499
 20
2087.911098008385
 30
0.0
 11
2229.02966996119
 21
2087.911098008385
 31
0.0
  0
LINE
  5
199
330
20
100
AcDbEntity
  8
_0-0_
  6
Continuous
 62
     5
100
AcDbLine
 10
2462.279708511457
 20
2136.245356496754
 30
0.0
 11
2470.668566561845
 21
2387.911098008386
 31
0.0
  0
ARC
  5
19A
330
20
100
AcDbEntity
  8
_0-0_
  6
Continuous
 62
     5
100
AcDbCircle
 10
2412.307463162499
 20
2137.911098008386
 30
0.0
 40
50.0
100
AcDbArc
 50
270.0
 51
358.0908475670036
  0
LINE
  5
19B
330
20
100
AcDbEntity
  8
_0-0_
  6
Continuous
 62
     5
100
AcDbLine
 10
2164.065751007545
 20
2135.745634043265
 30
0.0
 11
2155.676892957158
 21
2387.411375554897
 31
0.0
  0
ARC
  5
19C
330
20
100
AcDbEntity
  8
_0-0_
  6
Continuous
 62
     5
100
AcDbCircle
 10
2229.029669961191
 20
2137.911098008386
 30
0.0
 40
65.00000000000001
100
AcDbArc
 50
181.9091524329964
 51
270.0
  0
LINE
  5
19D
330
20
100
AcDbEntity
  8
_0-0_
  6
Continuous
 62
     4
100
AcDbLine
 10
2110.668566561844
 20
1902.911098008386
 30
0.0
 11
2088.935235470341
 21
1897.087669493579
 31
0.0
  0
LINE
  5
19E
330
20
100
AcDbEntity
  8
_0-0_
  6
Continuous
 62
     4
100
AcDbLine
 10
2110.668566561844
 20
1902.911098008386
 30
0.0
 11
2088.935235470341
 21
1908.734526523192
 31
0.0
  0
LINE
  5
19F
330
20
100
AcDbEntity
  8
_0-0_
  6
Continuous
 62
     4
100
AcDbLine
 10
2140.668566561845
 20
1902.911098008386
 30
0.0
 11
2162.401897653349
 21
1908.734526523192
 31
0.0
  0
LINE
  5
1A0
330
20
100
AcDbEntity
  8
_0-0_
  6
Continuous
 62
     4
100
AcDbLine
 10
2140.668566561845
 20
1902.911098008386
 30
0.0
 11
2162.401897653349
 21
1897.087669493579
 31
0.0
  0
LINE
  5
1A1
330
20
100
AcDbEntity
  8
_0-0_
  6
Continuous
 62
     4
100
AcDbLine
 10
2110.668566561844
 20
1822.911098008385
 30
0.0
 11
2132.401897653348
 21
1828.734526523192
 31
0.0
  0
LINE
  5
1A2
330
20
100
AcDbEntity
  8
_0-0_
  6
Continuous
 62
     4
100
AcDbLine
 10
2110.668566561844
 20
1822.911098008385
 30
0.0
 11
2132.401897653348
 21
1817.087669493579
 31
0.0
  0
LINE
  5
1A3
330
20
100
AcDbEntity
  8
_0-0_
  6
Continuous
 62
     4
100
AcDbLine
 10
2530.668566561845
 20
1822.911098008385
 30
0.0
 11
2508.935235470341
 21
1817.087669493579
 31
0.0
  0
LINE
  5
1A4
330
20
100
AcDbEntity
  8
_0-0_
  6
Continuous
 62
     4
100
AcDbLine
 10
2530.668566561845
 20
1822.911098008385
 30
0.0
 11
2508.935235470341
 21
1828.734526523192
 31
0.0
  0
LINE
  5
1A5
330
20
100
AcDbEntity
  8
_0-0_
  6
Continuous
 62
     4
100
AcDbLine
 10
2110.668566561844
 20
1822.911098008385
 30
0.0
 11
2180.668566561845
 21
1822.911098008385
 31
0.0
  0
LINE
  5
1A6
330
20
100
AcDbEntity
  8
_0-0_
  6
Continuous
 62
     4
100
AcDbLine
 10
2460.668566561845
 20
1822.911098008385
 30
0.0
 11
2530.668566561845
 21
1822.911098008385
 31
0.0
  0
LINE
  5
1A7
330
20
100
AcDbEntity
  8
_0-0_
  6
Continuous
 62
     4
100
AcDbLine
 10
2180.668566561845
 20
1822.911098008385
 30
0.0
 11
2158.935235470341
 21
1817.087669493579
 31
0.0
  0
LINE
  5
1A8
330
20
100
AcDbEntity
  8
_0-0_
  6
Continuous
 62
     4
100
AcDbLine
 10
2180.668566561845
 20
1822.911098008385
 30
0.0
 11
2158.935235470341
 21
1828.734526523192
 31
0.0
  0
LINE
  5
1A9
330
20
100
AcDbEntity
  8
_0-0_
  6
Continuous
 62
     4
100
AcDbLine
 10
2460.668566561845
 20
1822.911098008385
 30
0.0
 11
2482.401897653349
 21
1828.734526523192
 31
0.0
  0
LINE
  5
1AA
330
20
100
AcDbEntity
  8
_0-0_
  6
Continuous
 62
     4
100
AcDbLine
 10
2460.668566561845
 20
1822.911098008385
 30
0.0
 11
2482.401897653349
 21
1817.087669493579
 31
0.0
  0
LINE
  5
1AB
330
20
100
AcDbEntity
  8
_0-0_
  6
Continuous
 62
     4
100
AcDbLine
 10
2460.668566561845
 20
1822.911098008385
 30
0.0
 11
2180.668566561845
 21
1822.911098008385
 31
0.0
  0
LINE
  5
1AC
330
20
100
AcDbEntity
  8
_0-0_
  6
Continuous
 62
     4
100
AcDbLine
 10
2460.668566561845
 20
1822.911098008385
 30
0.0
 11
2438.935235470341
 21
1817.087669493579
 31
0.0
  0
LINE
  5
1AD
330
20
100
AcDbEntity
  8
_0-0_
  6
Continuous
 62
     4
100
AcDbLine
 10
2460.668566561845
 20
1822.911098008385
 30
0.0
 11
2438.935235470341
 21
1828.734526523192
 31
0.0
  0
LINE
  5
1AE
330
20
100
AcDbEntity
  8
_0-0_
  6
Continuous
 62
     4
100
AcDbLine
 10
2180.668566561845
 20
1822.911098008385
 30
0.0
 11
2202.401897653349
 21
1828.734526523192
 31
0.0
  0
LINE
  5
1AF
330
20
100
AcDbEntity
  8
_0-0_
  6
Continuous
 62
     4
100
AcDbLine
 10
2180.668566561845
 20
1822.911098008385
 30
0.0
 11
2202.401897653349
 21
1817.087669493579
 31
0.0
  0
LINE
  5
1B0
330
20
100
AcDbEntity
  8
_0-0_
  6
Continuous
 62
     4
100
AcDbLine
 10
2140.668566561845
 20
2002.911098008386
 30
0.0
 11
2140.668566561845
 21
1887.911098008386
 31
0.0
  0
LINE
  5
1B1
330
20
100
AcDbEntity
  8
_0-0_
  6
Continuous
 62
     4
100
AcDbLine
 10
2305.668566561845
 20
2482.911098008386
 30
0.0
 11
2125.668566561845
 21
2482.911098008386
 31
0.0
  0
LINE
  5
1B2
330
20
100
AcDbEntity
  8
_0-0_
  6
Continuous
 62
     4
100
AcDbLine
 10
2185.668566561845
 20
2387.911098008386
 30
0.0
 11
2305.668566561845
 21
2387.911098008386
 31
0.0
  0
LINE
  5
1B3
330
20
100
AcDbEntity
  8
_0-0_
  6
Continuous
 62
     4
100
AcDbLine
 10
2290.668566561845
 20
2387.911098008386
 30
0.0
 11
2290.668566561845
 21
2482.911098008386
 31
0.0
  0
LINE
  5
1B4
330
20
100
AcDbEntity
  8
_0-0_
  6
Continuous
 62
     4
100
AcDbLine
 10
2290.668566561845
 20
2482.911098008386
 30
0.0
 11
2296.491995076651
 21
2461.177766916881
 31
0.0
  0
LINE
  5
1B5
330
20
100
AcDbEntity
  8
_0-0_
  6
Continuous
 62
     4
100
AcDbLine
 10
2290.668566561845
 20
2482.911098008386
 30
0.0
 11
2284.845138047038
 21
2461.177766916881
 31
0.0
  0
LINE
  5
1B6
330
20
100
AcDbEntity
  8
_0-0_
  6
Continuous
 62
     4
100
AcDbLine
 10
2290.668566561845
 20
2387.911098008386
 30
0.0
 11
2284.845138047038
 21
2409.64442909989
 31
0.0
  0
LINE
  5
1B7
330
20
100
AcDbEntity
  8
_0-0_
  6
Continuous
 62
     4
100
AcDbLine
 10
2290.668566561845
 20
2387.911098008386
 30
0.0
 11
2296.491995076651
 21
2409.64442909989
 31
0.0
  0
LINE
  5
1B8
330
20
100
AcDbEntity
  8
_0-0_
  6
Continuous
 62
     4
100
AcDbLine
 10
2290.668566561845
 20
2387.911098008386
 30
0.0
 11
2296.491995076651
 21
2366.177766916881
 31
0.0
  0
LINE
  5
1B9
330
20
100
AcDbEntity
  8
_0-0_
  6
Continuous
 62
     4
100
AcDbLine
 10
2290.668566561845
 20
2387.911098008386
 30
0.0
 11
2284.845138047038
 21
2366.177766916881
 31
0.0
  0
LINE
  5
1BA
330
20
100
AcDbEntity
  8
_0-0_
  6
Continuous
 62
     4
100
AcDbLine
 10
2290.668566561845
 20
2387.911098008386
 30
0.0
 11
2290.668566561845
 21
2087.911098008385
 31
0.0
  0
LINE
  5
1BB
330
20
100
AcDbEntity
  8
_0-0_
  6
Continuous
 62
     4
100
AcDbLine
 10
2290.668566561845
 20
2087.911098008385
 30
0.0
 11
2284.845138047038
 21
2109.64442909989
 31
0.0
  0
LINE
  5
1BC
330
20
100
AcDbEntity
  8
_0-0_
  6
Continuous
 62
     4
100
AcDbLine
 10
2290.668566561845
 20
2087.911098008385
 30
0.0
 11
2296.491995076651
 21
2109.64442909989
 31
0.0
  0
LINE
  5
1BD
330
20
100
AcDbEntity
  8
_0-0_
  6
Continuous
 62
     4
100
AcDbLine
 10
2290.668566561845
 20
2017.911098008386
 30
0.0
 11
2296.491995076651
 21
1996.177766916881
 31
0.0
  0
LINE
  5
1BE
330
20
100
AcDbEntity
  8
_0-0_
  6
Continuous
 62
     4
100
AcDbLine
 10
2290.668566561845
 20
2017.911098008386
 30
0.0
 11
2284.845138047038
 21
1996.177766916881
 31
0.0
  0
ARC
  5
1BF
330
20
100
AcDbEntity
  8
_0-0_
  6
Continuous
 62
     4
100
AcDbCircle
 10
2140.668566561845
 20
2017.911098008386
 30
0.0
 40
87.04661508708381
100
AcDbArc
 50
134.9999999999999
 51
180.0
  0
LINE
  5
1C0
330
20
100
AcDbEntity
  8
_0-0_
  6
Continuous
 62
     4
100
AcDbLine
 10
2140.668566561845
 20
2017.911098008386
 30
0.0
 11
2068.510713036634
 21
2090.068951533597
 31
0.0
  0
LINE
  5
1C1
330
20
100
AcDbEntity
  8
_0-0_
  6
Continuous
 62
     4
100
AcDbLine
 10
2140.668566561845
 20
2017.911098008386
 30
0.0
 11
2038.621951474761
 21
2017.911098008386
 31
0.0
  0
LINE
  5
1C2
330
20
100
AcDbEntity
  8
_0-0_
  6
Continuous
 62
     4
100
AcDbLine
 10
2079.117314754432
 20
2079.462349815798
 30
0.0
 11
2069.608403865267
 21
2059.070424607473
 31
0.0
  0
LINE
  5
1C3
330
20
100
AcDbEntity
  8
_0-0_
  6
Continuous
 62
     4
100
AcDbLine
 10
2079.117314754432
 20
2079.462349815798
 30
0.0
 11
2060.68639375793
 21
2066.5568799979
 31
0.0
  0
LINE
  5
1C4
330
20
100
AcDbEntity
  8
_0-0_
  6
Continuous
 62
     4
100
AcDbLine
 10
2079.117314754432
 20
2079.462349815798
 30
0.0
 11
2069.608403865267
 21
2059.070424607473
 31
0.0
  0
LINE
  5
1C5
330
20
100
AcDbEntity
  8
_0-0_
  6
Continuous
 62
     4
100
AcDbLine
 10
2079.117314754432
 20
2079.462349815798
 30
0.0
 11
2060.68639375793
 21
2066.5568799979
 31
0.0
  0
LINE
  5
1C6
330
20
100
AcDbEntity
  8
_0-0_
  6
Continuous
 62
     4
100
AcDbLine
 10
2530.668566561845
 20
2627.911098008386
 30
0.0
 11
2580.668566561846
 21
2627.911098008386
 31
0.0
  0
LINE
  5
1C7
330
20
100
AcDbEntity
  8
_0-0_
  6
Continuous
 62
     4
100
AcDbLine
 10
2060.668566561845
 20
2627.911098008386
 30
0.0
 11
2110.668566561844
 21
2627.911098008386
 31
0.0
  0
LINE
  5
1C8
330
20
100
AcDbEntity
  8
_0-0_
  6
Continuous
 62
     4
100
AcDbLine
 10
2060.668566561845
 20
2627.911098008386
 30
0.0
 11
2082.401897653348
 21
2633.734526523193
 31
0.0
  0
LINE
  5
1C9
330
20
100
AcDbEntity
  8
_0-0_
  6
Continuous
 62
     4
100
AcDbLine
 10
2060.668566561845
 20
2627.911098008386
 30
0.0
 11
2082.401897653348
 21
2622.087669493579
 31
0.0
  0
LINE
  5
1CA
330
20
100
AcDbEntity
  8
_0-0_
  6
Continuous
 62
     4
100
AcDbLine
 10
2110.668566561844
 20
2627.911098008386
 30
0.0
 11
2088.935235470341
 21
2622.087669493579
 31
0.0
  0
LINE
  5
1CB
330
20
100
AcDbEntity
  8
_0-0_
  6
Continuous
 62
     4
100
AcDbLine
 10
2110.668566561844
 20
2627.911098008386
 30
0.0
 11
2088.935235470341
 21
2633.734526523193
 31
0.0
  0
LINE
  5
1CC
330
20
100
AcDbEntity
  8
_0-0_
  6
Continuous
 62
     4
100
AcDbLine
 10
2115.668566561845
 20
2627.911098008386
 30
0.0
 11
2137.401897653349
 21
2633.734526523193
 31
0.0
  0
LINE
  5
1CD
330
20
100
AcDbEntity
  8
_0-0_
  6
Continuous
 62
     4
100
AcDbLine
 10
2115.668566561845
 20
2627.911098008386
 30
0.0
 11
2137.401897653349
 21
2622.087669493579
 31
0.0
  0
LINE
  5
1CE
330
20
100
AcDbEntity
  8
_0-0_
  6
Continuous
 62
     4
100
AcDbLine
 10
2115.668566561845
 20
2627.911098008386
 30
0.0
 11
2137.401897653349
 21
2633.734526523193
 31
0.0
  0
LINE
  5
1CF
330
20
100
AcDbEntity
  8
_0-0_
  6
Continuous
 62
     4
100
AcDbLine
 10
2115.668566561845
 20
2627.911098008386
 30
0.0
 11
2137.401897653349
 21
2622.087669493579
 31
0.0
  0
LINE
  5
1D0
330
20
100
AcDbEntity
  8
_0-0_
  6
Continuous
 62
     4
100
AcDbLine
 10
2115.668566561845
 20
2627.911098008386
 30
0.0
 11
2170.668566561845
 21
2627.911098008386
 31
0.0
  0
LINE
  5
1D1
330
20
100
AcDbEntity
  8
_0-0_
  6
Continuous
 62
     4
100
AcDbLine
 10
2470.668566561845
 20
2627.911098008386
 30
0.0
 11
2525.668566561845
 21
2627.911098008386
 31
0.0
  0
LINE
  5
1D2
330
20
100
AcDbEntity
  8
_0-0_
  6
Continuous
 62
     4
100
AcDbLine
 10
2170.668566561845
 20
2627.911098008386
 30
0.0
 11
2470.668566561845
 21
2627.911098008386
 31
0.0
  0
LINE
  5
1D3
330
20
100
AcDbEntity
  8
_0-0_
  6
Continuous
 62
     4
100
AcDbLine
 10
2170.668566561845
 20
2627.911098008386
 30
0.0
 11
2148.935235470341
 21
2622.087669493579
 31
0.0
  0
LINE
  5
1D4
330
20
100
AcDbEntity
  8
_0-0_
  6
Continuous
 62
     4
100
AcDbLine
 10
2170.668566561845
 20
2627.911098008386
 30
0.0
 11
2148.935235470341
 21
2633.734526523193
 31
0.0
  0
LINE
  5
1D5
330
20
100
AcDbEntity
  8
_0-0_
  6
Continuous
 62
     4
100
AcDbLine
 10
2170.668566561845
 20
2627.911098008386
 30
0.0
 11
2192.401897653349
 21
2633.734526523193
 31
0.0
  0
LINE
  5
1D6
330
20
100
AcDbEntity
  8
_0-0_
  6
Continuous
 62
     4
100
AcDbLine
 10
2170.668566561845
 20
2627.911098008386
 30
0.0
 11
2192.401897653349
 21
2622.087669493579
 31
0.0
  0
LINE
  5
1D7
330
20
100
AcDbEntity
  8
_0-0_
  6
Continuous
 62
     4
100
AcDbLine
 10
2470.668566561845
 20
2627.911098008386
 30
0.0
 11
2448.935235470341
 21
2622.087669493579
 31
0.0
  0
LINE
  5
1D8
330
20
100
AcDbEntity
  8
_0-0_
  6
Continuous
 62
     4
100
AcDbLine
 10
2470.668566561845
 20
2627.911098008386
 30
0.0
 11
2448.935235470341
 21
2633.734526523193
 31
0.0
  0
LINE
  5
1D9
330
20
100
AcDbEntity
  8
_0-0_
  6
Continuous
 62
     4
100
AcDbLine
 10
2470.668566561845
 20
2627.911098008386
 30
0.0
 11
2492.401897653349
 21
2633.734526523193
 31
0.0
  0
LINE
  5
1DA
330
20
100
AcDbEntity
  8
_0-0_
  6
Continuous
 62
     4
100
AcDbLine
 10
2470.668566561845
 20
2627.911098008386
 30
0.0
 11
2492.401897653349
 21
2622.087669493579
 31
0.0
  0
LINE
  5
1DB
330
20
100
AcDbEntity
  8
_0-0_
  6
Continuous
 62
     4
100
AcDbLine
 10
2525.668566561845
 20
2627.911098008386
 30
0.0
 11
2503.935235470341
 21
2622.087669493579
 31
0.0
  0
LINE
  5
1DC
330
20
100
AcDbEntity
  8
_0-0_
  6
Continuous
 62
     4
100
AcDbLine
 10
2525.668566561845
 20
2627.911098008386
 30
0.0
 11
2503.935235470341
 21
2633.734526523193
 31
0.0
  0
LINE
  5
1DD
330
20
100
AcDbEntity
  8
_0-0_
  6
Continuous
 62
     4
100
AcDbLine
 10
2530.668566561845
 20
2627.911098008386
 30
0.0
 11
2552.401897653349
 21
2633.734526523193
 31
0.0
  0
LINE
  5
1DE
330
20
100
AcDbEntity
  8
_0-0_
  6
Continuous
 62
     4
100
AcDbLine
 10
2530.668566561845
 20
2627.911098008386
 30
0.0
 11
2552.401897653349
 21
2622.087669493579
 31
0.0
  0
LINE
  5
1DF
330
20
100
AcDbEntity
  8
_0-0_
  6
Continuous
 62
     4
100
AcDbLine
 10
2580.668566561846
 20
2627.911098008386
 30
0.0
 11
2558.935235470341
 21
2622.087669493579
 31
0.0
  0
LINE
  5
1E0
330
20
100
AcDbEntity
  8
_0-0_
  6
Continuous
 62
     4
100
AcDbLine
 10
2580.668566561846
 20
2627.911098008386
 30
0.0
 11
2558.935235470341
 21
2633.734526523193
 31
0.0
  0
ARC
  5
1E1
330
20
100
AcDbEntity
  8
_0-0_
  6
Continuous
 62
     4
100
AcDbCircle
 10
2515.907547087404
 20
2017.911098008386
 30
0.0
 40
59.05751687903118
100
AcDbArc
 50
0.0
 51
75.52585420753246
  0
LINE
  5
1E2
330
20
100
AcDbEntity
  8
_0-0_
  6
Continuous
 62
     4
100
AcDbLine
 10
2500.668566561845
 20
2017.911098008386
 30
0.0
 11
2589.965063966435
 21
2017.911098008386
 31
0.0
  0
ARC
  5
1E3
330
20
100
AcDbEntity
  8
_0-0_
  6
Continuous
 62
     4
100
AcDbCircle
 10
2530.668566561845
 20
2256.308557629943
 30
0.0
 40
69.74104135570721
100
AcDbArc
 50
0.0
 51
60.00000000000003
  0
LINE
  5
1E4
330
20
100
AcDbEntity
  8
_0-0_
  6
Continuous
 62
     4
100
AcDbLine
 10
2530.668566561845
 20
2256.308557629943
 30
0.0
 11
2615.409607917552
 21
2256.308557629943
 31
0.0
  0
TEXT
  5
1EA
330
20
100
AcDbEntity
  8
_0-0_
 62
     7
100
AcDbText
 10
2465.668566561845
 20
1825.411098008385
 30
0.0
 40
60.0
  1
ｅ
 41
0.8
  7
MSゴシック
100
AcDbText
  0
TEXT
  5
1F0
330
20
100
AcDbEntity
  8
_0-0_
 62
     7
100
AcDbText
 10
2115.668566561845
 20
1825.411098008385
 30
0.0
 40
60.0
  1
ｅ
 41
0.8
  7
MSゴシック
100
AcDbText
  0
LINE
  5
1F1
330
20
100
AcDbEntity
  8
_0-0_
  6
Continuous
 62
     4
100
AcDbLine
 10
2030.668566561845
 20
1902.911098008386
 30
0.0
 11
2110.668566561844
 21
1902.911098008386
 31
0.0
  0
LINE
  5
1F7
330
20
100
AcDbEntity
  8
_0-0_
  6
Continuous
 62
     4
100
AcDbLine
 10
2140.668566561845
 20
1902.911098008386
 30
0.0
 11
2190.668566561845
 21
1902.911098008386
 31
0.0
  0
TEXT
  5
1F8
330
20
100
AcDbEntity
  8
_0-0_
 62
     7
100
AcDbText
 10
2033.168566561844
 20
1904.741225027308
 30
0.0
 40
60.0
  1
ｈ
 41
0.8
  7
MSゴシック
100
AcDbText
  0
TEXT
  5
1FE
330
20
100
AcDbEntity
  8
_0-0_
 62
     7
100
AcDbText
 10
2288.168566561845
 20
2207.911098008386
 30
0.0
 40
60.0
  1
ｃ
 50
90.0
 41
0.8
  7
MSゴシック
100
AcDbText
  0
TEXT
  5
204
330
20
100
AcDbEntity
  8
_0-0_
 62
     7
100
AcDbText
 10
2288.168566561845
 20
2405.411098008386
 30
0.0
 40
60.0
  1
ｔ
 50
90.0
 41
0.8
  7
MSゴシック
100
AcDbText
  0
LINE
  5
205
330
20
100
AcDbEntity
  8
_0-0_
  6
Continuous
 62
     4
100
AcDbLine
 10
2290.668566561845
 20
2017.911098008386
 30
0.0
 11
2290.668566561845
 21
1937.911098008385
 31
0.0
  0
TEXT
  5
20B
330
20
100
AcDbEntity
  8
_0-0_
 62
     7
100
AcDbText
 10
2288.168566561845
 20
1940.411098008386
 30
0.0
 40
60.0
  1
ｆ
 50
90.0
 41
0.8
  7
MSゴシック
100
AcDbText
  0
TEXT
  5
20D
330
20
100
AcDbEntity
  8
_0-0_
 62
     7
100
AcDbText
 10
2529.418566561846
 20
2634.161098008386
 30
0.0
 40
52.5
  1
ｄ
 41
0.8
  7
MSゴシック
100
AcDbText
  0
TEXT
  5
20F
330
20
100
AcDbEntity
  8
_0-0_
 62
     7
100
AcDbText
 10
2116.918566561845
 20
2634.161098008386
 30
0.0
 40
52.5
  1
ｄ'
 41
0.8
  7
MSゴシック
100
AcDbText
  0
TEXT
  5
210
330
20
100
AcDbEntity
  8
_0-0_
 62
     7
100
AcDbText
 10
2059.418566561845
 20
2634.161098008386
 30
0.0
 40
52.5
  1
ｄ
 41
0.8
  7
MSゴシック
100
AcDbText
  0
TEXT
  5
211
330
20
100
AcDbEntity
  8
_0-0_
 62
     7
100
AcDbText
 10
2104.162287668576
 20
2697.173200210764
 30
0.0
 40
60.0
  1
5
 41
0.8
  7
MSゴシック
100
AcDbText
  0
TEXT
  5
212
330
20
100
AcDbEntity
  8
_0-0_
 62
     7
100
AcDbText
 10
2519.162287668576
 20
2697.173200210764
 30
0.0
 40
60.0
  1
5
 41
0.8
  7
MSゴシック
100
AcDbText
  0
LINE
  5
213
330
20
100
AcDbEntity
  8
_0-0_
  6
Continuous
 62
     4
100
AcDbLine
 10
2179.835233228511
 20
2112.911098008386
 30
0.0
 11
2180.668566561845
 21
2087.911098008385
 31
0.0
  0
LINE
  5
214
330
20
100
AcDbEntity
  8
_0-0_
  6
Continuous
 62
     4
100
AcDbLine
 10
2180.668566561845
 20
2087.911098008385
 30
0.0
 11
2205.682451594851
 21
2087.911098008385
 31
0.0
  0
LINE
  5
215
330
20
100
AcDbEntity
  8
_0-0_
  6
Continuous
 62
     4
100
AcDbLine
 10
2180.668566561845
 20
2072.911098008386
 30
0.0
 11
2180.668566561845
 21
1807.911098008386
 31
0.0
  0
LINE
  5
216
330
20
100
AcDbEntity
  8
_0-0_
  6
Continuous
 62
     4
100
AcDbLine
 10
2194.268247921677
 20
2101.971655361194
 30
0.0
 11
2238.855657275264
 21
2148.070075599257
 31
0.0
  0
LINE
  5
217
330
20
100
AcDbEntity
  8
_0-0_
  6
Continuous
 62
     4
100
AcDbLine
 10
2194.268247921677
 20
2101.971655361194
 30
0.0
 11
2205.192062307243
 21
2121.641944613507
 31
0.0
  0
LINE
  5
218
330
20
100
AcDbEntity
  8
_0-0_
  6
Continuous
 62
     4
100
AcDbLine
 10
2194.268247921677
 20
2101.971655361194
 30
0.0
 11
2213.56369331196
 21
2113.544718360702
 31
0.0
  0
TEXT
  5
21E
330
20
100
AcDbEntity
  8
_0-0_
 62
     7
100
AcDbText
 10
2290.668566561845
 20
1824.741225027308
 30
0.0
 40
60.0
  1
ｂ
 41
0.8
  7
MSゴシック
100
AcDbText
  0
LINE
  5
21F
330
20
100
AcDbEntity
  8
_0-0_
  6
Continuous
 62
     4
100
AcDbLine
 10
2110.668566561844
 20
2032.911098008386
 30
0.0
 11
2110.668566561844
 21
1807.911098008386
 31
0.0
  0
TEXT
  5
220
330
20
100
AcDbEntity
  8
_0-0_
 62
     7
100
AcDbText
 10
2209.699708608573
 20
2121.051715697799
 30
0.0
 40
60.0
  1
ｒ
 50
44.99999999999999
 41
0.8
  7
MSゴシック
100
AcDbText
  0
LINE
  5
221
330
20
100
AcDbEntity
  8
_0-0_
  6
Continuous
 62
     4
100
AcDbLine
 10
1264.696016771488
 20
3517.969077568135
 30
0.0
 11
1507.696016771489
 21
3517.969077568135
 31
0.0
  0
LINE
  5
222
330
20
100
AcDbEntity
  8
_0-0_
  6
Continuous
 62
     4
100
AcDbLine
 10
1264.696016771488
 20
3517.969077568135
 30
0.0
 11
1286.429347862992
 21
3523.792506082941
 31
0.0
  0
LINE
  5
223
330
20
100
AcDbEntity
  8
_0-0_
  6
Continuous
 62
     4
100
AcDbLine
 10
1264.696016771488
 20
3517.969077568135
 30
0.0
 11
1286.429347862992
 21
3512.145649053328
 31
0.0
  0
LINE
  5
224
330
20
100
AcDbEntity
  8
_0-0_
  6
Continuous
 62
     4
100
AcDbLine
 10
1507.696016771489
 20
3517.969077568135
 30
0.0
 11
1485.962685679984
 21
3512.145649053328
 31
0.0
  0
LINE
  5
225
330
20
100
AcDbEntity
  8
_0-0_
  6
Continuous
 62
     4
100
AcDbLine
 10
1507.696016771489
 20
3517.969077568135
 30
0.0
 11
1485.962685679984
 21
3523.792506082941
 31
0.0
  0
LINE
  5
226
330
20
100
AcDbEntity
  8
_0-0_
  6
Continuous
 62
     4
100
AcDbLine
 10
1264.696016771488
 20
3532.969077568135
 30
0.0
 11
1264.696016771488
 21
3417.969077568135
 31
0.0
  0
LINE
  5
227
330
20
100
AcDbEntity
  8
_0-0_
  6
Continuous
 62
     4
100
AcDbLine
 10
1507.696016771489
 20
3532.969077568135
 30
0.0
 11
1507.696016771489
 21
3417.969077568135
 31
0.0
  0
LINE
  5
228
330
20
100
AcDbEntity
  8
_0-0_
  6
Continuous
 62
     4
100
AcDbLine
 10
1174.18634877961
 20
3656.113305232919
 30
0.0
 11
1346.013296607941
 21
3484.286357404587
 31
0.0
  0
LINE
  5
229
330
20
100
AcDbEntity
  8
_0-0_
  6
Continuous
 62
     4
100
AcDbLine
 10
1174.18634877961
 20
3656.113305232919
 30
0.0
 11
1193.67192036476
 21
3644.863305232919
 31
0.0
  0
LINE
  5
22A
330
20
100
AcDbEntity
  8
_0-0_
  6
Continuous
 62
     4
100
AcDbLine
 10
1174.18634877961
 20
3656.113305232919
 30
0.0
 11
1185.43634877961
 21
3636.627733647768
 31
0.0
  0
LINE
  5
22B
330
20
100
AcDbEntity
  8
_0-0_
  6
Continuous
 62
     4
100
AcDbLine
 10
1346.013296607941
 20
3484.286357404587
 30
0.0
 11
1326.527725022791
 21
3495.536357404588
 31
0.0
  0
LINE
  5
22C
330
20
100
AcDbEntity
  8
_0-0_
  6
Continuous
 62
     4
100
AcDbLine
 10
1346.013296607941
 20
3484.286357404587
 30
0.0
 11
1334.763296607941
 21
3503.771928989737
 31
0.0
  0
LINE
  5
22D
330
20
100
AcDbEntity
  8
_0-0_
  6
Continuous
 62
     4
100
AcDbLine
 10
1184.792950497408
 20
3666.719906950718
 30
0.0
 11
1103.475670660956
 21
3585.402627114264
 31
0.0
  0
LINE
  5
22E
330
20
100
AcDbEntity
  8
_0-0_
  6
Continuous
 62
     4
100
AcDbLine
 10
1356.61989832574
 20
3494.892959122385
 30
0.0
 11
1275.302618489287
 21
3413.575679285933
 31
0.0
  0
LINE
  5
22F
330
20
100
AcDbEntity
  8
_0-0_
  6
Continuous
 62
     5
100
AcDbLine
 10
1092.848476225388
 20
3574.816618114235
 30
0.0
 11
1264.696016771488
 21
3402.969077568135
 31
0.0
  0
LINE
  5
230
330
20
100
AcDbEntity
  8
_0-0_
  6
Continuous
 62
     5
100
AcDbLine
 10
1092.848476225388
 20
3574.816618114235
 30
0.0
 11
724.1340042068627
 21
3207.531090132761
 31
0.0
  0
LINE
  5
231
330
20
100
AcDbEntity
  8
_0-0_
  6
Continuous
 62
     5
100
AcDbLine
 10
724.1340042068627
 20
3207.531090132761
 30
0.0
 11
1048.696016771488
 21
2882.969077568135
 31
0.0
  0
LINE
  5
232
330
20
100
AcDbEntity
  8
_0-0_
  6
Continuous
 62
     5
100
AcDbLine
 10
1048.696016771488
 20
2882.969077568135
 30
0.0
 11
1507.696016771489
 21
2882.969077568135
 31
0.0
  0
LINE
  5
233
330
20
100
AcDbEntity
  8
_0-0_
  6
Continuous
 62
     5
100
AcDbLine
 10
1264.696016771488
 20
3402.969077568135
 30
0.0
 11
1507.696016771489
 21
3402.969077568135
 31
0.0
  0
LINE
  5
234
330
20
100
AcDbEntity
  8
_0-0_
  6
Continuous
 62
     5
100
AcDbLine
 10
1507.696016771489
 20
3402.969077568135
 30
0.0
 11
1507.696016771489
 21
2882.969077568135
 31
0.0
  0
LINE
  5
235
330
20
100
AcDbEntity
  8
_0-0_
  6
Continuous
 62
     4
100
AcDbLine
 10
1048.696016771488
 20
2737.969077568136
 30
0.0
 11
1507.696016771489
 21
2737.969077568136
 31
0.0
  0
LINE
  5
236
330
20
100
AcDbEntity
  8
_0-0_
  6
Continuous
 62
     4
100
AcDbLine
 10
1507.696016771489
 20
2737.969077568136
 30
0.0
 11
1485.962685679984
 21
2732.145649053328
 31
0.0
  0
LINE
  5
237
330
20
100
AcDbEntity
  8
_0-0_
  6
Continuous
 62
     4
100
AcDbLine
 10
1507.696016771489
 20
2737.969077568136
 30
0.0
 11
1485.962685679984
 21
2743.792506082941
 31
0.0
  0
LINE
  5
238
330
20
100
AcDbEntity
  8
_0-0_
  6
Continuous
 62
     4
100
AcDbLine
 10
1048.696016771488
 20
2737.969077568136
 30
0.0
 11
1070.429347862992
 21
2743.792506082941
 31
0.0
  0
LINE
  5
239
330
20
100
AcDbEntity
  8
_0-0_
  6
Continuous
 62
     4
100
AcDbLine
 10
1048.696016771488
 20
2737.969077568136
 30
0.0
 11
1070.429347862992
 21
2732.145649053328
 31
0.0
  0
LINE
  5
23A
330
20
100
AcDbEntity
  8
_0-0_
  6
Continuous
 62
     4
100
AcDbLine
 10
1048.696016771488
 20
2867.969077568135
 30
0.0
 11
1048.696016771488
 21
2722.969077568135
 31
0.0
  0
LINE
  5
23B
330
20
100
AcDbEntity
  8
_0-0_
  6
Continuous
 62
     4
100
AcDbLine
 10
1507.696016771489
 20
2867.969077568135
 30
0.0
 11
1507.696016771489
 21
2722.969077568135
 31
0.0
  0
LINE
  5
23C
330
20
100
AcDbEntity
  8
_0-0_
  6
Continuous
 62
     4
100
AcDbLine
 10
621.6035209348132
 20
3105.00060686071
 30
0.0
 11
946.1655334994391
 21
2780.438594296085
 31
0.0
  0
LINE
  5
23D
330
20
100
AcDbEntity
  8
_0-0_
  6
Continuous
 62
     4
100
AcDbLine
 10
946.1655334994391
 20
2780.438594296085
 30
0.0
 11
926.6799619142888
 21
2791.688594296085
 31
0.0
  0
LINE
  5
23E
330
20
100
AcDbEntity
  8
_0-0_
  6
Continuous
 62
     4
100
AcDbLine
 10
946.1655334994391
 20
2780.438594296085
 30
0.0
 11
934.9155334994392
 21
2799.924165881235
 31
0.0
  0
LINE
  5
23F
330
20
100
AcDbEntity
  8
_0-0_
  6
Continuous
 62
     4
100
AcDbLine
 10
621.6035209348132
 20
3105.00060686071
 30
0.0
 11
641.0890925199635
 21
3093.750606860711
 31
0.0
  0
LINE
  5
240
330
20
100
AcDbEntity
  8
_0-0_
  6
Continuous
 62
     4
100
AcDbLine
 10
621.6035209348132
 20
3105.00060686071
 30
0.0
 11
632.8535209348132
 21
3085.515035275561
 31
0.0
  0
LINE
  5
241
330
20
100
AcDbEntity
  8
_0-0_
  6
Continuous
 62
     4
100
AcDbLine
 10
713.5274024890644
 20
3196.924488414962
 30
0.0
 11
610.9969192170147
 21
3094.394005142913
 31
0.0
  0
LINE
  5
242
330
20
100
AcDbEntity
  8
_0-0_
  6
Continuous
 62
     4
100
AcDbLine
 10
1038.089415053689
 20
2872.362475850337
 30
0.0
 11
935.5589317816408
 21
2769.831992578287
 31
0.0
  0
ARC
  5
243
330
20
100
AcDbEntity
  8
_0-0_
  6
Continuous
 62
     4
100
AcDbCircle
 10
1048.696016771488
 20
2882.969077568135
 30
0.0
 40
85.12773348476237
100
AcDbArc
 50
135.0
 51
180.0
  0
LINE
  5
244
330
20
100
AcDbEntity
  8
_0-0_
  6
Continuous
 62
     4
100
AcDbLine
 10
988.5016191573713
 20
2943.163475182251
 30
0.0
 11
978.9927082682059
 21
2922.771549973927
 31
0.0
  0
LINE
  5
245
330
20
100
AcDbEntity
  8
_0-0_
  6
Continuous
 62
     4
100
AcDbLine
 10
988.5016191573713
 20
2943.163475182251
 30
0.0
 11
970.0706981608696
 21
2930.258005364353
 31
0.0
  0
LINE
  5
246
330
20
100
AcDbEntity
  8
_0-0_
  6
Continuous
 62
     4
100
AcDbLine
 10
963.568283286726
 20
2882.969077568135
 30
0.0
 11
958.8902702433262
 21
2904.977398584645
 31
0.0
  0
LINE
  5
247
330
20
100
AcDbEntity
  8
_0-0_
  6
Continuous
 62
     4
100
AcDbLine
 10
963.568283286726
 20
2882.969077568135
 30
0.0
 11
970.5211656601617
 21
2904.367849184775
 31
0.0
  0
LINE
  5
248
330
20
100
AcDbEntity
  8
_0-0_
  6
Continuous
 62
     4
100
AcDbLine
 10
1048.696016771488
 20
2882.969077568135
 30
0.0
 11
948.5682832867261
 21
2882.969077568135
 31
0.0
  0
LINE
  5
249
330
20
100
AcDbEntity
  8
_0-0_
  6
Continuous
 62
     5
100
AcDbLine
 10
1057.493137166061
 20
3539.461279054908
 30
0.0
 11
1243.985338652834
 21
3352.969077568135
 31
0.0
  0
LINE
  5
24A
330
20
100
AcDbEntity
  8
_0-0_
  6
Continuous
 62
     5
100
AcDbLine
 10
1243.985338652834
 20
3352.969077568135
 30
0.0
 11
1507.696016771489
 21
3352.969077568135
 31
0.0
  0
LINE
  5
24B
330
20
100
AcDbEntity
  8
_0-0_
  6
Continuous
 62
     5
100
AcDbLine
 10
1221.203592722313
 20
3297.969077568135
 30
0.0
 11
1507.696016771489
 21
3297.969077568135
 31
0.0
  0
LINE
  5
24C
330
20
100
AcDbEntity
  8
_0-0_
  6
Continuous
 62
     5
100
AcDbLine
 10
1018.6022642008
 20
3500.570406089648
 30
0.0
 11
1221.203592722313
 21
3297.969077568135
 31
0.0
  0
LINE
  5
24D
330
20
100
AcDbEntity
  8
_0-0_
  6
Continuous
 62
     5
100
AcDbLine
 10
798.3802162314499
 20
3281.777302157347
 30
0.0
 11
1092.188440820663
 21
2987.969077568135
 31
0.0
  0
LINE
  5
24E
330
20
100
AcDbEntity
  8
_0-0_
  6
Continuous
 62
     5
100
AcDbLine
 10
1092.188440820663
 20
2987.969077568135
 30
0.0
 11
1507.696016771489
 21
2987.969077568135
 31
0.0
  0
LINE
  5
24F
330
20
100
AcDbEntity
  8
_0-0_
  6
Continuous
 62
     5
100
AcDbLine
 10
1069.406694890143
 20
2932.969077568135
 30
0.0
 11
1507.696016771489
 21
2932.969077568135
 31
0.0
  0
LINE
  5
250
330
20
100
AcDbEntity
  8
_0-0_
  6
Continuous
 62
     5
100
AcDbLine
 10
759.4893432661901
 20
3242.886429192087
 30
0.0
 11
1069.406694890143
 21
2932.969077568135
 31
0.0
  0
LINE
  5
251
330
20
100
AcDbEntity
  8
_0-0_
  6
Continuous
 62
     4
100
AcDbLine
 10
1156.696016771487
 20
3032.969077568135
 30
0.0
 11
1178.429347862992
 21
3038.792506082942
 31
0.0
  0
LINE
  5
252
330
20
100
AcDbEntity
  8
_0-0_
  6
Continuous
 62
     4
100
AcDbLine
 10
1507.696016771489
 20
3032.969077568135
 30
0.0
 11
1485.962685679984
 21
3038.792506082942
 31
0.0
  0
LINE
  5
253
330
20
100
AcDbEntity
  8
_0-0_
  6
Continuous
 62
     4
100
AcDbLine
 10
1156.696016771487
 20
3032.969077568135
 30
0.0
 11
1178.429347862992
 21
3027.145649053328
 31
0.0
  0
LINE
  5
254
330
20
100
AcDbEntity
  8
_0-0_
  6
Continuous
 62
     4
100
AcDbLine
 10
1507.696016771489
 20
3032.969077568135
 30
0.0
 11
1485.962685679984
 21
3027.145649053328
 31
0.0
  0
LINE
  5
255
330
20
100
AcDbEntity
  8
_0-0_
  6
Continuous
 62
     4
100
AcDbLine
 10
1507.696016771489
 20
3032.969077568135
 30
0.0
 11
1156.696016771487
 21
3032.969077568135
 31
0.0
  0
LINE
  5
256
330
20
100
AcDbEntity
  8
_0-0_
  6
Continuous
 62
     4
100
AcDbLine
 10
1156.696016771487
 20
3142.969077568135
 30
0.0
 11
1156.696016771487
 21
3017.969077568135
 31
0.0
  0
LINE
  5
257
330
20
100
AcDbEntity
  8
_0-0_
  6
Continuous
 62
     4
100
AcDbLine
 10
830.352258276342
 20
3313.749344202239
 30
0.0
 11
1078.914270840968
 21
3065.187331637614
 31
0.0
  0
LINE
  5
258
330
20
100
AcDbEntity
  8
_0-0_
  6
Continuous
 62
     4
100
AcDbLine
 10
1157.067406744983
 20
3142.969077568134
 30
0.0
 11
1068.321397601682
 21
3054.567001441304
 31
0.0
  0
LINE
  5
259
330
20
100
AcDbEntity
  8
_0-0_
  6
Continuous
 62
     4
100
AcDbLine
 10
830.352258276342
 20
3313.749344202239
 30
0.0
 11
849.8378298614923
 21
3302.499344202239
 31
0.0
  0
LINE
  5
25A
330
20
100
AcDbEntity
  8
_0-0_
  6
Continuous
 62
     4
100
AcDbLine
 10
830.352258276342
 20
3313.749344202239
 30
0.0
 11
841.6022582763421
 21
3294.263772617089
 31
0.0
  0
LINE
  5
25B
330
20
100
AcDbEntity
  8
_0-0_
  6
Continuous
 62
     4
100
AcDbLine
 10
1078.914270840968
 20
3065.187331637614
 30
0.0
 11
1059.428699255818
 21
3076.437331637614
 31
0.0
  0
LINE
  5
25C
330
20
100
AcDbEntity
  8
_0-0_
  6
Continuous
 62
     4
100
AcDbLine
 10
1078.914270840968
 20
3065.187331637614
 30
0.0
 11
1067.664270840968
 21
3084.672903222765
 31
0.0
  0
TEXT
  5
263
330
20
100
AcDbEntity
  8
_0-0_
 62
     7
100
AcDbText
 10
1302.196016771488
 20
3035.469077568135
 30
0.0
 40
60.0
  1
Ｌ
 41
0.8
  7
MSゴシック
100
AcDbText
  0
TEXT
  5
26A
330
20
100
AcDbEntity
  8
_0-0_
 62
     7
100
AcDbText
 10
942.5205957363559
 20
3205.598654974699
 30
0.0
 40
60.0
  1
Ｌ
 50
315.0000000000002
 41
0.8
  7
MSゴシック
100
AcDbText
  0
LINE
  5
26B
330
20
100
AcDbEntity
  8
_0-0_
  6
Continuous
 62
     5
100
AcDbLine
 10
724.1340042068627
 20
2482.911098008386
 30
0.0
 11
1507.696016771489
 21
2482.911098008386
 31
0.0
  0
LINE
  5
26C
330
20
100
AcDbEntity
  8
_0-0_
  6
Continuous
 62
     5
100
AcDbLine
 10
1507.696016771489
 20
2482.911098008386
 30
0.0
 11
1507.696016771489
 21
2017.911098008386
 31
0.0
  0
LINE
  5
26D
330
20
100
AcDbEntity
  8
_0-0_
  6
Continuous
 62
     5
100
AcDbLine
 10
724.1340042068627
 20
2342.911098008386
 30
0.0
 11
1507.696016771489
 21
2342.911098008386
 31
0.0
  0
LINE
  5
26E
330
20
100
AcDbEntity
  8
_0-0_
  6
Continuous
 62
     5
100
AcDbLine
 10
1048.696016771488
 20
2342.911098008386
 30
0.0
 11
1069.406694890143
 21
2256.308557629943
 31
0.0
  0
LINE
  5
26F
330
20
100
AcDbEntity
  8
_0-0_
  6
Continuous
 62
     5
100
AcDbLine
 10
1069.406694890143
 20
2047.911098008386
 30
0.0
 11
1092.188440820663
 21
2017.911098008386
 31
0.0
  0
LINE
  5
270
330
20
100
AcDbEntity
  8
_0-0_
  6
Continuous
 62
     5
100
AcDbLine
 10
1048.696016771488
 20
2482.911098008386
 30
0.0
 11
1048.696016771488
 21
2342.911098008386
 31
0.0
  0
LINE
  5
271
330
20
100
AcDbEntity
  8
_0-0_
  6
Continuous
 62
     5
100
AcDbLine
 10
1069.406694890143
 20
2256.308557629943
 30
0.0
 11
1069.406694890143
 21
2047.911098008386
 31
0.0
  0
LINE
  5
272
330
20
100
AcDbEntity
  8
_0-0_
  6
Continuous
 62
     5
100
AcDbLine
 10
724.1340042068627
 20
2342.911098008386
 30
0.0
 11
744.8446823255177
 21
2256.308557629943
 31
0.0
  0
LINE
  5
273
330
20
100
AcDbEntity
  8
_0-0_
  6
Continuous
 62
     5
100
AcDbLine
 10
744.8446823255177
 20
2047.911098008386
 30
0.0
 11
767.6264282560382
 21
2017.911098008386
 31
0.0
  0
LINE
  5
274
330
20
100
AcDbEntity
  8
_0-0_
  6
Continuous
 62
     5
100
AcDbLine
 10
724.1340042068627
 20
2482.911098008386
 30
0.0
 11
724.1340042068627
 21
2342.911098008386
 31
0.0
  0
LINE
  5
275
330
20
100
AcDbEntity
  8
_0-0_
  6
Continuous
 62
     5
100
AcDbLine
 10
744.8446823255177
 20
2256.308557629943
 30
0.0
 11
744.8446823255177
 21
2047.911098008386
 31
0.0
  0
LINE
  5
276
330
20
100
AcDbEntity
  8
_0-0_
  6
Continuous
 62
     5
100
AcDbLine
 10
1507.696016771489
 20
2256.308557629943
 30
0.0
 11
744.8446823255177
 21
2256.308557629943
 31
0.0
  0
LINE
  5
277
330
20
100
AcDbEntity
  8
_0-0_
  6
Continuous
 62
     5
100
AcDbLine
 10
1507.696016771489
 20
2047.911098008386
 30
0.0
 11
744.8446823255177
 21
2047.911098008386
 31
0.0
  0
LINE
  5
278
330
20
100
AcDbEntity
  8
_0-0_
  6
Continuous
 62
     5
100
AcDbLine
 10
767.6264282560382
 20
2017.911098008386
 30
0.0
 11
1507.696016771489
 21
2017.911098008386
 31
0.0
  0
LINE
  5
279
330
20
100
AcDbEntity
  8
_0-0_
  6
Continuous
 62
     4
100
AcDbLine
 10
1930.342460054542
 20
2238.2707271301
 30
0.0
 11
1753.560292218088
 21
2238.2707271301
 31
0.0
  0
LINE
  5
27A
330
20
100
AcDbEntity
  8
_0-0_
  6
Continuous
 62
     4
100
AcDbLine
 10
1930.342460054542
 20
2238.2707271301
 30
0.0
 11
2171.635560345163
 21
2149.392171760903
 31
0.0
  0
LINE
  5
27B
330
20
100
AcDbEntity
  8
_0-0_
  6
Continuous
 62
     4
100
AcDbLine
 10
2171.635560345163
 20
2149.392171760903
 30
0.0
 11
2149.228906985735
 21
2151.439581155822
 31
0.0
  0
LINE
  5
27C
330
20
100
AcDbEntity
  8
_0-0_
  6
Continuous
 62
     4
100
AcDbLine
 10
2171.635560345163
 20
2149.392171760903
 30
0.0
 11
2153.254534019565
 21
2162.368606988565
 31
0.0
  0
ARC
  5
27D
330
20
100
AcDbEntity
  8
_0-0_
  6
DASHED3
 62
   136
100
AcDbCircle
 10
2455.668566561846
 20
2092.911098008386
 30
0.0
 40
50.0
100
AcDbArc
 50
270.0
 51
0.0
  0
LINE
  5
27E
330
20
100
AcDbEntity
  8
_0-0_
  6
DASHED3
 62
   136
100
AcDbLine
 10
2455.668566561846
 20
2042.911098008385
 30
0.0
 11
2320.668566561845
 21
2042.911098008385
 31
0.0
  0
LINE
  5
27F
330
20
100
AcDbEntity
  8
_0-0_
  6
DASHED3
 62
   136
100
AcDbLine
 10
2555.668566561845
 20
2467.911098008386
 30
0.0
 11
2555.668566561845
 21
2349.609827819164
 31
0.0
  0
LINE
  5
280
330
20
100
AcDbEntity
  8
_0-0_
  6
DASHED3
 62
   136
100
AcDbLine
 10
2555.668566561845
 20
2349.609827819164
 30
0.0
 11
2505.668566561845
 21
2263.00728744072
 31
0.0
  0
LINE
  5
281
330
20
100
AcDbEntity
  8
_0-0_
  6
DASHED3
 62
   136
100
AcDbLine
 10
2505.668566561845
 20
2092.911098008386
 30
0.0
 11
2505.668566561845
 21
2263.00728744072
 31
0.0
  0
TEXT
  5
282
330
20
100
AcDbEntity
  8
_0-0_
 62
     7
100
AcDbText
 10
2577.857998916087
 20
2047.731784925718
 30
0.0
 40
52.5
  1
90°
 41
0.8
  7
MSゴシック
100
AcDbText
  0
TEXT
  5
283
330
20
100
AcDbEntity
  8
_0-0_
 62
     7
100
AcDbText
 10
1977.516559572709
 20
2033.66080254446
 30
0.0
 40
52.5
  1
45°
 41
0.8
  7
MSゴシック
100
AcDbText
  0
LINE
  5
284
330
20
100
AcDbEntity
  8
_0-0_
  6
Continuous
 62
     4
100
AcDbLine
 10
2574.965063966434
 20
2017.911098008386
 30
0.0
 11
2566.173613575427
 21
2038.622457211066
 31
0.0
  0
LINE
  5
285
330
20
100
AcDbEntity
  8
_0-0_
  6
Continuous
 62
     4
100
AcDbLine
 10
2574.965063966434
 20
2017.911098008386
 30
0.0
 11
2577.707124193052
 21
2040.243386420316
 31
0.0
  0
LINE
  5
286
330
20
100
AcDbEntity
  8
_0-0_
  6
Continuous
 62
     4
100
AcDbLine
 10
2530.668566561845
 20
2075.094160220829
 30
0.0
 11
2552.977398894052
 21
2072.167387258422
 31
0.0
  0
LINE
  5
287
330
20
100
AcDbEntity
  8
_0-0_
  6
Continuous
 62
     4
100
AcDbLine
 10
2530.668566561845
 20
2075.094160220829
 30
0.0
 11
2548.5251956091
 21
2061.405084318172
 31
0.0
  0
LINE
  5
288
330
20
100
AcDbEntity
  8
_0-0_
  6
Continuous
 62
     4
100
AcDbLine
 10
2600.409607917552
 20
2256.308557629943
 30
0.0
 11
2592.346329052783
 21
2277.314117226129
 31
0.0
  0
LINE
  5
289
330
20
100
AcDbEntity
  8
_0-0_
  6
Continuous
 62
     4
100
AcDbLine
 10
2600.409607917552
 20
2256.308557629943
 30
0.0
 11
2603.929383380957
 21
2278.531545293333
 31
0.0
  0
LINE
  5
28A
330
20
100
AcDbEntity
  8
_0-0_
  6
Continuous
 62
     4
100
AcDbLine
 10
2565.539087239699
 20
2316.706071130366
 30
0.0
 11
2586.544646835885
 21
2308.642792265597
 31
0.0
  0
LINE
  5
28B
330
20
100
AcDbEntity
  8
_0-0_
  6
Continuous
 62
     4
100
AcDbLine
 10
2565.539087239699
 20
2316.706071130366
 30
0.0
 11
2579.69879603832
 21
2299.220286997584
 31
0.0
  0
ARC
  5
28C
330
20
100
AcDbEntity
  8
_0-0_
  6
Continuous
 62
     7
100
AcDbCircle
 10
2320.668566561845
 20
2047.411098008386
 30
0.0
 40
4.5
100
AcDbArc
 50
270.0
 51
90.0
  0
LINE
  5
28D
330
20
100
AcDbEntity
  8
_0-0_
  6
Continuous
 62
     7
100
AcDbLine
 10
2324.302604683746
 20
2050.06510760305
 30
0.0
 11
2324.302604683746
 21
2044.757088413722
 31
0.0
  0
LINE
  5
28E
330
20
100
AcDbEntity
  8
_0-0_
  6
Continuous
 62
     7
100
AcDbLine
 10
2323.690659794165
 20
2050.745307434197
 30
0.0
 11
2323.690659794165
 21
2044.076888582575
 31
0.0
  0
LINE
  5
28F
330
20
100
AcDbEntity
  8
_0-0_
  6
Continuous
 62
     7
100
AcDbLine
 10
2323.155208015781
 20
2051.161646538877
 30
0.0
 11
2323.155208015781
 21
2043.660549477895
 31
0.0
  0
LINE
  5
290
330
20
100
AcDbEntity
  8
_0-0_
  6
Continuous
 62
     7
100
AcDbLine
 10
2322.543263126199
 20
2051.502004117256
 30
0.0
 11
2322.543263126199
 21
2043.320191899515
 31
0.0
  0
LINE
  5
291
330
20
100
AcDbEntity
  8
_0-0_
  6
Continuous
 62
     7
100
AcDbLine
 10
2321.778332014222
 20
2051.772109432437
 30
0.0
 11
2321.778332014222
 21
2043.050086584333
 31
0.0
  0
LINE
  5
292
330
20
100
AcDbEntity
  8
_0-0_
  6
Continuous
 62
     7
100
AcDbLine
 10
2321.166387124641
 20
2051.883477094204
 30
0.0
 11
2321.166387124641
 21
2042.938718922568
 31
0.0
  0
LINE
  5
293
330
20
100
AcDbEntity
  8
_0-0_
  6
Continuous
 62
     7
100
AcDbLine
 10
2324.761356659038
 20
2049.281677923899
 30
0.0
 11
2324.761356659038
 21
2045.540518092872
 31
0.0
  0
LINE
  5
294
330
20
100
AcDbEntity
  8
_0-0_
  6
Continuous
 62
     5
100
AcDbLine
 10
2320.668566561845
 20
2072.911098008386
 30
0.0
 11
2229.02966996119
 21
2072.911098008386
 31
0.0
  0
TEXT
  5
295
330
20
100
AcDbEntity
  8
_0-0_
 62
     7
100
AcDbText
 10
2435.081034673735
 20
2041.552753041316
 30
0.0
 40
13.5
  1
●
100
AcDbText
  0
TEXT
  5
296
330
20
100
AcDbEntity
  8
_0-0_
 62
     7
100
AcDbText
 10
2493.772491766418
 20
2123.671157964769
 30
0.0
 40
13.5
  1
●
100
AcDbText
  0
TEXT
  5
297
330
20
100
AcDbEntity
  8
_0-0_
 62
     7
100
AcDbText
 10
2500.039938979363
 20
2269.630216680178
 30
0.0
 40
13.5
  1
●
100
AcDbText
  0
TEXT
  5
298
330
20
100
AcDbEntity
  8
_0-0_
 62
     7
100
AcDbText
 10
2543.471491083736
 20
2352.131191767254
 30
0.0
 40
13.5
  1
●
100
AcDbText
  0
TEXT
  5
299
330
20
100
AcDbEntity
  8
_0-0_
 62
     7
100
AcDbText
 10
2543.554912054482
 20
2449.087263464957
 30
0.0
 40
13.5
  1
●
100
AcDbText
  0
TEXT
  5
29A
330
20
100
AcDbEntity
  8
_0-0_
 62
     7
100
AcDbText
 10
2705.911070676705
 20
2642.480799150877
 30
0.0
 40
52.5
  1
②
  7
MSゴシック
100
AcDbText
  0
LINE
  5
29B
330
20
100
AcDbEntity
  8
_0-0_
  6
Continuous
 62
     4
100
AcDbLine
 10
2764.220983918533
 20
2628.461719267365
 30
0.0
 11
2698.184263228377
 21
2628.461719267365
 31
0.0
  0
LINE
  5
29C
330
20
100
AcDbEntity
  8
_0-0_
  6
Continuous
 62
     4
100
AcDbLine
 10
2698.184263228377
 20
2628.461719267365
 30
0.0
 11
2552.973979097937
 21
2460.959071383884
 31
0.0
  0
LINE
  5
29D
330
20
100
AcDbEntity
  8
_0-0_
  6
Continuous
 62
     4
100
AcDbLine
 10
2552.973979097937
 20
2460.959071383884
 30
0.0
 11
2562.809950624501
 21
2481.195268262957
 31
0.0
  0
LINE
  5
29E
330
20
100
AcDbEntity
  8
_0-0_
  6
Continuous
 62
     4
100
AcDbLine
 10
2552.973979097937
 20
2460.959071383884
 30
0.0
 11
2571.610278750378
 21
2473.566146193861
 31
0.0
  0
LINE
  5
29F
330
20
100
AcDbEntity
  8
_0-0_
  6
Continuous
 62
     4
100
AcDbLine
 10
2764.220983918533
 20
2520.465637513178
 30
0.0
 11
2698.184263228377
 21
2520.465637513178
 31
0.0
  0
TEXT
  5
2A0
330
20
100
AcDbEntity
  8
_0-0_
 62
     7
100
AcDbText
 10
2705.911070676705
 20
2534.48471739669
 30
0.0
 40
52.5
  1
①
  7
MSゴシック
100
AcDbText
  0
LINE
  5
2A1
330
20
100
AcDbEntity
  8
_0-0_
  6
Continuous
 62
     4
100
AcDbLine
 10
2698.184263228377
 20
2520.465637513178
 30
0.0
 11
2555.668566561845
 21
2412.016492955779
 31
0.0
  0
LINE
  5
2A2
330
20
100
AcDbEntity
  8
_0-0_
  6
Continuous
 62
     4
100
AcDbLine
 10
2555.668566561845
 20
2412.016492955779
 30
0.0
 11
2569.437311147448
 21
2429.811764028073
 31
0.0
  0
LINE
  5
2A3
330
20
100
AcDbEntity
  8
_0-0_
  6
Continuous
 62
     4
100
AcDbLine
 10
2555.668566561845
 20
2412.016492955779
 30
0.0
 11
2576.490284687344
 21
2420.543277478815
 31
0.0
  0
LINE
  5
2A4
330
20
100
AcDbEntity
  8
_0-0_
  6
Continuous
 62
     4
100
AcDbLine
 10
1945.668566561844
 20
2482.911098008386
 30
0.0
 11
1945.668566561844
 21
2342.911098008386
 31
0.0
  0
LINE
  5
2A5
330
20
100
AcDbEntity
  8
_0-0_
  6
Continuous
 62
     4
100
AcDbLine
 10
1945.668566561844
 20
2482.911098008386
 30
0.0
 11
1951.491995076652
 21
2461.177766916881
 31
0.0
  0
LINE
  5
2A6
330
20
100
AcDbEntity
  8
_0-0_
  6
Continuous
 62
     4
100
AcDbLine
 10
1945.668566561844
 20
2482.911098008386
 30
0.0
 11
1939.845138047038
 21
2461.177766916881
 31
0.0
  0
LINE
  5
2A7
330
20
100
AcDbEntity
  8
_0-0_
  6
Continuous
 62
     4
100
AcDbLine
 10
1945.668566561844
 20
2482.911098008386
 30
0.0
 11
1951.491995076652
 21
2461.177766916881
 31
0.0
  0
LINE
  5
2A8
330
20
100
AcDbEntity
  8
_0-0_
  6
Continuous
 62
     4
100
AcDbLine
 10
1945.668566561844
 20
2482.911098008386
 30
0.0
 11
1939.845138047038
 21
2461.177766916881
 31
0.0
  0
LINE
  5
2A9
330
20
100
AcDbEntity
  8
_0-0_
  6
Continuous
 62
     4
100
AcDbLine
 10
1945.668566561844
 20
2342.911098008386
 30
0.0
 11
1939.845138047038
 21
2364.64442909989
 31
0.0
  0
LINE
  5
2AA
330
20
100
AcDbEntity
  8
_0-0_
  6
Continuous
 62
     4
100
AcDbLine
 10
1945.668566561844
 20
2342.911098008386
 30
0.0
 11
1951.491995076652
 21
2364.64442909989
 31
0.0
  0
TEXT
  5
2B0
330
20
100
AcDbEntity
  8
_0-0_
 62
     7
100
AcDbText
 10
1939.418566561845
 20
2386.661098008386
 30
0.0
 40
52.5
  1
ｔ'
 50
90.0
 41
0.8
  7
MSゴシック
100
AcDbText
  0
LINE
  5
2B2
330
20
100
AcDbEntity
  8
_0-0_
  6
Continuous
 62
     4
100
AcDbLine
 10
2045.668566561845
 20
2482.911098008386
 30
0.0
 11
1930.668566561844
 21
2482.911098008386
 31
0.0
  0
LINE
  5
2B3
330
20
100
AcDbEntity
  8
_0-0_
  6
Continuous
 62
     4
100
AcDbLine
 10
2045.668566561845
 20
2342.911098008386
 30
0.0
 11
1930.668566561844
 21
2342.911098008386
 31
0.0
  0
LINE
  5
2B4
330
20
100
AcDbEntity
  8
_0-0_
  6
Continuous
 62
     4
100
AcDbLine
 10
2084.605331420898
 20
3216.957050323486
 30
0.0
 11
2084.605331420898
 21
3056.957046508789
 31
0.0
  0
LINE
  5
2B5
330
20
100
AcDbEntity
  8
_0-0_
  6
Continuous
 62
     4
100
AcDbLine
 10
2084.605331420898
 20
3216.957050323486
 30
0.0
 11
2091.445724487305
 21
3198.163198471069
 31
0.0
  0
LINE
  5
2B6
330
20
100
AcDbEntity
  8
_0-0_
  6
Continuous
 62
     4
100
AcDbLine
 10
2084.605331420898
 20
3216.957050323486
 30
0.0
 11
2077.764923095703
 21
3198.163198471069
 31
0.0
  0
LINE
  5
2B7
330
20
100
AcDbEntity
  8
_0-0_
  6
Continuous
 62
     4
100
AcDbLine
 10
2084.605331420898
 20
3056.957046508789
 30
0.0
 11
2077.764923095703
 21
3075.750900268555
 31
0.0
  0
LINE
  5
2B8
330
20
100
AcDbEntity
  8
_0-0_
  6
Continuous
 62
     4
100
AcDbLine
 10
2084.605331420898
 20
3056.957046508789
 30
0.0
 11
2091.445724487305
 21
3075.750900268555
 31
0.0
  0
LINE
  5
2B9
330
20
100
AcDbEntity
  8
_0-0_
  6
Continuous
 62
     5
100
AcDbLine
 10
2314.605327606201
 20
3216.957050323486
 30
0.0
 11
2354.605331420899
 21
3136.957050323486
 31
0.0
  0
LINE
  5
2BA
330
20
100
AcDbEntity
  8
_0-0_
  6
Continuous
 62
     5
100
AcDbLine
 10
2354.605331420899
 20
3136.957050323486
 30
0.0
 11
2314.605327606201
 21
3056.957046508789
 31
0.0
  0
LINE
  5
2BB
330
20
100
AcDbEntity
  8
_0-0_
  6
Continuous
 62
     4
100
AcDbLine
 10
1995.61944580078
 20
3292.909729003906
 30
0.0
 11
2106.252990722657
 21
3292.909729003906
 31
0.0
  0
LINE
  5
2BC
330
20
100
AcDbEntity
  8
_0-0_
  6
Continuous
 62
     4
100
AcDbLine
 10
2106.252990722657
 20
3292.909729003906
 30
0.0
 11
2154.605331420898
 21
3232.556449890136
 31
0.0
  0
LINE
  5
2BD
330
20
100
AcDbEntity
  8
_0-0_
  6
Continuous
 62
     4
100
AcDbLine
 10
2154.605331420898
 20
3232.556449890136
 30
0.0
 11
2137.284820556641
 21
3242.556449890137
 31
0.0
  0
LINE
  5
2BE
330
20
100
AcDbEntity
  8
_0-0_
  6
Continuous
 62
     4
100
AcDbLine
 10
2154.605331420898
 20
3232.556449890136
 30
0.0
 11
2147.764923095703
 21
3251.350299835205
 31
0.0
  0
LINE
  5
2BF
330
20
100
AcDbEntity
  8
_0-0_
  6
Continuous
 62
     5
100
AcDbLine
 10
2154.605331420898
 20
3191.957050800324
 30
0.0
 11
2234.605329513549
 21
3191.957050800324
 31
0.0
  0
LINE
  5
2C0
330
20
100
AcDbEntity
  8
_0-0_
  6
Continuous
 62
     5
100
AcDbLine
 10
2234.605329513549
 20
3081.957054138184
 30
0.0
 11
2154.605331420898
 21
3081.957054138184
 31
0.0
  0
LINE
  5
2C1
330
20
100
AcDbEntity
  8
_0-0_
  6
Continuous
 62
     5
100
AcDbLine
 10
2314.605327606201
 20
3216.957050323486
 30
0.0
 11
2234.605329513549
 21
3191.957050800324
 31
0.0
  0
LINE
  5
2C2
330
20
100
AcDbEntity
  8
_0-0_
  6
Continuous
 62
     5
100
AcDbLine
 10
2314.605327606201
 20
3056.957046508789
 30
0.0
 11
2234.605329513549
 21
3081.957054138184
 31
0.0
  0
LINE
  5
2C3
330
20
100
AcDbEntity
  8
_0-0_
  6
Continuous
 62
     7
100
AcDbLine
 10
2204.638607025147
 20
3081.957054138184
 30
0.0
 11
2154.605331420898
 21
3024.882049560547
 31
0.0
  0
LINE
  5
2C4
330
20
100
AcDbEntity
  8
_0-0_
  6
Continuous
 62
     7
100
AcDbLine
 10
2171.39266204834
 20
3081.957054138184
 30
0.0
 11
2154.605331420898
 21
3062.807052612305
 31
0.0
  0
LINE
  5
2C5
330
20
100
AcDbEntity
  8
_0-0_
  6
Continuous
 62
     4
100
AcDbLine
 10
2303.873611450195
 20
3216.957050323486
 30
0.0
 11
2069.605331420898
 21
3216.957050323486
 31
0.0
  0
LINE
  5
2C6
330
20
100
AcDbEntity
  8
_0-0_
  6
Continuous
 62
     4
100
AcDbLine
 10
2303.873611450195
 20
3056.957046508789
 30
0.0
 11
2069.605331420898
 21
3056.957046508789
 31
0.0
  0
LINE
  5
2C7
330
20
100
AcDbEntity
  8
_0-0_
  6
Continuous
 62
     5
100
AcDbLine
 10
2154.605331420898
 20
3276.957054138183
 30
0.0
 11
2154.605331420898
 21
3191.957050800324
 31
0.0
  0
LINE
  5
2C8
330
20
100
AcDbEntity
  8
_0-0_
  6
Continuous
 62
     5
100
AcDbLine
 10
2154.605331420898
 20
3081.957054138184
 30
0.0
 11
2154.605331420898
 21
2996.957046508789
 31
0.0
  0
LINE
  5
2C9
330
20
100
AcDbEntity
  8
_0-0_
  6
Continuous
 62
     7
100
AcDbLine
 10
2176.1044921875
 20
3276.957054138183
 30
0.0
 11
2154.605331420898
 21
3252.432075500489
 31
0.0
  0
LINE
  5
2CA
330
20
100
AcDbEntity
  8
_0-0_
  6
Continuous
 62
     7
100
AcDbLine
 10
2209.350440979004
 20
3276.957054138183
 30
0.0
 11
2154.605331420898
 21
3214.507072448731
 31
0.0
  0
LINE
  5
2CB
330
20
100
AcDbEntity
  8
_0-0_
  6
Continuous
 62
     7
100
AcDbLine
 10
2242.596384048462
 20
3276.957054138183
 30
0.0
 11
2168.083396911621
 21
3191.957050800324
 31
0.0
  0
LINE
  5
2CC
330
20
100
AcDbEntity
  8
_0-0_
  6
Continuous
 62
     7
100
AcDbLine
 10
2275.842329978943
 20
3276.957054138183
 30
0.0
 11
2201.329345703125
 21
3191.957050800324
 31
0.0
  0
LINE
  5
2CD
330
20
100
AcDbEntity
  8
_0-0_
  6
Continuous
 62
     7
100
AcDbLine
 10
2309.088275909424
 20
3276.957054138183
 30
0.0
 11
2234.588340759277
 21
3191.971942424775
 31
0.0
  0
LINE
  5
2CE
330
20
100
AcDbEntity
  8
_0-0_
  6
Continuous
 62
     7
100
AcDbLine
 10
2342.334220886231
 20
3276.957054138183
 30
0.0
 11
2280.353783607483
 21
3206.253442764283
 31
0.0
  0
LINE
  5
2CF
330
20
100
AcDbEntity
  8
_0-0_
  6
Continuous
 62
     7
100
AcDbLine
 10
2375.58016204834
 20
3276.957054138183
 30
0.0
 11
2317.64807510376
 21
3210.871558189392
 31
0.0
  0
LINE
  5
2D0
330
20
100
AcDbEntity
  8
_0-0_
  6
Continuous
 62
     7
100
AcDbLine
 10
2408.826110839844
 20
3276.957054138183
 30
0.0
 11
2329.723255157471
 21
3186.721201896668
 31
0.0
  0
LINE
  5
2D1
330
20
100
AcDbEntity
  8
_0-0_
  6
Continuous
 62
     7
100
AcDbLine
 10
2237.179397583008
 20
3081.152656555176
 30
0.0
 11
2163.371566772461
 21
2996.957046508789
 31
0.0
  0
LINE
  5
2D2
330
20
100
AcDbEntity
  8
_0-0_
  6
Continuous
 62
     7
100
AcDbLine
 10
2263.276246070862
 20
3072.997390747071
 30
0.0
 11
2196.61750793457
 21
2996.957046508789
 31
0.0
  0
LINE
  5
2D3
330
20
100
AcDbEntity
  8
_0-0_
  6
Continuous
 62
     7
100
AcDbLine
 10
2289.373094558716
 20
3064.842117309571
 30
0.0
 11
2229.863452911377
 21
2996.957046508789
 31
0.0
  0
LINE
  5
2D4
330
20
100
AcDbEntity
  8
_0-0_
  6
Continuous
 62
     7
100
AcDbLine
 10
2414.605331420899
 20
3018.074615478516
 30
0.0
 11
2396.093170166016
 21
2996.957046508789
 31
0.0
  0
LINE
  5
2D5
330
20
100
AcDbEntity
  8
_0-0_
  6
Continuous
 62
     7
100
AcDbLine
 10
2414.605331420899
 20
3055.999618530273
 30
0.0
 11
2362.847229003907
 21
2996.957046508789
 31
0.0
  0
LINE
  5
2D6
330
20
100
AcDbEntity
  8
_0-0_
  6
Continuous
 62
     7
100
AcDbLine
 10
2414.605331420899
 20
3093.924629211426
 30
0.0
 11
2329.601287841796
 21
2996.957046508789
 31
0.0
  0
LINE
  5
2D7
330
20
100
AcDbEntity
  8
_0-0_
  6
Continuous
 62
     7
100
AcDbLine
 10
2417.137054443359
 20
3134.737678527832
 30
0.0
 11
2296.355340957642
 21
2996.957046508789
 31
0.0
  0
LINE
  5
2D8
330
20
100
AcDbEntity
  8
_0-0_
  6
Continuous
 62
     7
100
AcDbLine
 10
2414.605331420899
 20
3169.774633407593
 30
0.0
 11
2263.109397172928
 21
2996.957046508789
 31
0.0
  0
LINE
  5
2D9
330
20
100
AcDbEntity
  8
_0-0_
  6
Continuous
 62
     7
100
AcDbLine
 10
2414.605331420899
 20
3245.624641418457
 30
0.0
 11
2341.798431396485
 21
3162.570846557617
 31
0.0
  0
LINE
  5
2DA
330
20
100
AcDbEntity
  8
_0-0_
  6
Continuous
 62
     5
100
AcDbLine
 10
2354.605331420899
 20
3136.957050323486
 30
0.0
 11
2414.605331420899
 21
3136.957050323486
 31
0.0
  0
LINE
  5
2DB
330
20
100
AcDbEntity
  8
_0-0_
  6
Continuous
 62
     4
100
AcDbLine
 10
2354.605331420899
 20
3326.957046508789
 30
0.0
 11
2154.605331420898
 21
3326.957046508789
 31
0.0
  0
LINE
  5
2DC
330
20
100
AcDbEntity
  8
_0-0_
  6
Continuous
 62
     4
100
AcDbLine
 10
2154.605331420898
 20
3284.957054138184
 30
0.0
 11
2154.605331420898
 21
3341.957046508789
 31
0.0
  0
LINE
  5
2DD
330
20
100
AcDbEntity
  8
_0-0_
  6
Continuous
 62
     4
100
AcDbLine
 10
2154.605331420898
 20
3326.957046508789
 30
0.0
 11
2173.399185180664
 21
3333.797454833984
 31
0.0
  0
LINE
  5
2DE
330
20
100
AcDbEntity
  8
_0-0_
  6
Continuous
 62
     4
100
AcDbLine
 10
2154.605331420898
 20
3326.957046508789
 30
0.0
 11
2173.399185180664
 21
3320.116645812988
 31
0.0
  0
LINE
  5
2DF
330
20
100
AcDbEntity
  8
_0-0_
  6
Continuous
 62
     4
100
AcDbLine
 10
2354.605331420899
 20
3326.957046508789
 30
0.0
 11
2335.811477661133
 21
3320.116645812988
 31
0.0
  0
LINE
  5
2E0
330
20
100
AcDbEntity
  8
_0-0_
  6
Continuous
 62
     4
100
AcDbLine
 10
2354.605331420899
 20
3326.957046508789
 30
0.0
 11
2335.811477661133
 21
3333.797454833984
 31
0.0
  0
LINE
  5
2E1
330
20
100
AcDbEntity
  8
_0-0_
  6
Continuous
 62
     4
100
AcDbLine
 10
2392.393913269043
 20
3136.957050323486
 30
0.0
 11
2422.610992431641
 21
3043.578216552734
 31
0.0
  0
LINE
  5
2E2
330
20
100
AcDbEntity
  8
_0-0_
  6
Continuous
 62
     4
100
AcDbLine
 10
2392.393913269043
 20
3136.957050323486
 30
0.0
 11
2405.249664306641
 21
3121.636161804199
 31
0.0
  0
LINE
  5
2E3
330
20
100
AcDbEntity
  8
_0-0_
  6
Continuous
 62
     4
100
AcDbLine
 10
2392.393913269043
 20
3136.957050323486
 30
0.0
 11
2392.393913269043
 21
3116.957054138184
 31
0.0
  0
LINE
  5
2E4
330
20
100
AcDbEntity
  8
_0-0_
  6
Continuous
 62
     4
100
AcDbLine
 10
2354.605331420899
 20
3147.116966247558
 30
0.0
 11
2354.605331420899
 21
3341.957046508789
 31
0.0
  0
LINE
  5
2E5
330
20
100
AcDbEntity
  8
_0-0_
  6
Continuous
 62
     7
100
AcDbLine
 10
2414.605331420899
 20
3207.699636459351
 30
0.0
 11
2353.873611450196
 21
3138.420490264894
 31
0.0
  0
TEXT
  5
2E6
330
20
100
AcDbEntity
  8
_0-0_
 62
     7
100
AcDbText
 10
2227.065928409126
 20
3328.027751407513
 30
0.0
 40
52.5
  1
25
 41
0.8
  7
MSゴシック
100
AcDbText
  0
TEXT
  5
2E7
330
20
100
AcDbEntity
  8
_0-0_
 62
     7
100
AcDbText
 10
2083.433951338735
 20
3108.276560169725
 30
0.0
 40
52.5
  1
20
 50
90.0
 41
0.8
  7
MSゴシック
100
AcDbText
  0
TEXT
  5
2E8
330
20
100
AcDbEntity
  8
_0-0_
 62
     7
100
AcDbText
 10
2003.386565506847
 20
3298.809721428558
 30
0.0
 40
45.0
  1
内面
 41
0.8
  7
MSゴシック
100
AcDbText
  0
CIRCLE
  5
2E9
330
20
100
AcDbEntity
  8
_0-0_
  6
Continuous
 62
     2
100
AcDbCircle
 10
2276.781151701569
 20
3169.978341986299
 30
0.0
 40
329.3312377929688
  0
TEXT
  5
2EA
330
20
100
AcDbEntity
  8
_0-0_
 62
     7
100
AcDbText
 10
2192.326272694909
 20
3545.351548593805
 30
0.0
 40
52.5
  1
目地部
 41
0.8
  7
MSゴシック
100
AcDbText
  0
LINE
  5
2EB
330
20
100
AcDbEntity
  8
_0-0_
  6
Continuous
 62
     4
100
AcDbLine
 10
2170.668566561845
 20
2642.911098008386
 30
0.0
 11
2170.668566561845
 21
2402.911098008386
 31
0.0
  0
LINE
  5
2EC
330
20
100
AcDbEntity
  8
_0-0_
  6
Continuous
 62
     4
100
AcDbLine
 10
2460.668566561845
 20
2072.911098008386
 30
0.0
 11
2460.668566561845
 21
1807.911098008386
 31
0.0
  0
LINE
  5
2ED
330
20
100
AcDbEntity
  8
_0-0_
  6
Continuous
 62
     4
100
AcDbLine
 10
2461.501899895178
 20
2112.911098008386
 30
0.0
 11
2460.668566561845
 21
2087.911098008385
 31
0.0
  0
LINE
  5
2EE
330
20
100
AcDbEntity
  8
_0-0_
  6
Continuous
 62
     4
100
AcDbLine
 10
2435.654681528839
 20
2087.911098008385
 30
0.0
 11
2460.668566561845
 21
2087.911098008385
 31
0.0
  0
LINE
  5
2EF
330
20
100
AcDbEntity
  8
_0-0_
  6
Continuous
 62
     4
100
AcDbLine
 10
2530.668566561845
 20
2032.911098008386
 30
0.0
 11
2530.668566561845
 21
1807.911098008386
 31
0.0
  0
LINE
  5
2F0
330
20
100
AcDbEntity
  8
_0-0_
  6
Continuous
 62
     4
100
AcDbLine
 10
2470.668566561845
 20
2642.911098008386
 30
0.0
 11
2470.668566561845
 21
2402.911098008386
 31
0.0
  0
LINE
  5
2F1
330
20
100
AcDbEntity
  8
_0-0_
  6
Continuous
 62
     4
100
AcDbLine
 10
2525.668566561845
 20
2642.911098008386
 30
0.0
 11
2525.668566561845
 21
2402.911098008386
 31
0.0
  0
LINE
  5
2F2
330
20
100
AcDbEntity
  8
_0-0_
  6
Continuous
 62
     4
100
AcDbLine
 10
2115.668566561845
 20
2642.911098008386
 30
0.0
 11
2115.668566561845
 21
2402.911098008386
 31
0.0
  0
LINE
  5
2F3
330
20
100
AcDbEntity
  8
_0-0_
  6
CENTER2
 62
     4
100
AcDbLine
 10
2320.668566561845
 20
2532.911098008386
 30
0.0
 11
2320.668566561845
 21
1967.911098008385
 31
0.0
  0
TEXT
  5
2F4
330
20
100
AcDbEntity
  8
_0-0_
 62
     7
100
AcDbText
 10
2433.306202366463
 20
3051.429086093968
 30
0.0
 40
45.0
  1
接合面
 41
0.8
  7
MSゴシック
100
AcDbText
  0
LINE
  5
2F5
330
20
100
AcDbEntity
  8
_0-0_
  6
Continuous
 62
     4
100
AcDbLine
 10
2422.610992431641
 20
3043.578216552734
 30
0.0
 11
2570.997439720933
 21
3043.578216552734
 31
0.0
  0
TEXT
  5
2F6
330
20
100
AcDbEntity
  8
_0-0_
 62
     7
100
AcDbText
 10
2607.943592462373
 20
2282.843086544417
 30
0.0
 40
52.5
  1
60°
 41
0.8
  7
MSゴシック
100
AcDbText
  0
TEXT
  5
2F7
330
20
100
AcDbEntity
  8
_0-0_
 62
     7
100
AcDbText
 10
887.4628913846738
 20
2898.718782104208
 30
0.0
 40
52.5
  1
45°
 41
0.8
  7
MSゴシック
100
AcDbText
  0
TEXT
  5
2F9
330
20
100
AcDbEntity
  8
_0-0_
 62
     7
100
AcDbText
 10
2591.675164350235
 20
3793.740436466341
 30
0.0
 40
60.0
  1
単位 ｍｍ
 41
0.8
  7
MSゴシック
100
AcDbText
  0
TEXT
  5
444
330
20
100
AcDbEntity
  8
_0-0_
 62
     7
100
AcDbText
 10
1752.129012353971
 20
2253.03112543315
 30
0.0
 40
52.5
  1
目地部
 41
0.8
  7
MSゴシック
100
AcDbText
  0
LINE
  5
445
330
20
100
AcDbEntity
  8
_0-0_
  6
CENTER1
 62
     4
100
AcDbLine
 10
873.1358345222565
 20
3426.529259817365
 30
0.0
 11
1156.696016771487
 21
3142.969077568135
 31
0.0
  0
LINE
  5
446
330
20
100
AcDbEntity
  8
_0-0_
  6
CENTER1
 62
     4
100
AcDbLine
 10
1557.696016771489
 20
3142.969077568135
 30
0.0
 11
1156.696016771487
 21
3142.969077568135
 31
0.0
  0
TEXT
  5
449
330
20
100
AcDbEntity
  8
_0-0_
 62
     7
100
AcDbText
 10
1268.59796408724
 20
3575.316755707984
 30
0.0
 40
27.0
  1
2
 50
315.0
 41
0.8
  7
MSゴシック
100
AcDbText
  0
LINE
  5
44D
330
20
100
AcDbEntity
  8
_0-0_
  6
Continuous
 62
     5
100
AcDbLine
 10
1053.957603260128
 20
3535.925745148973
 30
0.0
 11
1241.914270840968
 21
3347.969077568135
 31
0.0
  0
LINE
  5
44E
330
20
100
AcDbEntity
  8
_0-0_
  6
Continuous
 62
     5
100
AcDbLine
 10
1241.914270840968
 20
3347.969077568135
 30
0.0
 11
1507.696016771489
 21
3347.969077568135
 31
0.0
  0
LINE
  5
44F
330
20
100
AcDbEntity
  8
_0-0_
  6
Continuous
 62
     5
100
AcDbLine
 10
1071.477762702008
 20
2937.969077568135
 30
0.0
 11
1507.696016771489
 21
2937.969077568135
 31
0.0
  0
LINE
  5
450
330
20
100
AcDbEntity
  8
_0-0_
  6
Continuous
 62
     5
100
AcDbLine
 10
763.0248771721233
 20
3246.421963098021
 30
0.0
 11
1071.477762702008
 21
2937.969077568135
 31
0.0
  0
LINE
  5
451
330
20
100
AcDbEntity
  8
_0-0_
  6
DASHED1
 62
     5
100
AcDbLine
 10
1029.208865918599
 20
3511.177007807445
 30
0.0
 11
1043.227471889532
 21
3497.158401836512
 31
0.0
  0
LINE
  5
452
330
20
100
AcDbEntity
  8
_0-0_
  6
DASHED1
 62
     5
100
AcDbLine
 10
787.7736145136521
 20
3271.17070043955
 30
0.0
 11
802.0393330978135
 21
3256.904981855388
 31
0.0
  0
LINE
  5
453
330
20
100
AcDbEntity
  8
_0-0_
  6
DASHED1
 62
     5
100
AcDbLine
 10
1043.227471889532
 20
3497.158401836512
 30
0.0
 11
802.0393330978135
 21
3256.904981855388
 31
0.0
  0
LINE
  5
454
330
20
100
AcDbEntity
  8
_0-0_
  6
DASHED1
 62
     5
100
AcDbLine
 10
1487.696016771488
 20
3312.969077568135
 30
0.0
 11
1507.696016771489
 21
3312.969077568135
 31
0.0
  0
LINE
  5
455
330
20
100
AcDbEntity
  8
_0-0_
  6
DASHED1
 62
     5
100
AcDbLine
 10
1487.696016771488
 20
3312.969077568135
 30
0.0
 11
1487.696016771488
 21
2972.969077568135
 31
0.0
  0
LINE
  5
456
330
20
100
AcDbEntity
  8
_0-0_
  6
DASHED1
 62
     5
100
AcDbLine
 10
1487.696016771488
 20
2972.969077568135
 30
0.0
 11
1507.696016771489
 21
2972.969077568135
 31
0.0
  0
LINE
  5
457
330
20
100
AcDbEntity
  8
_0-0_
  6
Continuous
 62
   136
100
AcDbLine
 10
337.5
 20
705.0
 30
0.0
 11
2947.5
 21
705.0
 31
0.0
  0
LINE
  5
458
330
20
100
AcDbEntity
  8
_0-0_
  6
Continuous
 62
   136
100
AcDbLine
 10
2947.5
 20
780.0
 30
0.0
 11
337.5
 21
780.0
 31
0.0
  0
LINE
  5
459
330
20
100
AcDbEntity
  8
_0-0_
  6
Continuous
 62
   136
100
AcDbLine
 10
337.5
 20
855.0
 30
0.0
 11
2947.5
 21
855.0
 31
0.0
  0
LINE
  5
45A
330
20
100
AcDbEntity
  8
_0-0_
  6
Continuous
 62
   136
100
AcDbLine
 10
337.5
 20
930.0
 30
0.0
 11
2947.5
 21
930.0
 31
0.0
  0
LINE
  5
45B
330
20
100
AcDbEntity
  8
_0-0_
  6
Continuous
 62
   136
100
AcDbLine
 10
337.5
 20
1005.0
 30
0.0
 11
2947.5
 21
1005.0
 31
0.0
  0
LINE
  5
45C
330
20
100
AcDbEntity
  8
_0-0_
  6
Continuous
 62
   136
100
AcDbLine
 10
337.5
 20
1080.0
 30
0.0
 11
2947.5
 21
1080.0
 31
0.0
  0
TEXT
  5
45D
330
20
100
AcDbEntity
  8
_0-0_
 62
     2
100
AcDbText
 10
533.8705583756345
 20
3952.000000000002
 30
0.0
 40
105.0
  1
落ちふた式Ｕ形側溝本体(３種)用電柱よけ及びコーナー
 41
0.65
  7
MSゴシック
 72
     1
 11
1642.5
 21
3952.000000000002
 31
0.0
100
AcDbText
  0
LINE
  5
8AA
330
20
100
AcDbEntity
  8
_0-0_
  6
Continuous
 62
     5
100
AcDbLine
 10
2777.481789551277
 20
3932.000000000002
 30
0.0
 11
506.4703682314803
 21
3932.000000000002
 31
0.0
  0
POLYLINE
  5
908
330
20
100
AcDbEntity
  8
_0-0_
  6
Continuous
 62
     7
100
AcDb2dPolyline
 66
     1
 10
0.0
 20
0.0
 30
0.0
 70
     2
 40
2.0
 41
2.0
  0
VERTEX
  5
A84
330
908
100
AcDbEntity
  8
_0-0_
  6
Continuous
 62
     7
100
AcDbVertex
100
AcDb2dVertex
 10
1254.153266514782
 20
3597.83019413834
 30
0.0
  0
VERTEX
  5
A85
330
908
100
AcDbEntity
  8
_0-0_
  6
Continuous
 62
     7
100
AcDbVertex
100
AcDb2dVertex
 10
1254.153266514782
 20
3597.83019413834
 30
0.0
 42
0.0348466189740399
  0
VERTEX
  5
AB1
330
908
100
AcDbEntity
  8
_0-0_
  6
Continuous
 62
     7
100
AcDbVertex
100
AcDb2dVertex
 10
1254.828061917926
 20
3597.115846955891
 30
0.0
 42
0.0611442415306057
 70
     1
  0
VERTEX
  5
A86
330
908
100
AcDbEntity
  8
_0-0_
  6
Continuous
 62
     7
100
AcDbVertex
100
AcDb2dVertex
 10
1255.284335786972
 20
3596.788687123611
 30
0.0
 42
0.0152221414423072
  0
VERTEX
  5
AB2
330
908
100
AcDbEntity
  8
_0-0_
  6
Continuous
 62
     7
100
AcDbVertex
100
AcDb2dVertex
 10
1256.403215596649
 20
3596.221062263751
 30
0.0
 42
0.0332604620211356
 70
     1
  0
VERTEX
  5
A87
330
908
100
AcDbEntity
  8
_0-0_
  6
Continuous
 62
     7
100
AcDbVertex
100
AcDb2dVertex
 10
1256.938494373957
 20
3596.011878954464
 30
0.0
 42
0.0200758100406511
  0
VERTEX
  5
AB3
330
908
100
AcDbEntity
  8
_0-0_
  6
Continuous
 62
     7
100
AcDbVertex
100
AcDb2dVertex
 10
1258.16327994212
 20
3595.678307452068
 30
0.0
 42
0.0278495056916083
 70
     1
  0
VERTEX
  5
A88
330
908
100
AcDbEntity
  8
_0-0_
  6
Continuous
 62
     7
100
AcDbVertex
100
AcDb2dVertex
 10
1259.065481504116
 20
3595.523372554034
 30
0.0
 42
0.0103505259046218
  0
VERTEX
  5
AB4
330
908
100
AcDbEntity
  8
_0-0_
  6
Continuous
 62
     7
100
AcDbVertex
100
AcDb2dVertex
 10
1260.55444088504
 20
3595.383468406699
 30
0.0
 42
0.0147831202156732
 70
     1
  0
VERTEX
  5
A89
330
908
100
AcDbEntity
  8
_0-0_
  6
Continuous
 62
     7
100
AcDbVertex
100
AcDb2dVertex
 10
1261.600669749807
 20
3595.338010942104
 30
0.0
 42
0.002150035081585
  0
VERTEX
  5
AB5
330
908
100
AcDbEntity
  8
_0-0_
  6
Continuous
 62
     7
100
AcDbVertex
100
AcDb2dVertex
 10
1261.781657580461
 20
3595.336281114163
 30
0.0
 42
0.0033851729342236
 70
     1
  0
VERTEX
  5
A8A
330
908
100
AcDbEntity
  8
_0-0_
  6
Continuous
 62
     7
100
AcDbVertex
100
AcDb2dVertex
 10
1261.896614831266
 20
3595.33645504134
 30
0.0
 42
0.0444907029176328
  0
VERTEX
  5
AB6
330
908
100
AcDbEntity
  8
_0-0_
  6
Continuous
 62
     7
100
AcDbVertex
100
AcDb2dVertex
 10
1262.657098111875
 20
3595.41061234045
 30
0.0
 42
0.0152761258849239
 70
     1
  0
VERTEX
  5
A8B
330
908
100
AcDbEntity
  8
_0-0_
  6
Continuous
 62
     7
100
AcDbVertex
100
AcDb2dVertex
 10
1264.826637464727
 20
3595.88820303925
 30
0.0
 42
0.0066957660535199
  0
VERTEX
  5
AB7
330
908
100
AcDbEntity
  8
_0-0_
  6
Continuous
 62
     7
100
AcDbVertex
100
AcDb2dVertex
 10
1266.722267430086
 20
3596.393739921528
 30
0.0
 42
0.0103887987783995
 70
     1
  0
VERTEX
  5
A8C
330
908
100
AcDbEntity
  8
_0-0_
  6
Continuous
 62
     7
100
AcDbVertex
100
AcDb2dVertex
 10
1267.932267194635
 20
3596.761137902562
 30
0.0
 42
0.0089064125466816
  0
VERTEX
  5
AB8
330
908
100
AcDbEntity
  8
_0-0_
  6
Continuous
 62
     7
100
AcDbVertex
100
AcDb2dVertex
 10
1269.688519544783
 20
3597.36933296968
 30
0.0
 42
0.0107765619221335
 70
     1
  0
VERTEX
  5
A8D
330
908
100
AcDbEntity
  8
_0-0_
  6
Continuous
 62
     7
100
AcDbVertex
100
AcDb2dVertex
 10
1271.119141033173
 20
3597.928735947179
 30
0.0
 42
0.0071207367910701
  0
VERTEX
  5
AB9
330
908
100
AcDbEntity
  8
_0-0_
  6
Continuous
 62
     7
100
AcDbVertex
100
AcDb2dVertex
 10
1272.747727346432
 20
3598.633736482785
 30
0.0
 42
0.0074194056782082
 70
     1
  0
VERTEX
  5
A8E
330
908
100
AcDbEntity
  8
_0-0_
  6
Continuous
 62
     7
100
AcDbVertex
100
AcDb2dVertex
 10
1274.290427431394
 20
3599.35552029735
 30
0.0
 42
0.0112927049529143
  0
VERTEX
  5
ABA
330
908
100
AcDbEntity
  8
_0-0_
  6
Continuous
 62
     7
100
AcDbVertex
100
AcDb2dVertex
 10
1275.019903107701
 20
3599.730704547788
 30
0.0
 42
-0.014113977834163
 70
     1
  0
VERTEX
  5
A8F
330
908
100
AcDbEntity
  8
_0-0_
  6
Continuous
 62
     7
100
AcDbVertex
100
AcDb2dVertex
 10
1275.605288552659
 20
3600.027616153329
 30
0.0
 42
-0.0385395619400527
  0
VERTEX
  5
ABB
330
908
100
AcDbEntity
  8
_0-0_
  6
Continuous
 62
     7
100
AcDbVertex
100
AcDb2dVertex
 10
1276.270467007249
 20
3600.281132153338
 30
0.0
 42
0.0331328977403574
 70
     1
  0
VERTEX
  5
A90
330
908
100
AcDbEntity
  8
_0-0_
  6
Continuous
 62
     7
100
AcDbVertex
100
AcDb2dVertex
 10
1277.04702886026
 20
3600.56753351965
 30
0.0
 42
0.0162478442310754
  0
VERTEX
  5
ABC
330
908
100
AcDbEntity
  8
_0-0_
  6
Continuous
 62
     7
100
AcDbVertex
100
AcDb2dVertex
 10
1277.756069639996
 20
3600.911846420877
 30
0.0
 42
0.0151396794317335
 70
     1
  0
VERTEX
  5
A91
330
908
100
AcDbEntity
  8
_0-0_
  6
Continuous
 62
     7
100
AcDbVertex
100
AcDb2dVertex
 10
1278.492306026243
 20
3601.328352202299
 30
0.0
 42
0.0134147030690501
  0
VERTEX
  5
ABD
330
908
100
AcDbEntity
  8
_0-0_
  6
Continuous
 62
     7
100
AcDbVertex
100
AcDb2dVertex
 10
1279.218924415028
 20
3601.796082157024
 30
0.0
 42
0.0138454350641802
 70
     1
  0
VERTEX
  5
A92
330
908
100
AcDbEntity
  8
_0-0_
  6
Continuous
 62
     7
100
AcDbVertex
100
AcDb2dVertex
 10
1279.897206035264
 20
3602.286955110598
 30
0.0
 42
0.0129936672243746
  0
VERTEX
  5
ABE
330
908
100
AcDbEntity
  8
_0-0_
  6
Continuous
 62
     7
100
AcDbVertex
100
AcDb2dVertex
 10
1280.576767708295
 20
3602.836637703866
 30
0.0
 42
0.0131481711135524
 70
     1
  0
VERTEX
  5
A93
330
908
100
AcDbEntity
  8
_0-0_
  6
Continuous
 62
     7
100
AcDbVertex
100
AcDb2dVertex
 10
1281.219041711463
 20
3603.414215580254
 30
0.0
 42
0.0130799328726166
  0
VERTEX
  5
ABF
330
908
100
AcDbEntity
  8
_0-0_
  6
Continuous
 62
     7
100
AcDbVertex
100
AcDb2dVertex
 10
1281.832309749247
 20
3604.02682996904
 30
0.0
 42
0.0129724564135232
 70
     1
  0
VERTEX
  5
A94
330
908
100
AcDbEntity
  8
_0-0_
  6
Continuous
 62
     7
100
AcDbVertex
100
AcDb2dVertex
 10
1282.417649746699
 20
3604.675882372318
 30
0.0
 42
0.0136804442005888
  0
VERTEX
  5
AC0
330
908
100
AcDbEntity
  8
_0-0_
  6
Continuous
 62
     7
100
AcDbVertex
100
AcDb2dVertex
 10
1283.02278457829
 20
3605.423393196235
 30
0.0
 42
0.0175749805667759
 70
     1
  0
VERTEX
  5
A95
330
908
100
AcDbEntity
  8
_0-0_
  6
Continuous
 62
     7
100
AcDbVertex
100
AcDb2dVertex
 10
1283.456611042347
 20
3606.033620379747
 30
0.0
 42
0.0105865329846698
  0
VERTEX
  5
AC1
330
908
100
AcDbEntity
  8
_0-0_
  6
Continuous
 62
     7
100
AcDbVertex
100
AcDb2dVertex
 10
1283.976170364855
 20
3606.859203417127
 30
0.0
 42
0.0153579324339402
 70
     1
  0
VERTEX
  5
A96
330
908
100
AcDbEntity
  8
_0-0_
  6
Continuous
 62
     7
100
AcDbVertex
100
AcDb2dVertex
 10
1284.304357285179
 20
3607.446175420236
 30
0.0
 42
0.0024884915988674
  0
VERTEX
  5
AC2
330
908
100
AcDbEntity
  8
_0-0_
  6
Continuous
 62
     7
100
AcDbVertex
100
AcDb2dVertex
 10
1284.341251952707
 20
3607.51807127354
 30
0.0
 42
-0.0022968624931513
 70
     1
  0
VERTEX
  5
A97
330
908
100
AcDbEntity
  8
_0-0_
  6
Continuous
 62
     7
100
AcDbVertex
100
AcDb2dVertex
 10
1284.381194880381
 20
3607.595980701023
 30
0.0
 42
-0.0397983984114761
  0
VERTEX
  5
AC3
330
908
100
AcDbEntity
  8
_0-0_
  6
Continuous
 62
     7
100
AcDbVertex
100
AcDb2dVertex
 10
1284.711700877711
 20
3608.125623608095
 30
0.0
 42
0.0317774908673174
 70
     1
  0
VERTEX
  5
A98
330
908
100
AcDbEntity
  8
_0-0_
  6
Continuous
 62
     7
100
AcDbVertex
100
AcDb2dVertex
 10
1285.135959822528
 20
3608.781860016801
 30
0.0
 42
0.0259971418741838
  0
VERTEX
  5
AC4
330
908
100
AcDbEntity
  8
_0-0_
  6
Continuous
 62
     7
100
AcDbVertex
100
AcDb2dVertex
 10
1285.402004273929
 20
3609.321007702455
 30
0.0
 42
0.0198764702609813
 70
     1
  0
VERTEX
  5
A99
330
908
100
AcDbEntity
  8
_0-0_
  6
Continuous
 62
     7
100
AcDbVertex
100
AcDb2dVertex
 10
1285.683836405827
 20
3610.054881968012
 30
0.0
 42
0.0236273287505984
  0
VERTEX
  5
AC5
330
908
100
AcDbEntity
  8
_0-0_
  6
Continuous
 62
     7
100
AcDbVertex
100
AcDb2dVertex
 10
1285.855676094525
 20
3610.653208775074
 30
0.0
 42
0.0227635298276764
 70
     1
  0
VERTEX
  5
A9A
330
908
100
AcDbEntity
  8
_0-0_
  6
Continuous
 62
     7
100
AcDbVertex
100
AcDb2dVertex
 10
1285.975737414254
 20
3611.288066346574
 30
0.0
 42
0.0295049547802828
  0
VERTEX
  5
AC6
330
908
100
AcDbEntity
  8
_0-0_
  6
Continuous
 62
     7
100
AcDbVertex
100
AcDb2dVertex
 10
1286.02195819642
 20
3611.847755355896
 30
0.0
 42
0.0277758321580544
 70
     1
  0
VERTEX
  5
A9B
330
908
100
AcDbEntity
  8
_0-0_
  6
Continuous
 62
     7
100
AcDbVertex
100
AcDb2dVertex
 10
1286.002793583378
 20
3612.443943469167
 30
0.0
 42
0.0342979536143129
  0
VERTEX
  5
AC7
330
908
100
AcDbEntity
  8
_0-0_
  6
Continuous
 62
     7
100
AcDbVertex
100
AcDb2dVertex
 10
1285.920770467623
 20
3612.964644266494
 30
0.0
 42
0.0331278282102044
 70
     1
  0
VERTEX
  5
A9C
330
908
100
AcDbEntity
  8
_0-0_
  6
Continuous
 62
     7
100
AcDbVertex
100
AcDb2dVertex
 10
1285.764182825191
 20
3613.487392594318
 30
0.0
 42
0.0369218515173839
  0
VERTEX
  5
AC8
330
908
100
AcDbEntity
  8
_0-0_
  6
Continuous
 62
     7
100
AcDbVertex
100
AcDb2dVertex
 10
1285.549764943142
 20
3613.953587276743
 30
0.0
 42
0.0366334972314744
 70
     1
  0
VERTEX
  5
A9D
330
908
100
AcDbEntity
  8
_0-0_
  6
Continuous
 62
     7
100
AcDbVertex
100
AcDb2dVertex
 10
1285.267155206838
 20
3614.386709048375
 30
0.0
 42
0.0356499845893528
  0
VERTEX
  5
AC9
330
908
100
AcDbEntity
  8
_0-0_
  6
Continuous
 62
     7
100
AcDbVertex
100
AcDb2dVertex
 10
1284.919843724088
 20
3614.780605130662
 30
0.0
 42
0.0363008017046664
 70
     1
  0
VERTEX
  5
A9E
330
908
100
AcDbEntity
  8
_0-0_
  6
Continuous
 62
     7
100
AcDbVertex
100
AcDb2dVertex
 10
1284.526812660994
 20
3615.114567555956
 30
0.0
 42
0.0311136300031526
  0
VERTEX
  5
ACA
330
908
100
AcDbEntity
  8
_0-0_
  6
Continuous
 62
     7
100
AcDbVertex
100
AcDb2dVertex
 10
1284.052332453993
 20
3615.418392461096
 30
0.0
 42
0.0325570026441943
 70
     1
  0
VERTEX
  5
A9F
330
908
100
AcDbEntity
  8
_0-0_
  6
Continuous
 62
     7
100
AcDbVertex
100
AcDb2dVertex
 10
1283.565650121283
 20
3615.648852504621
 30
0.0
 42
0.0257017148354835
  0
VERTEX
  5
ACB
330
908
100
AcDbEntity
  8
_0-0_
  6
Continuous
 62
     7
100
AcDbVertex
100
AcDb2dVertex
 10
1282.978248365471
 20
3615.847278298548
 30
0.0
 42
0.0275125935021637
 70
     1
  0
VERTEX
  5
AA0
330
908
100
AcDbEntity
  8
_0-0_
  6
Continuous
 62
     7
100
AcDbVertex
100
AcDb2dVertex
 10
1282.412872025103
 20
3615.973329916567
 30
0.0
 42
0.021122160388441
  0
VERTEX
  5
ACC
330
908
100
AcDbEntity
  8
_0-0_
  6
Continuous
 62
     7
100
AcDbVertex
100
AcDb2dVertex
 10
1281.708405443161
 20
3616.05978577102
 30
0.0
 42
0.0247761558646759
 70
     1
  0
VERTEX
  5
AA1
330
908
100
AcDbEntity
  8
_0-0_
  6
Continuous
 62
     7
100
AcDbVertex
100
AcDb2dVertex
 10
1281.103504951572
 20
3616.078140709828
 30
0.0
 42
0.0158441700637538
  0
VERTEX
  5
ACD
330
908
100
AcDbEntity
  8
_0-0_
  6
Continuous
 62
     7
100
AcDbVertex
100
AcDb2dVertex
 10
1280.472526523976
 20
3616.04600029282
 30
0.0
 42
0.0125145081844217
 70
     1
  0
VERTEX
  5
AA2
330
908
100
AcDbEntity
  8
_0-0_
  6
Continuous
 62
     7
100
AcDbVertex
100
AcDb2dVertex
 10
1279.677333356648
 20
3615.960100261482
 30
0.0
 42
0.0159422896086884
  0
VERTEX
  5
ACE
330
908
100
AcDbEntity
  8
_0-0_
  6
Continuous
 62
     7
100
AcDbVertex
100
AcDb2dVertex
 10
1278.834901656861
 20
3615.820242343504
 30
0.0
 42
0.0217477748876657
 70
     1
  0
VERTEX
  5
AA3
330
908
100
AcDbEntity
  8
_0-0_
  6
Continuous
 62
     7
100
AcDbVertex
100
AcDb2dVertex
 10
1278.226694017793
 20
3615.671476616835
 30
0.0
 42
0.0284230300769111
  0
VERTEX
  5
ACF
330
908
100
AcDbEntity
  8
_0-0_
  6
Continuous
 62
     7
100
AcDbVertex
100
AcDb2dVertex
 10
1277.658559510429
 20
3615.470374509772
 30
0.0
 42
0.0206071100596851
 70
     1
  0
VERTEX
  5
AA4
330
908
100
AcDbEntity
  8
_0-0_
  6
Continuous
 62
     7
100
AcDbVertex
100
AcDb2dVertex
 10
1276.906142791707
 20
3615.117762646065
 30
0.0
 42
0.01784042177307
  0
VERTEX
  5
AD0
330
908
100
AcDbEntity
  8
_0-0_
  6
Continuous
 62
     7
100
AcDbVertex
100
AcDb2dVertex
 10
1276.877990808811
 20
3615.1018253968
 30
0.0
 42
0.0009364311832816
 70
     1
  0
VERTEX
  5
AA5
330
908
100
AcDbEntity
  8
_0-0_
  6
Continuous
 62
     7
100
AcDbVertex
100
AcDb2dVertex
 10
1276.353596280247
 20
3614.778378833706
 30
0.0
 42
0.0971214582096197
  0
VERTEX
  5
AD1
330
908
100
AcDbEntity
  8
_0-0_
  6
Continuous
 62
     7
100
AcDbVertex
100
AcDb2dVertex
 10
1266.827323822581
 20
3605.935899721315
 30
0.0
 42
0.0998297906939177
 70
     1
  0
VERTEX
  5
AA6
330
908
100
AcDbEntity
  8
_0-0_
  6
Continuous
 62
     7
100
AcDbVertex
100
AcDb2dVertex
 10
1261.553521464448
 20
3594.435760279838
 30
0.0
 42
0.0028513134893733
  0
VERTEX
  5
AD2
330
908
100
AcDbEntity
  8
_0-0_
  6
Continuous
 62
     7
100
AcDbVertex
100
AcDb2dVertex
 10
1261.233977610918
 20
3593.041331885381
 30
0.0
 42
0.0326388048268209
 70
     1
  0
VERTEX
  5
AA7
330
908
100
AcDbEntity
  8
_0-0_
  6
Continuous
 62
     7
100
AcDbVertex
100
AcDb2dVertex
 10
1261.214748826709
 20
3592.917712026216
 30
0.0
 42
0.0129747189728771
  0
VERTEX
  5
AD3
330
908
100
AcDbEntity
  8
_0-0_
  6
Continuous
 62
     7
100
AcDbVertex
100
AcDb2dVertex
 10
1261.148929855206
 20
3591.876150480415
 30
0.0
 42
0.0298753151533354
 70
     1
  0
VERTEX
  5
AA8
330
908
100
AcDbEntity
  8
_0-0_
  6
Continuous
 62
     7
100
AcDbVertex
100
AcDb2dVertex
 10
1261.159167182619
 20
3591.422689931805
 30
0.0
 42
0.0115632844561616
  0
VERTEX
  5
AD4
330
908
100
AcDbEntity
  8
_0-0_
  6
Continuous
 62
     7
100
AcDbVertex
100
AcDb2dVertex
 10
1261.194074151298
 20
3591.092827968903
 30
0.0
 42
0.0056522216047184
 70
     1
  0
VERTEX
  5
AA9
330
908
100
AcDbEntity
  8
_0-0_
  6
Continuous
 62
     7
100
AcDbVertex
100
AcDb2dVertex
 10
1261.288664398481
 20
3590.420924690927
 30
0.0
 42
0.0204539649634491
  0
VERTEX
  5
AD5
330
908
100
AcDbEntity
  8
_0-0_
  6
Continuous
 62
     7
100
AcDbVertex
100
AcDb2dVertex
 10
1261.428417371012
 20
3589.702267862111
 30
0.0
 42
0.0223416835440602
 70
     1
  0
VERTEX
  5
AAA
330
908
100
AcDbEntity
  8
_0-0_
  6
Continuous
 62
     7
100
AcDbVertex
100
AcDb2dVertex
 10
1261.61214497995
 20
3589.057624225767
 30
0.0
 42
0.0889757883307
  0
VERTEX
  5
AD6
330
908
100
AcDbEntity
  8
_0-0_
  6
Continuous
 62
     7
100
AcDbVertex
100
AcDb2dVertex
 10
1261.861433436032
 20
3588.601093500753
 30
0.0
 42
0.0640050149777968
 70
     1
  0
VERTEX
  5
AAB
330
908
100
AcDbEntity
  8
_0-0_
  6
Continuous
 62
     7
100
AcDbVertex
100
AcDb2dVertex
 10
1262.380747452085
 20
3588.101874655779
 30
0.0
 42
0.0567041458927957
  0
VERTEX
  5
AD7
330
908
100
AcDbEntity
  8
_0-0_
  6
Continuous
 62
     7
100
AcDbVertex
100
AcDb2dVertex
 10
1262.946985067121
 20
3587.774239747071
 30
0.0
 42
0.0568209283250219
 70
     1
  0
VERTEX
  5
AAC
330
908
100
AcDbEntity
  8
_0-0_
  6
Continuous
 62
     7
100
AcDbVertex
100
AcDb2dVertex
 10
1263.571118217701
 20
3587.582715948018
 30
0.0
 42
0.0354811060485827
  0
VERTEX
  5
AD8
330
908
100
AcDbEntity
  8
_0-0_
  6
Continuous
 62
     7
100
AcDbVertex
100
AcDb2dVertex
 10
1264.413683819395
 20
3587.486851593641
 30
0.0
 42
0.0410102746532893
 70
     1
  0
VERTEX
  5
AAD
330
908
100
AcDbEntity
  8
_0-0_
  6
Continuous
 62
     7
100
AcDbVertex
100
AcDb2dVertex
 10
1265.147088463443
 20
3587.51592247711
 30
0.0
 42
0.0195640765004227
  0
VERTEX
  5
ADA
330
908
100
AcDbEntity
  8
_0-0_
  6
Continuous
 62
     7
100
AcDbVertex
100
AcDb2dVertex
 10
1265.710556017948
 20
3587.607268157112
 30
0.0
 42
0.0080762505652953
 70
     1
  0
VERTEX
  5
AAE
330
908
100
AcDbEntity
  8
_0-0_
  6
Continuous
 62
     7
100
AcDbVertex
100
AcDb2dVertex
 10
1267.060773130872
 20
3587.90352372887
 30
0.0
 42
0.0269227774390075
  0
VERTEX
  5
AD9
330
908
100
AcDbEntity
  8
_0-0_
  6
Continuous
 62
     7
100
AcDbVertex
100
AcDb2dVertex
 10
1267.608141709021
 20
3588.064469209776
 30
0.0
 42
0.0155278052448481
 70
     1
  0
VERTEX
  5
AAF
330
908
100
AcDbEntity
  8
_0-0_
  6
Continuous
 62
     7
100
AcDbVertex
100
AcDb2dVertex
 10
1268.529670821832
 20
3588.422809481301
 30
0.0
  0
SEQEND
  5
AB0
330
908
100
AcDbEntity
  8
_0-0_
  6
Continuous
 62
     7
  0
POLYLINE
  5
909
330
20
100
AcDbEntity
  8
_0-0_
  6
Continuous
 62
     7
100
AcDb2dPolyline
 66
     1
 10
0.0
 20
0.0
 30
0.0
 70
     2
 40
2.0
 41
2.0
  0
VERTEX
  5
A2D
330
909
100
AcDbEntity
  8
_0-0_
  6
Continuous
 62
     7
100
AcDbVertex
100
AcDb2dVertex
 10
1379.861572250576
 20
3533.301844285637
 30
0.0
  0
VERTEX
  5
A2E
330
909
100
AcDbEntity
  8
_0-0_
  6
Continuous
 62
     7
100
AcDbVertex
100
AcDb2dVertex
 10
1379.861572250576
 20
3533.301844285637
 30
0.0
 42
0.0348466189744693
  0
VERTEX
  5
A5A
330
909
100
AcDbEntity
  8
_0-0_
  6
Continuous
 62
     7
100
AcDbVertex
100
AcDb2dVertex
 10
1380.843844392882
 20
3533.273876954281
 30
0.0
 42
0.0611442415313907
 70
     1
  0
VERTEX
  5
A2F
330
909
100
AcDbEntity
  8
_0-0_
  6
Continuous
 62
     7
100
AcDbVertex
100
AcDb2dVertex
 10
1381.397815675701
 20
3533.365174365225
 30
0.0
 42
0.015222141442618
  0
VERTEX
  5
A5B
330
909
100
AcDbEntity
  8
_0-0_
  6
Continuous
 62
     7
100
AcDbVertex
100
AcDb2dVertex
 10
1382.590354564039
 20
3533.754970478405
 30
0.0
 42
0.033260462021374
 70
     1
  0
VERTEX
  5
A30
330
909
100
AcDbEntity
  8
_0-0_
  6
Continuous
 62
     7
100
AcDbVertex
100
AcDb2dVertex
 10
1383.116768753802
 20
3533.985554795155
 30
0.0
 42
0.0200758100406796
  0
VERTEX
  5
A5C
330
909
100
AcDbEntity
  8
_0-0_
  6
Continuous
 62
     7
100
AcDbVertex
100
AcDb2dVertex
 10
1384.218693605904
 20
3534.615738304549
 30
0.0
 42
0.027849505691757
 70
     1
  0
VERTEX
  5
A31
330
909
100
AcDbEntity
  8
_0-0_
  6
Continuous
 62
     7
100
AcDbVertex
100
AcDb2dVertex
 10
1384.96620196543
 20
3535.14413562999
 30
0.0
 42
0.0103505259041689
  0
VERTEX
  5
A5D
330
909
100
AcDbEntity
  8
_0-0_
  6
Continuous
 62
     7
100
AcDbVertex
100
AcDb2dVertex
 10
1386.117982411888
 20
3536.098061733854
 30
0.0
 42
0.0147831202149925
 70
     1
  0
VERTEX
  5
A32
330
909
100
AcDbEntity
  8
_0-0_
  6
Continuous
 62
     7
100
AcDbVertex
100
AcDb2dVertex
 10
1386.88992121831
 20
3536.805713977335
 30
0.0
 42
0.0021500350694949
  0
VERTEX
  5
A5E
330
909
100
AcDbEntity
  8
_0-0_
  6
Continuous
 62
     7
100
AcDbVertex
100
AcDb2dVertex
 10
1387.019122113808
 20
3536.932468526691
 30
0.0
 42
0.0033851729111474
 70
     1
  0
VERTEX
  5
A33
330
909
100
AcDbEntity
  8
_0-0_
  6
Continuous
 62
     7
100
AcDbVertex
100
AcDb2dVertex
 10
1387.100286180251
 20
3537.013878563313
 30
0.0
 42
0.0444907029177065
  0
VERTEX
  5
A5F
330
909
100
AcDbEntity
  8
_0-0_
  6
Continuous
 62
     7
100
AcDbVertex
100
AcDb2dVertex
 10
1387.58559193587
 20
3537.604058577081
 30
0.0
 42
0.0152761258849744
 70
     1
  0
VERTEX
  5
A34
330
909
100
AcDbEntity
  8
_0-0_
  6
Continuous
 62
     7
100
AcDbVertex
100
AcDb2dVertex
 10
1388.781980302571
 20
3539.475862187291
 30
0.0
 42
0.0066957660521401
  0
VERTEX
  5
A60
330
909
100
AcDbEntity
  8
_0-0_
  6
Continuous
 62
     7
100
AcDbVertex
100
AcDb2dVertex
 10
1389.764924548117
 20
3541.173743548038
 30
0.0
 42
0.0103887987759153
 70
     1
  0
VERTEX
  5
A35
330
909
100
AcDbEntity
  8
_0-0_
  6
Continuous
 62
     7
100
AcDbVertex
100
AcDb2dVertex
 10
1390.360733983062
 20
3542.289132190546
 30
0.0
 42
0.0089064125467323
  0
VERTEX
  5
A61
330
909
100
AcDbEntity
  8
_0-0_
  6
Continuous
 62
     7
100
AcDbVertex
100
AcDb2dVertex
 10
1391.172533073081
 20
3543.961048993049
 30
0.0
 42
0.0107765619223363
 70
     1
  0
VERTEX
  5
A36
330
909
100
AcDbEntity
  8
_0-0_
  6
Continuous
 62
     7
100
AcDbVertex
100
AcDb2dVertex
 10
1391.78857759003
 20
3545.368208787611
 30
0.0
 42
0.0071207367931888
  0
VERTEX
  5
A62
330
909
100
AcDbEntity
  8
_0-0_
  6
Continuous
 62
     7
100
AcDbVertex
100
AcDb2dVertex
 10
1392.441651356404
 20
3547.018303872923
 30
0.0
 42
0.0074194056804534
 70
     1
  0
VERTEX
  5
A37
330
909
100
AcDbEntity
  8
_0-0_
  6
Continuous
 62
     7
100
AcDbVertex
100
AcDb2dVertex
 10
1393.022126817999
 20
3548.619535794174
 30
0.0
 42
0.0112927049607018
  0
VERTEX
  5
A63
330
909
100
AcDbEntity
  8
_0-0_
  6
Continuous
 62
     7
100
AcDbVertex
100
AcDb2dVertex
 10
1393.272648687736
 20
3549.400648319287
 30
0.0
 42
-0.0141139778243339
 70
     1
  0
VERTEX
  5
A38
330
909
100
AcDbEntity
  8
_0-0_
  6
Continuous
 62
     7
100
AcDbVertex
100
AcDb2dVertex
 10
1393.476630495795
 20
3550.02452654671
 30
0.0
 42
-0.0385395619423555
  0
VERTEX
  5
A64
330
909
100
AcDbEntity
  8
_0-0_
  6
Continuous
 62
     7
100
AcDbVertex
100
AcDb2dVertex
 10
1393.767719808991
 20
3550.674141625394
 30
0.0
 42
0.0331328977384118
 70
     1
  0
VERTEX
  5
A39
330
909
100
AcDbEntity
  8
_0-0_
  6
Continuous
 62
     7
100
AcDbVertex
100
AcDb2dVertex
 10
1394.114315613003
 20
3551.425770125931
 30
0.0
 42
0.0162478442301431
  0
VERTEX
  5
A65
330
909
100
AcDbEntity
  8
_0-0_
  6
Continuous
 62
     7
100
AcDbVertex
100
AcDb2dVertex
 10
1394.372217169186
 20
3552.170603656727
 30
0.0
 42
0.0151396794308165
 70
     1
  0
VERTEX
  5
A3A
330
909
100
AcDbEntity
  8
_0-0_
  6
Continuous
 62
     7
100
AcDbVertex
100
AcDb2dVertex
 10
1394.598300848009
 20
3552.985715460445
 30
0.0
 42
0.0134147030694146
  0
VERTEX
  5
A66
330
909
100
AcDbEntity
  8
_0-0_
  6
Continuous
 62
     7
100
AcDbVertex
100
AcDb2dVertex
 10
1394.781362615302
 20
3553.830247273231
 30
0.0
 42
0.0138454350648895
 70
     1
  0
VERTEX
  5
A3B
330
909
100
AcDbEntity
  8
_0-0_
  6
Continuous
 62
     7
100
AcDbVertex
100
AcDb2dVertex
 10
1394.913880554354
 20
3554.656964400637
 30
0.0
 42
0.0129936672256267
  0
VERTEX
  5
A67
330
909
100
AcDbEntity
  8
_0-0_
  6
Continuous
 62
     7
100
AcDbVertex
100
AcDb2dVertex
 10
1395.005718932387
 20
3555.52617135708
 30
0.0
 42
0.0131481711145617
 70
     1
  0
VERTEX
  5
A3C
330
909
100
AcDbEntity
  8
_0-0_
  6
Continuous
 62
     7
100
AcDbVertex
100
AcDb2dVertex
 10
1395.051466002351
 20
3556.388736893148
 30
0.0
 42
0.0130799328710303
  0
VERTEX
  5
A68
330
909
100
AcDbEntity
  8
_0-0_
  6
Continuous
 62
     7
100
AcDbVertex
100
AcDb2dVertex
 10
1395.051928201993
 20
3557.255566669905
 30
0.0
 42
0.0129724564121663
 70
     1
  0
VERTEX
  5
A3D
330
909
100
AcDbEntity
  8
_0-0_
  6
Continuous
 62
     7
100
AcDbVertex
100
AcDb2dVertex
 10
1395.006876727785
 20
3558.128413907115
 30
0.0
 42
0.013680444200508
  0
VERTEX
  5
A69
330
909
100
AcDbEntity
  8
_0-0_
  6
Continuous
 62
     7
100
AcDbVertex
100
AcDb2dVertex
 10
1394.906201698134
 20
3559.084878822658
 30
0.0
 42
0.017574980567094
 70
     1
  0
VERTEX
  5
A3E
330
909
100
AcDbEntity
  8
_0-0_
  6
Continuous
 62
     7
100
AcDbVertex
100
AcDb2dVertex
 10
1394.7814675532
 20
3559.823136236786
 30
0.0
 42
0.0105865329847822
  0
VERTEX
  5
A6A
330
909
100
AcDbEntity
  8
_0-0_
  6
Continuous
 62
     7
100
AcDbVertex
100
AcDb2dVertex
 10
1394.565076109209
 20
3560.774295521129
 30
0.0
 42
0.0153579324339264
 70
     1
  0
VERTEX
  5
A3F
330
909
100
AcDbEntity
  8
_0-0_
  6
Continuous
 62
     7
100
AcDbVertex
100
AcDb2dVertex
 10
1394.382087422304
 20
3561.421410601746
 30
0.0
 42
0.0024884920337679
  0
VERTEX
  5
A6B
330
909
100
AcDbEntity
  8
_0-0_
  6
Continuous
 62
     7
100
AcDbVertex
100
AcDb2dVertex
 10
1394.357337846425
 20
3561.498337116733
 30
0.0
 42
-0.0022968620917367
 70
     1
  0
VERTEX
  5
A40
330
909
100
AcDbEntity
  8
_0-0_
  6
Continuous
 62
     7
100
AcDbVertex
100
AcDb2dVertex
 10
1394.330491477019
 20
3561.581671316266
 30
0.0
 42
-0.0397983984098878
  0
VERTEX
  5
A6C
330
909
100
AcDbEntity
  8
_0-0_
  6
Continuous
 62
     7
100
AcDbVertex
100
AcDb2dVertex
 10
1394.189680417754
 20
3562.189888439397
 30
0.0
 42
0.0317774908683338
 70
     1
  0
VERTEX
  5
A41
330
909
100
AcDbEntity
  8
_0-0_
  6
Continuous
 62
     7
100
AcDbVertex
100
AcDb2dVertex
 10
1394.025647579957
 20
3562.953914030916
 30
0.0
 42
0.0259971418732004
  0
VERTEX
  5
A6D
330
909
100
AcDbEntity
  8
_0-0_
  6
Continuous
 62
     7
100
AcDbVertex
100
AcDb2dVertex
 10
1393.832534431056
 20
3563.52327085118
 30
0.0
 42
0.0198764702607429
 70
     1
  0
VERTEX
  5
A42
330
909
100
AcDbEntity
  8
_0-0_
  6
Continuous
 62
     7
100
AcDbVertex
100
AcDb2dVertex
 10
1393.51289237296
 20
3564.241483732521
 30
0.0
 42
0.0236273287511746
  0
VERTEX
  5
A6E
330
909
100
AcDbEntity
  8
_0-0_
  6
Continuous
 62
     7
100
AcDbVertex
100
AcDb2dVertex
 10
1393.211320439474
 20
3564.786073684318
 30
0.0
 42
0.0227635298277003
 70
     1
  0
VERTEX
  5
A43
330
909
100
AcDbEntity
  8
_0-0_
  6
Continuous
 62
     7
100
AcDbVertex
100
AcDb2dVertex
 10
1392.847304518919
 20
3565.319881951549
 30
0.0
 42
0.0295049547836069
  0
VERTEX
  5
A6F
330
909
100
AcDbEntity
  8
_0-0_
  6
Continuous
 62
     7
100
AcDbVertex
100
AcDb2dVertex
 10
1392.484227653571
 20
3565.748324873894
 30
0.0
 42
0.027775832161264
 70
     1
  0
VERTEX
  5
A44
330
909
100
AcDbEntity
  8
_0-0_
  6
Continuous
 62
     7
100
AcDbVertex
100
AcDb2dVertex
 10
1392.049107567977
 20
3566.156342103813
 30
0.0
 42
0.0342979536138312
  0
VERTEX
  5
A70
330
909
100
AcDbEntity
  8
_0-0_
  6
Continuous
 62
     7
100
AcDbVertex
100
AcDb2dVertex
 10
1391.622917401863
 20
3566.466534067202
 30
0.0
 42
0.0331278282111753
 70
     1
  0
VERTEX
  5
A45
330
909
100
AcDbEntity
  8
_0-0_
  6
Continuous
 62
     7
100
AcDbVertex
100
AcDb2dVertex
 10
1391.142554330581
 20
3566.725448770853
 30
0.0
 42
0.0369218515171058
  0
VERTEX
  5
A71
330
909
100
AcDbEntity
  8
_0-0_
  6
Continuous
 62
     7
100
AcDbVertex
100
AcDb2dVertex
 10
1390.661288570874
 20
3566.903481853746
 30
0.0
 42
0.036633497230212
 70
     1
  0
VERTEX
  5
A46
330
909
100
AcDbEntity
  8
_0-0_
  6
Continuous
 62
     7
100
AcDbVertex
100
AcDb2dVertex
 10
1390.15518996811
 20
3567.009909934574
 30
0.0
 42
0.0356499845910779
  0
VERTEX
  5
A72
330
909
100
AcDbEntity
  8
_0-0_
  6
Continuous
 62
     7
100
AcDbVertex
100
AcDb2dVertex
 10
1389.631077072601
 20
3567.042850220804
 30
0.0
 42
0.0363008017059574
 70
     1
  0
VERTEX
  5
A47
330
909
100
AcDbEntity
  8
_0-0_
  6
Continuous
 62
     7
100
AcDbVertex
100
AcDb2dVertex
 10
1389.117015047088
 20
3567.001082386462
 30
0.0
 42
0.0311136300033664
  0
VERTEX
  5
A73
330
909
100
AcDbEntity
  8
_0-0_
  6
Continuous
 62
     7
100
AcDbVertex
100
AcDb2dVertex
 10
1388.566670224463
 20
3566.88041086527
 30
0.0
 42
0.0325570026443855
 70
     1
  0
VERTEX
  5
A48
330
909
100
AcDbEntity
  8
_0-0_
  6
Continuous
 62
     7
100
AcDbVertex
100
AcDb2dVertex
 10
1388.059573987149
 20
3566.699234347097
 30
0.0
 42
0.0257017148363074
  0
VERTEX
  5
A74
330
909
100
AcDbEntity
  8
_0-0_
  6
Continuous
 62
     7
100
AcDbVertex
100
AcDb2dVertex
 10
1387.503909997889
 20
3566.42418680673
 30
0.0
 42
0.0275125935035604
 70
     1
  0
VERTEX
  5
A49
330
909
100
AcDbEntity
  8
_0-0_
  6
Continuous
 62
     7
100
AcDbVertex
100
AcDb2dVertex
 10
1387.014996599807
 20
3566.113537316414
 30
0.0
 42
0.0211221603886827
  0
VERTEX
  5
A75
330
909
100
AcDbEntity
  8
_0-0_
  6
Continuous
 62
     7
100
AcDbVertex
100
AcDb2dVertex
 10
1386.455729981637
 20
3565.676537740157
 30
0.0
 42
0.0247761558644697
 70
     1
  0
VERTEX
  5
A4A
330
909
100
AcDbEntity
  8
_0-0_
  6
Continuous
 62
     7
100
AcDbVertex
100
AcDb2dVertex
 10
1386.015021840396
 20
3565.261787402314
 30
0.0
 42
0.015844170064689
  0
VERTEX
  5
A76
330
909
100
AcDbEntity
  8
_0-0_
  6
Continuous
 62
     7
100
AcDbVertex
100
AcDb2dVertex
 10
1385.591579422278
 20
3564.792891570562
 30
0.0
 42
0.0125145081852181
 70
     1
  0
VERTEX
  5
A4B
330
909
100
AcDbEntity
  8
_0-0_
  6
Continuous
 62
     7
100
AcDbVertex
100
AcDb2dVertex
 10
1385.090033435968
 20
3564.169864594928
 30
0.0
 42
0.0159422896084364
  0
VERTEX
  5
A77
330
909
100
AcDbEntity
  8
_0-0_
  6
Continuous
 62
     7
100
AcDbVertex
100
AcDb2dVertex
 10
1384.593238750566
 20
3563.475280945115
 30
0.0
 42
0.0217477748873311
 70
     1
  0
VERTEX
  5
A4C
330
909
100
AcDbEntity
  8
_0-0_
  6
Continuous
 62
     7
100
AcDbVertex
100
AcDb2dVertex
 10
1384.268364258749
 20
3562.940019945027
 30
0.0
 42
0.0284230300774944
  0
VERTEX
  5
A78
330
909
100
AcDbEntity
  8
_0-0_
  6
Continuous
 62
     7
100
AcDbVertex
100
AcDb2dVertex
 10
1384.008833159582
 20
3562.396087518631
 30
0.0
 42
0.0206071100600698
 70
     1
  0
VERTEX
  5
A4D
330
909
100
AcDbEntity
  8
_0-0_
  6
Continuous
 62
     7
100
AcDbVertex
100
AcDb2dVertex
 10
1383.726128435449
 20
3561.614714314588
 30
0.0
 42
0.0178404217753288
  0
VERTEX
  5
A79
330
909
100
AcDbEntity
  8
_0-0_
  6
Continuous
 62
     7
100
AcDbVertex
100
AcDb2dVertex
 10
1383.717491314467
 20
3561.583538519545
 30
0.0
 42
0.0009364311832679
 70
     1
  0
VERTEX
  5
A4E
330
909
100
AcDbEntity
  8
_0-0_
  6
Continuous
 62
     7
100
AcDbVertex
100
AcDb2dVertex
 10
1383.575399645418
 20
3560.98402433427
 30
0.0
 42
0.0971214582096869
  0
VERTEX
  5
A7A
330
909
100
AcDbEntity
  8
_0-0_
  6
Continuous
 62
     7
100
AcDbVertex
100
AcDb2dVertex
 10
1383.091884734043
 20
3547.995355537159
 30
0.0
 42
0.0998297906938455
 70
     1
  0
VERTEX
  5
A4F
330
909
100
AcDbEntity
  8
_0-0_
  6
Continuous
 62
     7
100
AcDbVertex
100
AcDb2dVertex
 10
1387.494569907629
 20
3536.134387543419
 30
0.0
 42
0.0028513134893574
  0
VERTEX
  5
A7B
330
909
100
AcDbEntity
  8
_0-0_
  6
Continuous
 62
     7
100
AcDbVertex
100
AcDb2dVertex
 10
1388.254628055514
 20
3534.922426144098
 30
0.0
 42
0.0326388048257169
 70
     1
  0
VERTEX
  5
A50
330
909
100
AcDbEntity
  8
_0-0_
  6
Continuous
 62
     7
100
AcDbVertex
100
AcDb2dVertex
 10
1388.328443692509
 20
3534.821416899688
 30
0.0
 42
0.0129747189742598
  0
VERTEX
  5
A7C
330
909
100
AcDbEntity
  8
_0-0_
  6
Continuous
 62
     7
100
AcDbVertex
100
AcDb2dVertex
 10
1389.01839788349
 20
3534.03838062655
 30
0.0
 42
0.0298753151560977
 70
     1
  0
VERTEX
  5
A51
330
909
100
AcDbEntity
  8
_0-0_
  6
Continuous
 62
     7
100
AcDbVertex
100
AcDb2dVertex
 10
1389.346281796045
 20
3533.724974481259
 30
0.0
 42
0.0115632844524039
  0
VERTEX
  5
A7D
330
909
100
AcDbEntity
  8
_0-0_
  6
Continuous
 62
     7
100
AcDbVertex
100
AcDb2dVertex
 10
1389.604212381135
 20
3533.516409804696
 30
0.0
 42
0.005652221602769
 70
     1
  0
VERTEX
  5
A52
330
909
100
AcDbEntity
  8
_0-0_
  6
Continuous
 62
     7
100
AcDbVertex
100
AcDb2dVertex
 10
1390.146205150508
 20
3533.10818784576
 30
0.0
 42
0.020453964968029
  0
VERTEX
  5
A7E
330
909
100
AcDbEntity
  8
_0-0_
  6
Continuous
 62
     7
100
AcDbVertex
100
AcDb2dVertex
 10
1390.753192542091
 20
3532.698841003323
 30
0.0
 42
0.0223416835481831
 70
     1
  0
VERTEX
  5
A53
330
909
100
AcDbEntity
  8
_0-0_
  6
Continuous
 62
     7
100
AcDbVertex
100
AcDb2dVertex
 10
1391.338939466956
 20
3532.372924154789
 30
0.0
 42
0.0889757883295966
  0
VERTEX
  5
A7F
330
909
100
AcDbEntity
  8
_0-0_
  6
Continuous
 62
     7
100
AcDbVertex
100
AcDb2dVertex
 10
1391.838028996199
 20
3532.226381741079
 30
0.0
 42
0.0640050149772889
 70
     1
  0
VERTEX
  5
A54
330
909
100
AcDbEntity
  8
_0-0_
  6
Continuous
 62
     7
100
AcDbVertex
100
AcDb2dVertex
 10
1392.558240489093
 20
3532.240591172818
 30
0.0
 42
0.0567041458926423
  0
VERTEX
  5
A80
330
909
100
AcDbEntity
  8
_0-0_
  6
Continuous
 62
     7
100
AcDbVertex
100
AcDb2dVertex
 10
1393.190303812147
 20
3532.409308764471
 30
0.0
 42
0.0568209283256244
 70
     1
  0
VERTEX
  5
A55
330
909
100
AcDbEntity
  8
_0-0_
  6
Continuous
 62
     7
100
AcDbVertex
100
AcDb2dVertex
 10
1393.767060372358
 20
3532.715209770542
 30
0.0
 42
0.0354811060488177
  0
VERTEX
  5
A81
330
909
100
AcDbEntity
  8
_0-0_
  6
Continuous
 62
     7
100
AcDbVertex
100
AcDb2dVertex
 10
1394.430630557962
 20
3533.243207286039
 30
0.0
 42
0.0410102746535749
 70
     1
  0
VERTEX
  5
A56
330
909
100
AcDbEntity
  8
_0-0_
  6
Continuous
 62
     7
100
AcDbVertex
100
AcDb2dVertex
 10
1394.928669736287
 20
3533.782358902036
 30
0.0
 42
0.0195640765018315
  0
VERTEX
  5
A83
330
909
100
AcDbEntity
  8
_0-0_
  6
Continuous
 62
     7
100
AcDbVertex
100
AcDb2dVertex
 10
1395.2625103153
 20
3534.245381780575
 30
0.0
 42
0.0080762505657149
 70
     1
  0
VERTEX
  5
A57
330
909
100
AcDbEntity
  8
_0-0_
  6
Continuous
 62
     7
100
AcDbVertex
100
AcDb2dVertex
 10
1396.007773668163
 20
3535.409613780943
 30
0.0
 42
0.0269227774394791
  0
VERTEX
  5
A82
330
909
100
AcDbEntity
  8
_0-0_
  6
Continuous
 62
     7
100
AcDbVertex
100
AcDb2dVertex
 10
1396.281016060626
 20
3535.910467455304
 30
0.0
 42
0.0155278052454289
 70
     1
  0
VERTEX
  5
A58
330
909
100
AcDbEntity
  8
_0-0_
  6
Continuous
 62
     7
100
AcDbVertex
100
AcDb2dVertex
 10
1396.679250709393
 20
3536.815471776009
 30
0.0
  0
SEQEND
  5
A59
330
909
100
AcDbEntity
  8
_0-0_
  6
Continuous
 62
     7
  0
TEXT
  5
90A
330
20
100
AcDbEntity
  8
_0-0_
 62
     7
100
AcDbText
 10
1405.994920838181
 20
3527.59638290938
 30
0.0
 40
27.0
  1
2
 50
0.0000000000002398
 41
0.8
  7
MSゴシック
100
AcDbText
  0
TEXT
  5
90B
330
20
100
AcDbEntity
  8
_0-0_
 62
     7
100
AcDbText
 10
1297.99492083818
 20
2747.59638290938
 30
0.0
 40
27.0
  1
1
 50
0.0000000000002398
 41
0.8
  7
MSゴシック
100
AcDbText
  0
POLYLINE
  5
90C
330
20
100
AcDbEntity
  8
_0-0_
  6
Continuous
 62
     7
100
AcDb2dPolyline
 66
     1
 10
0.0
 20
0.0
 30
0.0
 70
     2
 40
2.0
 41
2.0
  0
VERTEX
  5
ADB
330
90C
100
AcDbEntity
  8
_0-0_
  6
Continuous
 62
     7
100
AcDbVertex
100
AcDb2dVertex
 10
1271.861572250575
 20
2753.301844285636
 30
0.0
  0
VERTEX
  5
ADC
330
90C
100
AcDbEntity
  8
_0-0_
  6
Continuous
 62
     7
100
AcDbVertex
100
AcDb2dVertex
 10
1271.861572250575
 20
2753.301844285636
 30
0.0
 42
0.0348466189745144
  0
VERTEX
  5
B08
330
90C
100
AcDbEntity
  8
_0-0_
  6
Continuous
 62
     7
100
AcDbVertex
100
AcDb2dVertex
 10
1272.843844392884
 20
2753.273876954282
 30
0.0
 42
0.0611442415310602
 70
     1
  0
VERTEX
  5
ADD
330
90C
100
AcDbEntity
  8
_0-0_
  6
Continuous
 62
     7
100
AcDbVertex
100
AcDb2dVertex
 10
1273.397815675701
 20
2753.365174365225
 30
0.0
 42
0.0152221414431845
  0
VERTEX
  5
B09
330
90C
100
AcDbEntity
  8
_0-0_
  6
Continuous
 62
     7
100
AcDbVertex
100
AcDb2dVertex
 10
1274.590354564036
 20
2753.754970478406
 30
0.0
 42
0.0332604620228492
 70
     1
  0
VERTEX
  5
ADE
330
90C
100
AcDbEntity
  8
_0-0_
  6
Continuous
 62
     7
100
AcDbVertex
100
AcDb2dVertex
 10
1275.116768753801
 20
2753.985554795156
 30
0.0
 42
0.0200758100399024
  0
VERTEX
  5
B0A
330
90C
100
AcDbEntity
  8
_0-0_
  6
Continuous
 62
     7
100
AcDbVertex
100
AcDb2dVertex
 10
1276.218693605901
 20
2754.615738304545
 30
0.0
 42
0.0278495056909346
 70
     1
  0
VERTEX
  5
ADF
330
90C
100
AcDbEntity
  8
_0-0_
  6
Continuous
 62
     7
100
AcDbVertex
100
AcDb2dVertex
 10
1276.96620196543
 20
2755.144135629991
 30
0.0
 42
0.0103505259053601
  0
VERTEX
  5
B0B
330
90C
100
AcDbEntity
  8
_0-0_
  6
Continuous
 62
     7
100
AcDbVertex
100
AcDb2dVertex
 10
1278.117982411888
 20
2756.098061733859
 30
0.0
 42
0.0147831202166067
 70
     1
  0
VERTEX
  5
AE0
330
90C
100
AcDbEntity
  8
_0-0_
  6
Continuous
 62
     7
100
AcDbVertex
100
AcDb2dVertex
 10
1278.88992121831
 20
2756.805713977336
 30
0.0
 42
0.0021500350953275
  0
VERTEX
  5
B0C
330
90C
100
AcDbEntity
  8
_0-0_
  6
Continuous
 62
     7
100
AcDbVertex
100
AcDb2dVertex
 10
1279.019122113779
 20
2756.932468526676
 30
0.0
 42
0.0033851729533085
 70
     1
  0
VERTEX
  5
AE1
330
90C
100
AcDbEntity
  8
_0-0_
  6
Continuous
 62
     7
100
AcDbVertex
100
AcDb2dVertex
 10
1279.10028618025
 20
2757.013878563313
 30
0.0
 42
0.0444907029179368
  0
VERTEX
  5
B0D
330
90C
100
AcDbEntity
  8
_0-0_
  6
Continuous
 62
     7
100
AcDbVertex
100
AcDb2dVertex
 10
1279.585591935869
 20
2757.604058577082
 30
0.0
 42
0.0152761258850606
 70
     1
  0
VERTEX
  5
AE2
330
90C
100
AcDbEntity
  8
_0-0_
  6
Continuous
 62
     7
100
AcDbVertex
100
AcDb2dVertex
 10
1280.781980302571
 20
2759.475862187292
 30
0.0
 42
0.0066957660522721
  0
VERTEX
  5
B0E
330
90C
100
AcDbEntity
  8
_0-0_
  6
Continuous
 62
     7
100
AcDbVertex
100
AcDb2dVertex
 10
1281.764924548112
 20
2761.173743548031
 30
0.0
 42
0.0103887987762305
 70
     1
  0
VERTEX
  5
AE3
330
90C
100
AcDbEntity
  8
_0-0_
  6
Continuous
 62
     7
100
AcDbVertex
100
AcDb2dVertex
 10
1282.360733983061
 20
2762.289132190546
 30
0.0
 42
0.0089064125467292
  0
VERTEX
  5
B0F
330
90C
100
AcDbEntity
  8
_0-0_
  6
Continuous
 62
     7
100
AcDbVertex
100
AcDb2dVertex
 10
1283.172533073081
 20
2763.961048993051
 30
0.0
 42
0.0107765619223194
 70
     1
  0
VERTEX
  5
AE4
330
90C
100
AcDbEntity
  8
_0-0_
  6
Continuous
 62
     7
100
AcDbVertex
100
AcDb2dVertex
 10
1283.788577590029
 20
2765.368208787612
 30
0.0
 42
0.0071207367930844
  0
VERTEX
  5
B10
330
90C
100
AcDbEntity
  8
_0-0_
  6
Continuous
 62
     7
100
AcDbVertex
100
AcDb2dVertex
 10
1284.441651356407
 20
2767.018303872931
 30
0.0
 42
0.0074194056802683
 70
     1
  0
VERTEX
  5
AE5
330
90C
100
AcDbEntity
  8
_0-0_
  6
Continuous
 62
     7
100
AcDbVertex
100
AcDb2dVertex
 10
1285.022126817999
 20
2768.619535794174
 30
0.0
 42
0.0112927049605698
  0
VERTEX
  5
B11
330
90C
100
AcDbEntity
  8
_0-0_
  6
Continuous
 62
     7
100
AcDbVertex
100
AcDb2dVertex
 10
1285.272648687735
 20
2769.400648319287
 30
0.0
 42
-0.0141139778244986
 70
     1
  0
VERTEX
  5
AE6
330
90C
100
AcDbEntity
  8
_0-0_
  6
Continuous
 62
     7
100
AcDbVertex
100
AcDb2dVertex
 10
1285.476630495794
 20
2770.02452654671
 30
0.0
 42
-0.0385395619423555
  0
VERTEX
  5
B12
330
90C
100
AcDbEntity
  8
_0-0_
  6
Continuous
 62
     7
100
AcDbVertex
100
AcDb2dVertex
 10
1285.767719808991
 20
2770.674141625395
 30
0.0
 42
0.0331328977384118
 70
     1
  0
VERTEX
  5
AE7
330
90C
100
AcDbEntity
  8
_0-0_
  6
Continuous
 62
     7
100
AcDbVertex
100
AcDb2dVertex
 10
1286.114315613003
 20
2771.425770125931
 30
0.0
 42
0.0162478442300487
  0
VERTEX
  5
B13
330
90C
100
AcDbEntity
  8
_0-0_
  6
Continuous
 62
     7
100
AcDbVertex
100
AcDb2dVertex
 10
1286.372217169186
 20
2772.170603656727
 30
0.0
 42
0.0151396794307447
 70
     1
  0
VERTEX
  5
AE8
330
90C
100
AcDbEntity
  8
_0-0_
  6
Continuous
 62
     7
100
AcDbVertex
100
AcDb2dVertex
 10
1286.598300848008
 20
2772.985715460446
 30
0.0
 42
0.013414703069419
  0
VERTEX
  5
B14
330
90C
100
AcDbEntity
  8
_0-0_
  6
Continuous
 62
     7
100
AcDbVertex
100
AcDb2dVertex
 10
1286.781362615302
 20
2773.830247273234
 30
0.0
 42
0.0138454350647881
 70
     1
  0
VERTEX
  5
AE9
330
90C
100
AcDbEntity
  8
_0-0_
  6
Continuous
 62
     7
100
AcDbVertex
100
AcDb2dVertex
 10
1286.913880554353
 20
2774.656964400637
 30
0.0
 42
0.01299366722551
  0
VERTEX
  5
B15
330
90C
100
AcDbEntity
  8
_0-0_
  6
Continuous
 62
     7
100
AcDbVertex
100
AcDb2dVertex
 10
1287.005718932386
 20
2775.526171357077
 30
0.0
 42
0.0131481711145676
 70
     1
  0
VERTEX
  5
AEA
330
90C
100
AcDbEntity
  8
_0-0_
  6
Continuous
 62
     7
100
AcDbVertex
100
AcDb2dVertex
 10
1287.05146600235
 20
2776.388736893148
 30
0.0
 42
0.0130799328709001
  0
VERTEX
  5
B16
330
90C
100
AcDbEntity
  8
_0-0_
  6
Continuous
 62
     7
100
AcDbVertex
100
AcDb2dVertex
 10
1287.051928201992
 20
2777.255566669908
 30
0.0
 42
0.0129724564119425
 70
     1
  0
VERTEX
  5
AEB
330
90C
100
AcDbEntity
  8
_0-0_
  6
Continuous
 62
     7
100
AcDbVertex
100
AcDb2dVertex
 10
1287.006876727785
 20
2778.128413907115
 30
0.0
 42
0.0136804442003347
  0
VERTEX
  5
B17
330
90C
100
AcDbEntity
  8
_0-0_
  6
Continuous
 62
     7
100
AcDbVertex
100
AcDb2dVertex
 10
1286.906201698133
 20
2779.084878822661
 30
0.0
 42
0.0175749805667398
 70
     1
  0
VERTEX
  5
AEC
330
90C
100
AcDbEntity
  8
_0-0_
  6
Continuous
 62
     7
100
AcDbVertex
100
AcDb2dVertex
 10
1286.7814675532
 20
2779.823136236787
 30
0.0
 42
0.0105865329846066
  0
VERTEX
  5
B18
330
90C
100
AcDbEntity
  8
_0-0_
  6
Continuous
 62
     7
100
AcDbVertex
100
AcDb2dVertex
 10
1286.565076109209
 20
2780.774295521129
 30
0.0
 42
0.015357932433693
 70
     1
  0
VERTEX
  5
AED
330
90C
100
AcDbEntity
  8
_0-0_
  6
Continuous
 62
     7
100
AcDbVertex
100
AcDb2dVertex
 10
1286.382087422303
 20
2781.421410601747
 30
0.0
 42
0.0024884922149617
  0
VERTEX
  5
B19
330
90C
100
AcDbEntity
  8
_0-0_
  6
Continuous
 62
     7
100
AcDbVertex
100
AcDb2dVertex
 10
1286.357337846396
 20
2781.498337116727
 30
0.0
 42
-0.0022968619244999
 70
     1
  0
VERTEX
  5
AEE
330
90C
100
AcDbEntity
  8
_0-0_
  6
Continuous
 62
     7
100
AcDbVertex
100
AcDb2dVertex
 10
1286.330491477018
 20
2781.581671316266
 30
0.0
 42
-0.0397983984122669
  0
VERTEX
  5
B1A
330
90C
100
AcDbEntity
  8
_0-0_
  6
Continuous
 62
     7
100
AcDbVertex
100
AcDb2dVertex
 10
1286.189680417756
 20
2782.189888439399
 30
0.0
 42
0.0317774908664418
 70
     1
  0
VERTEX
  5
AEF
330
90C
100
AcDbEntity
  8
_0-0_
  6
Continuous
 62
     7
100
AcDbVertex
100
AcDb2dVertex
 10
1286.025647579957
 20
2782.953914030916
 30
0.0
 42
0.025997141873169
  0
VERTEX
  5
B1B
330
90C
100
AcDbEntity
  8
_0-0_
  6
Continuous
 62
     7
100
AcDbVertex
100
AcDb2dVertex
 10
1285.832534431053
 20
2783.523270851187
 30
0.0
 42
0.0198764702602999
 70
     1
  0
VERTEX
  5
AF0
330
90C
100
AcDbEntity
  8
_0-0_
  6
Continuous
 62
     7
100
AcDbVertex
100
AcDb2dVertex
 10
1285.51289237296
 20
2784.241483732521
 30
0.0
 42
0.0236273287525858
  0
VERTEX
  5
B1C
330
90C
100
AcDbEntity
  8
_0-0_
  6
Continuous
 62
     7
100
AcDbVertex
100
AcDb2dVertex
 10
1285.211320439475
 20
2784.786073684311
 30
0.0
 42
0.0227635298296181
 70
     1
  0
VERTEX
  5
AF1
330
90C
100
AcDbEntity
  8
_0-0_
  6
Continuous
 62
     7
100
AcDbVertex
100
AcDb2dVertex
 10
1284.847304518919
 20
2785.319881951549
 30
0.0
 42
0.0295049547814638
  0
VERTEX
  5
B1D
330
90C
100
AcDbEntity
  8
_0-0_
  6
Continuous
 62
     7
100
AcDbVertex
100
AcDb2dVertex
 10
1284.484227653571
 20
2785.748324873897
 30
0.0
 42
0.0277758321590552
 70
     1
  0
VERTEX
  5
AF2
330
90C
100
AcDbEntity
  8
_0-0_
  6
Continuous
 62
     7
100
AcDbVertex
100
AcDb2dVertex
 10
1284.049107567976
 20
2786.156342103813
 30
0.0
 42
0.0342979536145626
  0
VERTEX
  5
B1E
330
90C
100
AcDbEntity
  8
_0-0_
  6
Continuous
 62
     7
100
AcDbVertex
100
AcDb2dVertex
 10
1283.622917401859
 20
2786.466534067204
 30
0.0
 42
0.0331278282114592
 70
     1
  0
VERTEX
  5
AF3
330
90C
100
AcDbEntity
  8
_0-0_
  6
Continuous
 62
     7
100
AcDbVertex
100
AcDb2dVertex
 10
1283.14255433058
 20
2786.725448770853
 30
0.0
 42
0.0369218515169687
  0
VERTEX
  5
B1F
330
90C
100
AcDbEntity
  8
_0-0_
  6
Continuous
 62
     7
100
AcDbVertex
100
AcDb2dVertex
 10
1282.661288570878
 20
2786.903481853745
 30
0.0
 42
0.0366334972306891
 70
     1
  0
VERTEX
  5
AF4
330
90C
100
AcDbEntity
  8
_0-0_
  6
Continuous
 62
     7
100
AcDbVertex
100
AcDb2dVertex
 10
1282.15518996811
 20
2787.009909934575
 30
0.0
 42
0.0356499845906156
  0
VERTEX
  5
B20
330
90C
100
AcDbEntity
  8
_0-0_
  6
Continuous
 62
     7
100
AcDbVertex
100
AcDb2dVertex
 10
1281.631077072608
 20
2787.042850220804
 30
0.0
 42
0.0363008017065651
 70
     1
  0
VERTEX
  5
AF5
330
90C
100
AcDbEntity
  8
_0-0_
  6
Continuous
 62
     7
100
AcDbVertex
100
AcDb2dVertex
 10
1281.117015047088
 20
2787.001082386462
 30
0.0
 42
0.0311136300033559
  0
VERTEX
  5
B21
330
90C
100
AcDbEntity
  8
_0-0_
  6
Continuous
 62
     7
100
AcDbVertex
100
AcDb2dVertex
 10
1280.566670224467
 20
2786.880410865272
 30
0.0
 42
0.0325570026448693
 70
     1
  0
VERTEX
  5
AF6
330
90C
100
AcDbEntity
  8
_0-0_
  6
Continuous
 62
     7
100
AcDbVertex
100
AcDb2dVertex
 10
1280.059573987149
 20
2786.699234347097
 30
0.0
 42
0.0257017148355099
  0
VERTEX
  5
B22
330
90C
100
AcDbEntity
  8
_0-0_
  6
Continuous
 62
     7
100
AcDbVertex
100
AcDb2dVertex
 10
1279.503909997882
 20
2786.424186806728
 30
0.0
 42
0.0275125935020582
 70
     1
  0
VERTEX
  5
AF7
330
90C
100
AcDbEntity
  8
_0-0_
  6
Continuous
 62
     7
100
AcDbVertex
100
AcDb2dVertex
 10
1279.014996599806
 20
2786.113537316414
 30
0.0
 42
0.0211221603879015
  0
VERTEX
  5
B23
330
90C
100
AcDbEntity
  8
_0-0_
  6
Continuous
 62
     7
100
AcDbVertex
100
AcDb2dVertex
 10
1278.455729981639
 20
2785.676537740161
 30
0.0
 42
0.0247761558638415
 70
     1
  0
VERTEX
  5
AF8
330
90C
100
AcDbEntity
  8
_0-0_
  6
Continuous
 62
     7
100
AcDbVertex
100
AcDb2dVertex
 10
1278.015021840395
 20
2785.261787402314
 30
0.0
 42
0.0158441700640252
  0
VERTEX
  5
B24
330
90C
100
AcDbEntity
  8
_0-0_
  6
Continuous
 62
     7
100
AcDbVertex
100
AcDb2dVertex
 10
1277.591579422274
 20
2784.79289157056
 30
0.0
 42
0.0125145081845592
 70
     1
  0
VERTEX
  5
AF9
330
90C
100
AcDbEntity
  8
_0-0_
  6
Continuous
 62
     7
100
AcDbVertex
100
AcDb2dVertex
 10
1277.090033435968
 20
2784.169864594928
 30
0.0
 42
0.0159422896089629
  0
VERTEX
  5
B25
330
90C
100
AcDbEntity
  8
_0-0_
  6
Continuous
 62
     7
100
AcDbVertex
100
AcDb2dVertex
 10
1276.593238750566
 20
2783.475280945114
 30
0.0
 42
0.0217477748880187
 70
     1
  0
VERTEX
  5
AFA
330
90C
100
AcDbEntity
  8
_0-0_
  6
Continuous
 62
     7
100
AcDbVertex
100
AcDb2dVertex
 10
1276.268364258748
 20
2782.940019945027
 30
0.0
 42
0.0284230300776725
  0
VERTEX
  5
B26
330
90C
100
AcDbEntity
  8
_0-0_
  6
Continuous
 62
     7
100
AcDbVertex
100
AcDb2dVertex
 10
1276.008833159582
 20
2782.396087518631
 30
0.0
 42
0.020607110060234
 70
     1
  0
VERTEX
  5
AFB
330
90C
100
AcDbEntity
  8
_0-0_
  6
Continuous
 62
     7
100
AcDbVertex
100
AcDb2dVertex
 10
1275.726128435448
 20
2781.614714314589
 30
0.0
 42
0.0178404217682314
  0
VERTEX
  5
B27
330
90C
100
AcDbEntity
  8
_0-0_
  6
Continuous
 62
     7
100
AcDbVertex
100
AcDb2dVertex
 10
1275.717491314467
 20
2781.58353851955
 30
0.0
 42
0.0009364311830499
 70
     1
  0
VERTEX
  5
AFC
330
90C
100
AcDbEntity
  8
_0-0_
  6
Continuous
 62
     7
100
AcDbVertex
100
AcDb2dVertex
 10
1275.575399645418
 20
2780.98402433427
 30
0.0
 42
0.0971214582096856
  0
VERTEX
  5
B28
330
90C
100
AcDbEntity
  8
_0-0_
  6
Continuous
 62
     7
100
AcDbVertex
100
AcDb2dVertex
 10
1275.091884734042
 20
2767.995355537161
 30
0.0
 42
0.0998297906938581
 70
     1
  0
VERTEX
  5
AFD
330
90C
100
AcDbEntity
  8
_0-0_
  6
Continuous
 62
     7
100
AcDbVertex
100
AcDb2dVertex
 10
1279.494569907629
 20
2756.134387543419
 30
0.0
 42
0.0028513134879287
  0
VERTEX
  5
B29
330
90C
100
AcDbEntity
  8
_0-0_
  6
Continuous
 62
     7
100
AcDbVertex
100
AcDb2dVertex
 10
1280.254628055507
 20
2754.922426144102
 30
0.0
 42
0.0326388048111971
 70
     1
  0
VERTEX
  5
AFE
330
90C
100
AcDbEntity
  8
_0-0_
  6
Continuous
 62
     7
100
AcDbVertex
100
AcDb2dVertex
 10
1280.328443692509
 20
2754.821416899688
 30
0.0
 42
0.0129747189742792
  0
VERTEX
  5
B2A
330
90C
100
AcDbEntity
  8
_0-0_
  6
Continuous
 62
     7
100
AcDbVertex
100
AcDb2dVertex
 10
1281.01839788349
 20
2754.038380626549
 30
0.0
 42
0.0298753151560816
 70
     1
  0
VERTEX
  5
AFF
330
90C
100
AcDbEntity
  8
_0-0_
  6
Continuous
 62
     7
100
AcDbVertex
100
AcDb2dVertex
 10
1281.346281796045
 20
2753.72497448126
 30
0.0
 42
0.0115632844608314
  0
VERTEX
  5
B2B
330
90C
100
AcDbEntity
  8
_0-0_
  6
Continuous
 62
     7
100
AcDbVertex
100
AcDb2dVertex
 10
1281.604212381135
 20
2753.516409804703
 30
0.0
 42
0.0056522216069858
 70
     1
  0
VERTEX
  5
B00
330
90C
100
AcDbEntity
  8
_0-0_
  6
Continuous
 62
     7
100
AcDbVertex
100
AcDb2dVertex
 10
1282.146205150507
 20
2753.10818784576
 30
0.0
 42
0.0204539649658366
  0
VERTEX
  5
B2C
330
90C
100
AcDbEntity
  8
_0-0_
  6
Continuous
 62
     7
100
AcDbVertex
100
AcDb2dVertex
 10
1282.753192542081
 20
2752.698841003327
 30
0.0
 42
0.0223416835464638
 70
     1
  0
VERTEX
  5
B01
330
90C
100
AcDbEntity
  8
_0-0_
  6
Continuous
 62
     7
100
AcDbVertex
100
AcDb2dVertex
 10
1283.338939466956
 20
2752.372924154789
 30
0.0
 42
0.0889757883297207
  0
VERTEX
  5
B2D
330
90C
100
AcDbEntity
  8
_0-0_
  6
Continuous
 62
     7
100
AcDbVertex
100
AcDb2dVertex
 10
1283.838028996199
 20
2752.226381741079
 30
0.0
 42
0.0640050149772826
 70
     1
  0
VERTEX
  5
B02
330
90C
100
AcDbEntity
  8
_0-0_
  6
Continuous
 62
     7
100
AcDbVertex
100
AcDb2dVertex
 10
1284.558240489093
 20
2752.240591172819
 30
0.0
 42
0.0567041458930463
  0
VERTEX
  5
B2E
330
90C
100
AcDbEntity
  8
_0-0_
  6
Continuous
 62
     7
100
AcDbVertex
100
AcDb2dVertex
 10
1285.190303812148
 20
2752.409308764473
 30
0.0
 42
0.0568209283257506
 70
     1
  0
VERTEX
  5
B03
330
90C
100
AcDbEntity
  8
_0-0_
  6
Continuous
 62
     7
100
AcDbVertex
100
AcDb2dVertex
 10
1285.767060372357
 20
2752.715209770542
 30
0.0
 42
0.0354811060487748
  0
VERTEX
  5
B2F
330
90C
100
AcDbEntity
  8
_0-0_
  6
Continuous
 62
     7
100
AcDbVertex
100
AcDb2dVertex
 10
1286.430630557961
 20
2753.243207286038
 30
0.0
 42
0.0410102746535923
 70
     1
  0
VERTEX
  5
B04
330
90C
100
AcDbEntity
  8
_0-0_
  6
Continuous
 62
     7
100
AcDbVertex
100
AcDb2dVertex
 10
1286.928669736287
 20
2753.782358902036
 30
0.0
 42
0.0195640765020271
  0
VERTEX
  5
B31
330
90C
100
AcDbEntity
  8
_0-0_
  6
Continuous
 62
     7
100
AcDbVertex
100
AcDb2dVertex
 10
1287.2625103153
 20
2754.245381780577
 30
0.0
 42
0.0080762505657427
 70
     1
  0
VERTEX
  5
B05
330
90C
100
AcDbEntity
  8
_0-0_
  6
Continuous
 62
     7
100
AcDbVertex
100
AcDb2dVertex
 10
1288.007773668162
 20
2755.409613780943
 30
0.0
 42
0.0269227774395584
  0
VERTEX
  5
B30
330
90C
100
AcDbEntity
  8
_0-0_
  6
Continuous
 62
     7
100
AcDbVertex
100
AcDb2dVertex
 10
1288.281016060624
 20
2755.910467455302
 30
0.0
 42
0.015527805245607
 70
     1
  0
VERTEX
  5
B06
330
90C
100
AcDbEntity
  8
_0-0_
  6
Continuous
 62
     7
100
AcDbVertex
100
AcDb2dVertex
 10
1288.679250709392
 20
2756.815471776009
 30
0.0
  0
SEQEND
  5
B07
330
90C
100
AcDbEntity
  8
_0-0_
  6
Continuous
 62
     7
  0
POLYLINE
  5
90D
330
20
100
AcDbEntity
  8
_0-0_
  6
Continuous
 62
     7
100
AcDb2dPolyline
 66
     1
 10
0.0
 20
0.0
 30
0.0
 70
     2
 40
2.0
 41
2.0
  0
VERTEX
  5
B32
330
90D
100
AcDbEntity
  8
_0-0_
  6
Continuous
 62
     7
100
AcDbVertex
100
AcDb2dVertex
 10
777.9379710381325
 20
2970.349963397985
 30
0.0
  0
VERTEX
  5
B33
330
90D
100
AcDbEntity
  8
_0-0_
  6
Continuous
 62
     7
100
AcDbVertex
100
AcDb2dVertex
 10
777.9379710381325
 20
2970.349963397985
 30
0.0
 42
0.034846618974042
  0
VERTEX
  5
B5F
330
90D
100
AcDbEntity
  8
_0-0_
  6
Continuous
 62
     7
100
AcDbVertex
100
AcDb2dVertex
 10
778.6127664412743
 20
2969.635616215537
 30
0.0
 42
0.0611442415309204
 70
     1
  0
VERTEX
  5
B34
330
90D
100
AcDbEntity
  8
_0-0_
  6
Continuous
 62
     7
100
AcDbVertex
100
AcDb2dVertex
 10
779.0690403103223
 20
2969.308456383256
 30
0.0
 42
0.0152221414442455
  0
VERTEX
  5
B60
330
90D
100
AcDbEntity
  8
_0-0_
  6
Continuous
 62
     7
100
AcDbVertex
100
AcDb2dVertex
 10
780.1879201200063
 20
2968.740831523397
 30
0.0
 42
0.0332604620248819
 70
     1
  0
VERTEX
  5
B35
330
90D
100
AcDbEntity
  8
_0-0_
  6
Continuous
 62
     7
100
AcDbVertex
100
AcDb2dVertex
 10
780.7231988973074
 20
2968.531648214108
 30
0.0
 42
0.0200758100402936
  0
VERTEX
  5
B61
330
90D
100
AcDbEntity
  8
_0-0_
  6
Continuous
 62
     7
100
AcDbVertex
100
AcDb2dVertex
 10
781.9479844654706
 20
2968.198076711712
 30
0.0
 42
0.0278495056911078
 70
     1
  0
VERTEX
  5
B36
330
90D
100
AcDbEntity
  8
_0-0_
  6
Continuous
 62
     7
100
AcDbVertex
100
AcDb2dVertex
 10
782.8501860274667
 20
2968.043141813679
 30
0.0
 42
0.010350525904921
  0
VERTEX
  5
B62
330
90D
100
AcDbEntity
  8
_0-0_
  6
Continuous
 62
     7
100
AcDbVertex
100
AcDb2dVertex
 10
784.3391454083903
 20
2967.903237666345
 30
0.0
 42
0.0147831202161047
 70
     1
  0
VERTEX
  5
B37
330
90D
100
AcDbEntity
  8
_0-0_
  6
Continuous
 62
     7
100
AcDbVertex
100
AcDb2dVertex
 10
785.3853742731574
 20
2967.857780201749
 30
0.0
 42
0.0021500350814784
  0
VERTEX
  5
B63
330
90D
100
AcDbEntity
  8
_0-0_
  6
Continuous
 62
     7
100
AcDbVertex
100
AcDb2dVertex
 10
785.5663621038547
 20
2967.856050373807
 30
0.0
 42
0.0033851729319591
 70
     1
  0
VERTEX
  5
B38
330
90D
100
AcDbEntity
  8
_0-0_
  6
Continuous
 62
     7
100
AcDbVertex
100
AcDb2dVertex
 10
785.6813193546169
 20
2967.856224300984
 30
0.0
 42
0.0444907029169812
  0
VERTEX
  5
B64
330
90D
100
AcDbEntity
  8
_0-0_
  6
Continuous
 62
     7
100
AcDbVertex
100
AcDb2dVertex
 10
786.4418026352214
 20
2967.930381600093
 30
0.0
 42
0.0152761258848055
 70
     1
  0
VERTEX
  5
B39
330
90D
100
AcDbEntity
  8
_0-0_
  6
Continuous
 62
     7
100
AcDbVertex
100
AcDb2dVertex
 10
788.611341988077
 20
2968.407972298895
 30
0.0
 42
0.0066957660515562
  0
VERTEX
  5
B65
330
90D
100
AcDbEntity
  8
_0-0_
  6
Continuous
 62
     7
100
AcDbVertex
100
AcDb2dVertex
 10
790.5069719534804
 20
2968.913509181177
 30
0.0
 42
0.0103887987747735
 70
     1
  0
VERTEX
  5
B3A
330
90D
100
AcDbEntity
  8
_0-0_
  6
Continuous
 62
     7
100
AcDbVertex
100
AcDb2dVertex
 10
791.7169717179855
 20
2969.280907162207
 30
0.0
 42
0.0089064125466916
  0
VERTEX
  5
B66
330
90D
100
AcDbEntity
  8
_0-0_
  6
Continuous
 62
     7
100
AcDbVertex
100
AcDb2dVertex
 10
793.4732240681332
 20
2969.889102229325
 30
0.0
 42
0.0107765619221469
 70
     1
  0
VERTEX
  5
B3B
330
90D
100
AcDbEntity
  8
_0-0_
  6
Continuous
 62
     7
100
AcDbVertex
100
AcDb2dVertex
 10
794.9038455565236
 20
2970.448505206824
 30
0.0
 42
0.0071207367927117
  0
VERTEX
  5
B67
330
90D
100
AcDbEntity
  8
_0-0_
  6
Continuous
 62
     7
100
AcDbVertex
100
AcDb2dVertex
 10
796.5324318697676
 20
2971.15350574243
 30
0.0
 42
0.0074194056800328
 70
     1
  0
VERTEX
  5
B3C
330
90D
100
AcDbEntity
  8
_0-0_
  6
Continuous
 62
     7
100
AcDbVertex
100
AcDb2dVertex
 10
798.075131954744
 20
2971.875289556995
 30
0.0
 42
0.0112927049543935
  0
VERTEX
  5
B68
330
90D
100
AcDbEntity
  8
_0-0_
  6
Continuous
 62
     7
100
AcDbVertex
100
AcDb2dVertex
 10
798.8046076310516
 20
2972.250473807436
 30
0.0
 42
-0.014113977832309
 70
     1
  0
VERTEX
  5
B3D
330
90D
100
AcDbEntity
  8
_0-0_
  6
Continuous
 62
     7
100
AcDbVertex
100
AcDb2dVertex
 10
799.3899930760095
 20
2972.547385412974
 30
0.0
 42
-0.0385395619424868
  0
VERTEX
  5
B69
330
90D
100
AcDbEntity
  8
_0-0_
  6
Continuous
 62
     7
100
AcDbVertex
100
AcDb2dVertex
 10
800.0551715306009
 20
2972.80090141298
 30
0.0
 42
0.0331328977382658
 70
     1
  0
VERTEX
  5
B3E
330
90D
100
AcDbEntity
  8
_0-0_
  6
Continuous
 62
     7
100
AcDbVertex
100
AcDb2dVertex
 10
800.8317333836107
 20
2973.087302779295
 30
0.0
 42
0.016247844231077
  0
VERTEX
  5
B6A
330
90D
100
AcDbEntity
  8
_0-0_
  6
Continuous
 62
     7
100
AcDbVertex
100
AcDb2dVertex
 10
801.5407741633426
 20
2973.43161568052
 30
0.0
 42
0.0151396794318896
 70
     1
  0
VERTEX
  5
B3F
330
90D
100
AcDbEntity
  8
_0-0_
  6
Continuous
 62
     7
100
AcDbVertex
100
AcDb2dVertex
 10
802.2770105495935
 20
2973.848121461944
 30
0.0
 42
0.0134147030684549
  0
VERTEX
  5
B6B
330
90D
100
AcDbEntity
  8
_0-0_
  6
Continuous
 62
     7
100
AcDbVertex
100
AcDb2dVertex
 10
803.0036289383751
 20
2974.315851416664
 30
0.0
 42
0.0138454350637336
 70
     1
  0
VERTEX
  5
B40
330
90D
100
AcDbEntity
  8
_0-0_
  6
Continuous
 62
     7
100
AcDbVertex
100
AcDb2dVertex
 10
803.6819105586147
 20
2974.806724370243
 30
0.0
 42
0.0129936672263431
  0
VERTEX
  5
B6C
330
90D
100
AcDbEntity
  8
_0-0_
  6
Continuous
 62
     7
100
AcDbVertex
100
AcDb2dVertex
 10
804.3614722316487
 20
2975.356406963518
 30
0.0
 42
0.0131481711153203
 70
     1
  0
VERTEX
  5
B41
330
90D
100
AcDbEntity
  8
_0-0_
  6
Continuous
 62
     7
100
AcDbVertex
100
AcDb2dVertex
 10
805.0037462348131
 20
2975.933984839899
 30
0.0
 42
0.0130799328711765
  0
VERTEX
  5
B6D
330
90D
100
AcDbEntity
  8
_0-0_
  6
Continuous
 62
     7
100
AcDbVertex
100
AcDb2dVertex
 10
805.6170142725932
 20
2976.546599228678
 30
0.0
 42
0.0129724564123292
 70
     1
  0
VERTEX
  5
B42
330
90D
100
AcDbEntity
  8
_0-0_
  6
Continuous
 62
     7
100
AcDbVertex
100
AcDb2dVertex
 10
806.2023542700497
 20
2977.195651631963
 30
0.0
 42
0.0136804442007747
  0
VERTEX
  5
B6E
330
90D
100
AcDbEntity
  8
_0-0_
  6
Continuous
 62
     7
100
AcDbVertex
100
AcDb2dVertex
 10
806.8074891016385
 20
2977.943162455878
 30
0.0
 42
0.0175749805671241
 70
     1
  0
VERTEX
  5
B43
330
90D
100
AcDbEntity
  8
_0-0_
  6
Continuous
 62
     7
100
AcDbVertex
100
AcDb2dVertex
 10
807.2413155656978
 20
2978.553389639392
 30
0.0
 42
0.0105865329849096
  0
VERTEX
  5
B6F
330
90D
100
AcDbEntity
  8
_0-0_
  6
Continuous
 62
     7
100
AcDbVertex
100
AcDb2dVertex
 10
807.7608748882029
 20
2979.378972676768
 30
0.0
 42
0.0153579324344648
 70
     1
  0
VERTEX
  5
B44
330
90D
100
AcDbEntity
  8
_0-0_
  6
Continuous
 62
     7
100
AcDbVertex
100
AcDb2dVertex
 10
808.0890618085296
 20
2979.96594467988
 30
0.0
 42
0.0024884918814485
  0
VERTEX
  5
B70
330
90D
100
AcDbEntity
  8
_0-0_
  6
Continuous
 62
     7
100
AcDbVertex
100
AcDb2dVertex
 10
808.1259564760175
 20
2980.037840533206
 30
0.0
 42
-0.0022968622323331
 70
     1
  0
VERTEX
  5
B45
330
90D
100
AcDbEntity
  8
_0-0_
  6
Continuous
 62
     7
100
AcDbVertex
100
AcDb2dVertex
 10
808.1658994037315
 20
2980.115749960667
 30
0.0
 42
-0.0397983984095041
  0
VERTEX
  5
B71
330
90D
100
AcDbEntity
  8
_0-0_
  6
Continuous
 62
     7
100
AcDbVertex
100
AcDb2dVertex
 10
808.4964054010594
 20
2980.645392867741
 30
0.0
 42
0.0317774908688925
 70
     1
  0
VERTEX
  5
B46
330
90D
100
AcDbEntity
  8
_0-0_
  6
Continuous
 62
     7
100
AcDbVertex
100
AcDb2dVertex
 10
808.9206643458789
 20
2981.301629276446
 30
0.0
 42
0.0259971418744339
  0
VERTEX
  5
B72
330
90D
100
AcDbEntity
  8
_0-0_
  6
Continuous
 62
     7
100
AcDbVertex
100
AcDb2dVertex
 10
809.1867087972795
 20
2981.8407769621
 30
0.0
 42
0.0198764702611213
 70
     1
  0
VERTEX
  5
B47
330
90D
100
AcDbEntity
  8
_0-0_
  6
Continuous
 62
     7
100
AcDbVertex
100
AcDb2dVertex
 10
809.4685409291777
 20
2982.574651227657
 30
0.0
 42
0.0236273287504359
  0
VERTEX
  5
B73
330
90D
100
AcDbEntity
  8
_0-0_
  6
Continuous
 62
     7
100
AcDbVertex
100
AcDb2dVertex
 10
809.6403806178752
 20
2983.172978034719
 30
0.0
 42
0.0227635298274824
 70
     1
  0
VERTEX
  5
B48
330
90D
100
AcDbEntity
  8
_0-0_
  6
Continuous
 62
     7
100
AcDbVertex
100
AcDb2dVertex
 10
809.7604419376045
 20
2983.807835606219
 30
0.0
 42
0.0295049547802847
  0
VERTEX
  5
B74
330
90D
100
AcDbEntity
  8
_0-0_
  6
Continuous
 62
     7
100
AcDbVertex
100
AcDb2dVertex
 10
809.8066627197699
 20
2984.367524615537
 30
0.0
 42
0.0277758321583186
 70
     1
  0
VERTEX
  5
B49
330
90D
100
AcDbEntity
  8
_0-0_
  6
Continuous
 62
     7
100
AcDbVertex
100
AcDb2dVertex
 10
809.7874981067283
 20
2984.963712728811
 30
0.0
 42
0.0342979536146883
  0
VERTEX
  5
B75
330
90D
100
AcDbEntity
  8
_0-0_
  6
Continuous
 62
     7
100
AcDbVertex
100
AcDb2dVertex
 10
809.7054749909734
 20
2985.484413526137
 30
0.0
 42
0.0331278282107831
 70
     1
  0
VERTEX
  5
B4A
330
90D
100
AcDbEntity
  8
_0-0_
  6
Continuous
 62
     7
100
AcDbVertex
100
AcDb2dVertex
 10
809.5488873485416
 20
2986.007161853963
 30
0.0
 42
0.0369218515167431
  0
VERTEX
  5
B76
330
90D
100
AcDbEntity
  8
_0-0_
  6
Continuous
 62
     7
100
AcDbVertex
100
AcDb2dVertex
 10
809.3344694664919
 20
2986.47335653639
 30
0.0
 42
0.0366334972306043
 70
     1
  0
VERTEX
  5
B4B
330
90D
100
AcDbEntity
  8
_0-0_
  6
Continuous
 62
     7
100
AcDbVertex
100
AcDb2dVertex
 10
809.0518597301887
 20
2986.90647830802
 30
0.0
 42
0.0356499845894342
  0
VERTEX
  5
B77
330
90D
100
AcDbEntity
  8
_0-0_
  6
Continuous
 62
     7
100
AcDbVertex
100
AcDb2dVertex
 10
808.7045482474387
 20
2987.300374390306
 30
0.0
 42
0.0363008017047379
 70
     1
  0
VERTEX
  5
B4C
330
90D
100
AcDbEntity
  8
_0-0_
  6
Continuous
 62
     7
100
AcDbVertex
100
AcDb2dVertex
 10
808.311517184345
 20
2987.634336815601
 30
0.0
 42
0.0311136300045678
  0
VERTEX
  5
B78
330
90D
100
AcDbEntity
  8
_0-0_
  6
Continuous
 62
     7
100
AcDbVertex
100
AcDb2dVertex
 10
807.8370369773438
 20
2987.938161720738
 30
0.0
 42
0.0325570026457676
 70
     1
  0
VERTEX
  5
B4D
330
90D
100
AcDbEntity
  8
_0-0_
  6
Continuous
 62
     7
100
AcDbVertex
100
AcDb2dVertex
 10
807.3503546446337
 20
2988.168621764266
 30
0.0
 42
0.025701714835964
  0
VERTEX
  5
B79
330
90D
100
AcDbEntity
  8
_0-0_
  6
Continuous
 62
     7
100
AcDbVertex
100
AcDb2dVertex
 10
806.7629528888247
 20
2988.36704755819
 30
0.0
 42
0.0275125935030348
 70
     1
  0
VERTEX
  5
B4E
330
90D
100
AcDbEntity
  8
_0-0_
  6
Continuous
 62
     7
100
AcDbVertex
100
AcDb2dVertex
 10
806.1975765484531
 20
2988.493099176212
 30
0.0
 42
0.0211221603890754
  0
VERTEX
  5
B7A
330
90D
100
AcDbEntity
  8
_0-0_
  6
Continuous
 62
     7
100
AcDbVertex
100
AcDb2dVertex
 10
805.4931099665045
 20
2988.579555030665
 30
0.0
 42
0.0247761558648612
 70
     1
  0
VERTEX
  5
B4F
330
90D
100
AcDbEntity
  8
_0-0_
  6
Continuous
 62
     7
100
AcDbVertex
100
AcDb2dVertex
 10
804.8882094749227
 20
2988.597909969472
 30
0.0
 42
0.0158441700638157
  0
VERTEX
  5
B7B
330
90D
100
AcDbEntity
  8
_0-0_
  6
Continuous
 62
     7
100
AcDbVertex
100
AcDb2dVertex
 10
804.2572310473188
 20
2988.565769552464
 30
0.0
 42
0.0125145081842082
 70
     1
  0
VERTEX
  5
B50
330
90D
100
AcDbEntity
  8
_0-0_
  6
Continuous
 62
     7
100
AcDbVertex
100
AcDb2dVertex
 10
803.4620378799983
 20
2988.479869521127
 30
0.0
 42
0.0159422896090305
  0
VERTEX
  5
B7C
330
90D
100
AcDbEntity
  8
_0-0_
  6
Continuous
 62
     7
100
AcDbVertex
100
AcDb2dVertex
 10
802.6196061802037
 20
2988.340011603146
 30
0.0
 42
0.0217477748876746
 70
     1
  0
VERTEX
  5
B51
330
90D
100
AcDbEntity
  8
_0-0_
  6
Continuous
 62
     7
100
AcDbVertex
100
AcDb2dVertex
 10
802.0113985411436
 20
2988.19124587648
 30
0.0
 42
0.0284230300775915
  0
VERTEX
  5
B7D
330
90D
100
AcDbEntity
  8
_0-0_
  6
Continuous
 62
     7
100
AcDbVertex
100
AcDb2dVertex
 10
801.4432640337799
 20
2987.990143769416
 30
0.0
 42
0.0206071100601518
 70
     1
  0
VERTEX
  5
B52
330
90D
100
AcDbEntity
  8
_0-0_
  6
Continuous
 62
     7
100
AcDbVertex
100
AcDb2dVertex
 10
800.6908473150581
 20
2987.63753190571
 30
0.0
 42
0.0178404218146788
  0
VERTEX
  5
B7E
330
90D
100
AcDbEntity
  8
_0-0_
  6
Continuous
 62
     7
100
AcDbVertex
100
AcDb2dVertex
 10
800.6626953321537
 20
2987.621594656437
 30
0.0
 42
0.000936431185159
 70
     1
  0
VERTEX
  5
B53
330
90D
100
AcDbEntity
  8
_0-0_
  6
Continuous
 62
     7
100
AcDbVertex
100
AcDb2dVertex
 10
800.1383008035979
 20
2987.29814809335
 30
0.0
 42
0.0971214582095968
  0
VERTEX
  5
B7F
330
90D
100
AcDbEntity
  8
_0-0_
  6
Continuous
 62
     7
100
AcDbVertex
100
AcDb2dVertex
 10
790.612028345932
 20
2978.455668980961
 30
0.0
 42
0.0998297906939066
 70
     1
  0
VERTEX
  5
B54
330
90D
100
AcDbEntity
  8
_0-0_
  6
Continuous
 62
     7
100
AcDbVertex
100
AcDb2dVertex
 10
785.3382259877983
 20
2966.955529539484
 30
0.0
 42
0.0028513134892636
  0
VERTEX
  5
B80
330
90D
100
AcDbEntity
  8
_0-0_
  6
Continuous
 62
     7
100
AcDbVertex
100
AcDb2dVertex
 10
785.0186821342686
 20
2965.561101145027
 30
0.0
 42
0.0326388048258122
 70
     1
  0
VERTEX
  5
B55
330
90D
100
AcDbEntity
  8
_0-0_
  6
Continuous
 62
     7
100
AcDbVertex
100
AcDb2dVertex
 10
784.9994533500598
 20
2965.43748128586
 30
0.0
 42
0.0129747189729589
  0
VERTEX
  5
B81
330
90D
100
AcDbEntity
  8
_0-0_
  6
Continuous
 62
     7
100
AcDbVertex
100
AcDb2dVertex
 10
784.9336343785562
 20
2964.395919740059
 30
0.0
 42
0.0298753151534381
 70
     1
  0
VERTEX
  5
B56
330
90D
100
AcDbEntity
  8
_0-0_
  6
Continuous
 62
     7
100
AcDbVertex
100
AcDb2dVertex
 10
784.9438717059689
 20
2963.942459191449
 30
0.0
 42
0.0115632844565683
  0
VERTEX
  5
B82
330
90D
100
AcDbEntity
  8
_0-0_
  6
Continuous
 62
     7
100
AcDbVertex
100
AcDb2dVertex
 10
784.9787786746483
 20
2963.612597228552
 30
0.0
 42
0.0056522216050092
 70
     1
  0
VERTEX
  5
B57
330
90D
100
AcDbEntity
  8
_0-0_
  6
Continuous
 62
     7
100
AcDbVertex
100
AcDb2dVertex
 10
785.0733689218317
 20
2962.940693950572
 30
0.0
 42
0.0204539649633051
  0
VERTEX
  5
B83
330
90D
100
AcDbEntity
  8
_0-0_
  6
Continuous
 62
     7
100
AcDbVertex
100
AcDb2dVertex
 10
785.2131218943618
 20
2962.222037121757
 30
0.0
 42
0.0223416835440244
 70
     1
  0
VERTEX
  5
B58
330
90D
100
AcDbEntity
  8
_0-0_
  6
Continuous
 62
     7
100
AcDbVertex
100
AcDb2dVertex
 10
785.3968495033008
 20
2961.577393485411
 30
0.0
 42
0.0889757883294788
  0
VERTEX
  5
B84
330
90D
100
AcDbEntity
  8
_0-0_
  6
Continuous
 62
     7
100
AcDbVertex
100
AcDb2dVertex
 10
785.646137959381
 20
2961.120862760398
 30
0.0
 42
0.0640050149773204
 70
     1
  0
VERTEX
  5
B59
330
90D
100
AcDbEntity
  8
_0-0_
  6
Continuous
 62
     7
100
AcDbVertex
100
AcDb2dVertex
 10
786.1654519754353
 20
2960.621643915424
 30
0.0
 42
0.056704145892959
  0
VERTEX
  5
B85
330
90D
100
AcDbEntity
  8
_0-0_
  6
Continuous
 62
     7
100
AcDbVertex
100
AcDb2dVertex
 10
786.7316895904695
 20
2960.294009006717
 30
0.0
 42
0.0568209283255883
 70
     1
  0
VERTEX
  5
B5A
330
90D
100
AcDbEntity
  8
_0-0_
  6
Continuous
 62
     7
100
AcDbVertex
100
AcDb2dVertex
 10
787.3558227410518
 20
2960.102485207662
 30
0.0
 42
0.0354811060485751
  0
VERTEX
  5
B86
330
90D
100
AcDbEntity
  8
_0-0_
  6
Continuous
 62
     7
100
AcDbVertex
100
AcDb2dVertex
 10
788.1983883427456
 20
2960.006620853286
 30
0.0
 42
0.0410102746532923
 70
     1
  0
VERTEX
  5
B5B
330
90D
100
AcDbEntity
  8
_0-0_
  6
Continuous
 62
     7
100
AcDbVertex
100
AcDb2dVertex
 10
788.9317929867931
 20
2960.035691736754
 30
0.0
 42
0.0195640765017785
  0
VERTEX
  5
B88
330
90D
100
AcDbEntity
  8
_0-0_
  6
Continuous
 62
     7
100
AcDbVertex
100
AcDb2dVertex
 10
789.4952605413054
 20
2960.127037416759
 30
0.0
 42
0.0080762505657041
 70
     1
  0
VERTEX
  5
B5C
330
90D
100
AcDbEntity
  8
_0-0_
  6
Continuous
 62
     7
100
AcDbVertex
100
AcDb2dVertex
 10
790.845477654222
 20
2960.423292988514
 30
0.0
 42
0.0269227774386748
  0
VERTEX
  5
B87
330
90D
100
AcDbEntity
  8
_0-0_
  6
Continuous
 62
     7
100
AcDbVertex
100
AcDb2dVertex
 10
791.3928462323601
 20
2960.584238469417
 30
0.0
 42
0.0155278052450787
 70
     1
  0
VERTEX
  5
B5D
330
90D
100
AcDbEntity
  8
_0-0_
  6
Continuous
 62
     7
100
AcDbVertex
100
AcDb2dVertex
 10
792.3143753451828
 20
2960.942578740946
 30
0.0
  0
SEQEND
  5
B5E
330
90D
100
AcDbEntity
  8
_0-0_
  6
Continuous
 62
     7
  0
TEXT
  5
90E
330
20
100
AcDbEntity
  8
_0-0_
 62
     7
100
AcDbText
 10
792.3826686105905
 20
2947.836524967629
 30
0.0
 40
27.0
  1
1
 50
315.0
 41
0.8
  7
MSゴシック
100
AcDbText
  0
POLYLINE
  5
91A
330
20
100
AcDbEntity
  8
_0-0_
  6
Continuous
 62
     7
100
AcDb2dPolyline
 66
     1
 10
0.0
 20
0.0
 30
0.0
 70
     2
 40
2.0
 41
2.0
  0
VERTEX
  5
97F
330
91A
100
AcDbEntity
  8
_0-0_
  6
Continuous
 62
     7
100
AcDbVertex
100
AcDb2dVertex
 10
2221.792322301784
 20
1294.622393124377
 30
0.0
  0
VERTEX
  5
980
330
91A
100
AcDbEntity
  8
_0-0_
  6
Continuous
 62
     7
100
AcDbVertex
100
AcDb2dVertex
 10
2221.792322301784
 20
1294.622393124377
 30
0.0
 42
0.0348466189741154
  0
VERTEX
  5
9AC
330
91A
100
AcDbEntity
  8
_0-0_
  6
Continuous
 62
     7
100
AcDbVertex
100
AcDb2dVertex
 10
2222.774594444091
 20
1294.594425793022
 30
0.0
 42
0.0611442415308552
 70
     1
  0
VERTEX
  5
981
330
91A
100
AcDbEntity
  8
_0-0_
  6
Continuous
 62
     7
100
AcDbVertex
100
AcDb2dVertex
 10
2223.328565726909
 20
1294.685723203966
 30
0.0
 42
0.0152221414431315
  0
VERTEX
  5
9AD
330
91A
100
AcDbEntity
  8
_0-0_
  6
Continuous
 62
     7
100
AcDbVertex
100
AcDb2dVertex
 10
2224.521104615246
 20
1295.075519317147
 30
0.0
 42
0.0332604620225668
 70
     1
  0
VERTEX
  5
982
330
91A
100
AcDbEntity
  8
_0-0_
  6
Continuous
 62
     7
100
AcDbVertex
100
AcDb2dVertex
 10
2225.04751880501
 20
1295.306103633896
 30
0.0
 42
0.0200758100403887
  0
VERTEX
  5
9AE
330
91A
100
AcDbEntity
  8
_0-0_
  6
Continuous
 62
     7
100
AcDbVertex
100
AcDb2dVertex
 10
2226.149443657115
 20
1295.93628714329
 30
0.0
 42
0.0278495056913565
 70
     1
  0
VERTEX
  5
983
330
91A
100
AcDbEntity
  8
_0-0_
  6
Continuous
 62
     7
100
AcDbVertex
100
AcDb2dVertex
 10
2226.896952016639
 20
1296.464684468731
 30
0.0
 42
0.0103505259047394
  0
VERTEX
  5
9AF
330
91A
100
AcDbEntity
  8
_0-0_
  6
Continuous
 62
     7
100
AcDbVertex
100
AcDb2dVertex
 10
2228.048732463099
 20
1297.4186105726
 30
0.0
 42
0.0147831202155705
 70
     1
  0
VERTEX
  5
984
330
91A
100
AcDbEntity
  8
_0-0_
  6
Continuous
 62
     7
100
AcDbVertex
100
AcDb2dVertex
 10
2228.820671269518
 20
1298.126262816076
 30
0.0
 42
0.0021500350798513
  0
VERTEX
  5
9B0
330
91A
100
AcDbEntity
  8
_0-0_
  6
Continuous
 62
     7
100
AcDbVertex
100
AcDb2dVertex
 10
2228.949872164987
 20
1298.253017365408
 30
0.0
 42
0.0033851729292576
 70
     1
  0
VERTEX
  5
985
330
91A
100
AcDbEntity
  8
_0-0_
  6
Continuous
 62
     7
100
AcDbVertex
100
AcDb2dVertex
 10
2229.031036231459
 20
1298.334427402054
 30
0.0
 42
0.0444907029180263
  0
VERTEX
  5
9B1
330
91A
100
AcDbEntity
  8
_0-0_
  6
Continuous
 62
     7
100
AcDbVertex
100
AcDb2dVertex
 10
2229.516341987078
 20
1298.924607415822
 30
0.0
 42
0.0152761258850968
 70
     1
  0
VERTEX
  5
986
330
91A
100
AcDbEntity
  8
_0-0_
  6
Continuous
 62
     7
100
AcDbVertex
100
AcDb2dVertex
 10
2230.71273035378
 20
1300.796411026032
 30
0.0
 42
0.0066957660526124
  0
VERTEX
  5
9B2
330
91A
100
AcDbEntity
  8
_0-0_
  6
Continuous
 62
     7
100
AcDbVertex
100
AcDb2dVertex
 10
2231.695674599323
 20
1302.494292386778
 30
0.0
 42
0.0103887987766522
 70
     1
  0
VERTEX
  5
987
330
91A
100
AcDbEntity
  8
_0-0_
  6
Continuous
 62
     7
100
AcDbVertex
100
AcDb2dVertex
 10
2232.29148403427
 20
1303.609681029287
 30
0.0
 42
0.0089064125471319
  0
VERTEX
  5
9B3
330
91A
100
AcDbEntity
  8
_0-0_
  6
Continuous
 62
     7
100
AcDbVertex
100
AcDb2dVertex
 10
2233.10328312429
 20
1305.281597831796
 30
0.0
 42
0.0107765619228215
 70
     1
  0
VERTEX
  5
988
330
91A
100
AcDbEntity
  8
_0-0_
  6
Continuous
 62
     7
100
AcDbVertex
100
AcDb2dVertex
 10
2233.719327641238
 20
1306.688757626352
 30
0.0
 42
0.0071207367931588
  0
VERTEX
  5
9B4
330
91A
100
AcDbEntity
  8
_0-0_
  6
Continuous
 62
     7
100
AcDbVertex
100
AcDb2dVertex
 10
2234.372401407618
 20
1308.338852711677
 30
0.0
 42
0.0074194056802648
 70
     1
  0
VERTEX
  5
989
330
91A
100
AcDbEntity
  8
_0-0_
  6
Continuous
 62
     7
100
AcDbVertex
100
AcDb2dVertex
 10
2234.952876869208
 20
1309.940084632915
 30
0.0
 42
0.0112927049586443
  0
VERTEX
  5
9B5
330
91A
100
AcDbEntity
  8
_0-0_
  6
Continuous
 62
     7
100
AcDbVertex
100
AcDb2dVertex
 10
2235.203398738947
 20
1310.721197158026
 30
0.0
 42
-0.014113977826914
 70
     1
  0
VERTEX
  5
98A
330
91A
100
AcDbEntity
  8
_0-0_
  6
Continuous
 62
     7
100
AcDbVertex
100
AcDb2dVertex
 10
2235.407380547003
 20
1311.345075385451
 30
0.0
 42
-0.0385395619404172
  0
VERTEX
  5
9B6
330
91A
100
AcDbEntity
  8
_0-0_
  6
Continuous
 62
     7
100
AcDbVertex
100
AcDb2dVertex
 10
2235.698469860198
 20
1311.994690464136
 30
0.0
 42
0.0331328977401649
 70
     1
  0
VERTEX
  5
98B
330
91A
100
AcDbEntity
  8
_0-0_
  6
Continuous
 62
     7
100
AcDbVertex
100
AcDb2dVertex
 10
2236.045065664212
 20
1312.746318964671
 30
0.0
 42
0.0162478442315083
  0
VERTEX
  5
9B7
330
91A
100
AcDbEntity
  8
_0-0_
  6
Continuous
 62
     7
100
AcDbVertex
100
AcDb2dVertex
 10
2236.302967220393
 20
1313.491152495469
 30
0.0
 42
0.0151396794320784
 70
     1
  0
VERTEX
  5
98C
330
91A
100
AcDbEntity
  8
_0-0_
  6
Continuous
 62
     7
100
AcDbVertex
100
AcDb2dVertex
 10
2236.529050899218
 20
1314.306264299186
 30
0.0
 42
0.0134147030692265
  0
VERTEX
  5
9B8
330
91A
100
AcDbEntity
  8
_0-0_
  6
Continuous
 62
     7
100
AcDbVertex
100
AcDb2dVertex
 10
2236.712112666509
 20
1315.150796111964
 30
0.0
 42
0.0138454350649189
 70
     1
  0
VERTEX
  5
98D
330
91A
100
AcDbEntity
  8
_0-0_
  6
Continuous
 62
     7
100
AcDbVertex
100
AcDb2dVertex
 10
2236.844630605562
 20
1315.977513239378
 30
0.0
 42
0.0129936672258586
  0
VERTEX
  5
9B9
330
91A
100
AcDbEntity
  8
_0-0_
  6
Continuous
 62
     7
100
AcDbVertex
100
AcDb2dVertex
 10
2236.936468983595
 20
1316.846720195819
 30
0.0
 42
0.0131481711148843
 70
     1
  0
VERTEX
  5
98E
330
91A
100
AcDbEntity
  8
_0-0_
  6
Continuous
 62
     7
100
AcDbVertex
100
AcDb2dVertex
 10
2236.982216053559
 20
1317.709285731889
 30
0.0
 42
0.0130799328713081
  0
VERTEX
  5
9BA
330
91A
100
AcDbEntity
  8
_0-0_
  6
Continuous
 62
     7
100
AcDbVertex
100
AcDb2dVertex
 10
2236.9826782532
 20
1318.576115508644
 30
0.0
 42
0.0129724564124798
 70
     1
  0
VERTEX
  5
98F
330
91A
100
AcDbEntity
  8
_0-0_
  6
Continuous
 62
     7
100
AcDbVertex
100
AcDb2dVertex
 10
2236.937626778994
 20
1319.448962745856
 30
0.0
 42
0.0136804442002109
  0
VERTEX
  5
9BB
330
91A
100
AcDbEntity
  8
_0-0_
  6
Continuous
 62
     7
100
AcDbVertex
100
AcDb2dVertex
 10
2236.836951749342
 20
1320.405427661404
 30
0.0
 42
0.0175749805664867
 70
     1
  0
VERTEX
  5
990
330
91A
100
AcDbEntity
  8
_0-0_
  6
Continuous
 62
     7
100
AcDbVertex
100
AcDb2dVertex
 10
2236.712217604409
 20
1321.143685075527
 30
0.0
 42
0.0105865329843071
  0
VERTEX
  5
9BC
330
91A
100
AcDbEntity
  8
_0-0_
  6
Continuous
 62
     7
100
AcDbVertex
100
AcDb2dVertex
 10
2236.495826160419
 20
1322.094844359868
 30
0.0
 42
0.0153579324333182
 70
     1
  0
VERTEX
  5
991
330
91A
100
AcDbEntity
  8
_0-0_
  6
Continuous
 62
     7
100
AcDbVertex
100
AcDb2dVertex
 10
2236.312837473512
 20
1322.741959440487
 30
0.0
 42
0.0024884907386503
  0
VERTEX
  5
9BD
330
91A
100
AcDbEntity
  8
_0-0_
  6
Continuous
 62
     7
100
AcDbVertex
100
AcDb2dVertex
 10
2236.288087897833
 20
1322.818885955539
 30
0.0
 42
-0.0022968632871208
 70
     1
  0
VERTEX
  5
992
330
91A
100
AcDbEntity
  8
_0-0_
  6
Continuous
 62
     7
100
AcDbVertex
100
AcDb2dVertex
 10
2236.261241528227
 20
1322.902220155007
 30
0.0
 42
-0.039798398409439
  0
VERTEX
  5
9BE
330
91A
100
AcDbEntity
  8
_0-0_
  6
Continuous
 62
     7
100
AcDbVertex
100
AcDb2dVertex
 10
2236.120430468961
 20
1323.510437278139
 30
0.0
 42
0.0317774908687414
 70
     1
  0
VERTEX
  5
993
330
91A
100
AcDbEntity
  8
_0-0_
  6
Continuous
 62
     7
100
AcDbVertex
100
AcDb2dVertex
 10
2235.956397631166
 20
1324.274462869656
 30
0.0
 42
0.0259971418749257
  0
VERTEX
  5
9BF
330
91A
100
AcDbEntity
  8
_0-0_
  6
Continuous
 62
     7
100
AcDbVertex
100
AcDb2dVertex
 10
2235.76328448226
 20
1324.843819689926
 30
0.0
 42
0.0198764702616558
 70
     1
  0
VERTEX
  5
994
330
91A
100
AcDbEntity
  8
_0-0_
  6
Continuous
 62
     7
100
AcDbVertex
100
AcDb2dVertex
 10
2235.443642424169
 20
1325.562032571262
 30
0.0
 42
0.0236273287509611
  0
VERTEX
  5
9C0
330
91A
100
AcDbEntity
  8
_0-0_
  6
Continuous
 62
     7
100
AcDbVertex
100
AcDb2dVertex
 10
2235.142070490687
 20
1326.10662252305
 30
0.0
 42
0.0227635298282696
 70
     1
  0
VERTEX
  5
995
330
91A
100
AcDbEntity
  8
_0-0_
  6
Continuous
 62
     7
100
AcDbVertex
100
AcDb2dVertex
 10
2234.778054570127
 20
1326.64043079029
 30
0.0
 42
0.0295049547815297
  0
VERTEX
  5
9C1
330
91A
100
AcDbEntity
  8
_0-0_
  6
Continuous
 62
     7
100
AcDbVertex
100
AcDb2dVertex
 10
2234.414977704781
 20
1327.068873712636
 30
0.0
 42
0.0277758321592589
 70
     1
  0
VERTEX
  5
996
330
91A
100
AcDbEntity
  8
_0-0_
  6
Continuous
 62
     7
100
AcDbVertex
100
AcDb2dVertex
 10
2233.979857619186
 20
1327.476890942553
 30
0.0
 42
0.0342979536134343
  0
VERTEX
  5
9C2
330
91A
100
AcDbEntity
  8
_0-0_
  6
Continuous
 62
     7
100
AcDbVertex
100
AcDb2dVertex
 10
2233.553667453067
 20
1327.787082905947
 30
0.0
 42
0.0331278282101144
 70
     1
  0
VERTEX
  5
997
330
91A
100
AcDbEntity
  8
_0-0_
  6
Continuous
 62
     7
100
AcDbVertex
100
AcDb2dVertex
 10
2233.073304381789
 20
1328.045997609594
 30
0.0
 42
0.0369218515161256
  0
VERTEX
  5
9C3
330
91A
100
AcDbEntity
  8
_0-0_
  6
Continuous
 62
     7
100
AcDbVertex
100
AcDb2dVertex
 10
2232.59203862209
 20
1328.224030692485
 30
0.0
 42
0.0366334972301683
 70
     1
  0
VERTEX
  5
998
330
91A
100
AcDbEntity
  8
_0-0_
  6
Continuous
 62
     7
100
AcDbVertex
100
AcDb2dVertex
 10
2232.085940019318
 20
1328.330458773315
 30
0.0
 42
0.0356499845908603
  0
VERTEX
  5
9C4
330
91A
100
AcDbEntity
  8
_0-0_
  6
Continuous
 62
     7
100
AcDbVertex
100
AcDb2dVertex
 10
2231.561827123812
 20
1328.363399059545
 30
0.0
 42
0.0363008017061702
 70
     1
  0
VERTEX
  5
999
330
91A
100
AcDbEntity
  8
_0-0_
  6
Continuous
 62
     7
100
AcDbVertex
100
AcDb2dVertex
 10
2231.047765098297
 20
1328.321631225203
 30
0.0
 42
0.0311136300039991
  0
VERTEX
  5
9C5
330
91A
100
AcDbEntity
  8
_0-0_
  6
Continuous
 62
     7
100
AcDbVertex
100
AcDb2dVertex
 10
2230.497420275675
 20
1328.200959704011
 30
0.0
 42
0.0325570026453937
 70
     1
  0
VERTEX
  5
99A
330
91A
100
AcDbEntity
  8
_0-0_
  6
Continuous
 62
     7
100
AcDbVertex
100
AcDb2dVertex
 10
2229.990324038358
 20
1328.019783185838
 30
0.0
 42
0.0257017148351419
  0
VERTEX
  5
9C6
330
91A
100
AcDbEntity
  8
_0-0_
  6
Continuous
 62
     7
100
AcDbVertex
100
AcDb2dVertex
 10
2229.434660049098
 20
1327.744735645472
 30
0.0
 42
0.0275125935024392
 70
     1
  0
VERTEX
  5
99B
330
91A
100
AcDbEntity
  8
_0-0_
  6
Continuous
 62
     7
100
AcDbVertex
100
AcDb2dVertex
 10
2228.945746651016
 20
1327.434086155154
 30
0.0
 42
0.0211221603882937
  0
VERTEX
  5
9C7
330
91A
100
AcDbEntity
  8
_0-0_
  6
Continuous
 62
     7
100
AcDbVertex
100
AcDb2dVertex
 10
2228.386480032844
 20
1326.997086578898
 30
0.0
 42
0.0247761558639544
 70
     1
  0
VERTEX
  5
99C
330
91A
100
AcDbEntity
  8
_0-0_
  6
Continuous
 62
     7
100
AcDbVertex
100
AcDb2dVertex
 10
2227.945771891604
 20
1326.582336241054
 30
0.0
 42
0.0158441700623881
  0
VERTEX
  5
9C8
330
91A
100
AcDbEntity
  8
_0-0_
  6
Continuous
 62
     7
100
AcDbVertex
100
AcDb2dVertex
 10
2227.522329473484
 20
1326.113440409304
 30
0.0
 42
0.0125145081833975
 70
     1
  0
VERTEX
  5
99D
330
91A
100
AcDbEntity
  8
_0-0_
  6
Continuous
 62
     7
100
AcDbVertex
100
AcDb2dVertex
 10
2227.020783487176
 20
1325.490413433669
 30
0.0
 42
0.0159422896092727
  0
VERTEX
  5
9C9
330
91A
100
AcDbEntity
  8
_0-0_
  6
Continuous
 62
     7
100
AcDbVertex
100
AcDb2dVertex
 10
2226.523988801775
 20
1324.795829783854
 30
0.0
 42
0.0217477748883957
 70
     1
  0
VERTEX
  5
99E
330
91A
100
AcDbEntity
  8
_0-0_
  6
Continuous
 62
     7
100
AcDbVertex
100
AcDb2dVertex
 10
2226.199114309957
 20
1324.260568783768
 30
0.0
 42
0.028423030076766
  0
VERTEX
  5
9CA
330
91A
100
AcDbEntity
  8
_0-0_
  6
Continuous
 62
     7
100
AcDbVertex
100
AcDb2dVertex
 10
2225.939583210788
 20
1323.716636357369
 30
0.0
 42
0.0206071100593415
 70
     1
  0
VERTEX
  5
99F
330
91A
100
AcDbEntity
  8
_0-0_
  6
Continuous
 62
     7
100
AcDbVertex
100
AcDb2dVertex
 10
2225.656878486657
 20
1322.935263153329
 30
0.0
 42
0.0178404217617777
  0
VERTEX
  5
9CB
330
91A
100
AcDbEntity
  8
_0-0_
  6
Continuous
 62
     7
100
AcDbVertex
100
AcDb2dVertex
 10
2225.648241365674
 20
1322.904087358285
 30
0.0
 42
0.0009364311825497
 70
     1
  0
VERTEX
  5
9A0
330
91A
100
AcDbEntity
  8
_0-0_
  6
Continuous
 62
     7
100
AcDbVertex
100
AcDb2dVertex
 10
2225.506149696627
 20
1322.30457317301
 30
0.0
 42
0.0971214582096951
  0
VERTEX
  5
9CC
330
91A
100
AcDbEntity
  8
_0-0_
  6
Continuous
 62
     7
100
AcDbVertex
100
AcDb2dVertex
 10
2225.022634785251
 20
1309.3159043759
 30
0.0
 42
0.0998297906938603
 70
     1
  0
VERTEX
  5
9A1
330
91A
100
AcDbEntity
  8
_0-0_
  6
Continuous
 62
     7
100
AcDbVertex
100
AcDb2dVertex
 10
2229.425319958838
 20
1297.45493638216
 30
0.0
 42
0.0028513134884833
  0
VERTEX
  5
9CD
330
91A
100
AcDbEntity
  8
_0-0_
  6
Continuous
 62
     7
100
AcDbVertex
100
AcDb2dVertex
 10
2230.185378106718
 20
1296.242974982841
 30
0.0
 42
0.0326388048167903
 70
     1
  0
VERTEX
  5
9A2
330
91A
100
AcDbEntity
  8
_0-0_
  6
Continuous
 62
     7
100
AcDbVertex
100
AcDb2dVertex
 10
2230.259193743718
 20
1296.141965738429
 30
0.0
 42
0.0129747189733646
  0
VERTEX
  5
9CE
330
91A
100
AcDbEntity
  8
_0-0_
  6
Continuous
 62
     7
100
AcDbVertex
100
AcDb2dVertex
 10
2230.949147934694
 20
1295.358929465292
 30
0.0
 42
0.0298753151544283
 70
     1
  0
VERTEX
  5
9A3
330
91A
100
AcDbEntity
  8
_0-0_
  6
Continuous
 62
     7
100
AcDbVertex
100
AcDb2dVertex
 10
2231.277031847254
 20
1295.045523320001
 30
0.0
 42
0.011563284451473
  0
VERTEX
  5
9CF
330
91A
100
AcDbEntity
  8
_0-0_
  6
Continuous
 62
     7
100
AcDbVertex
100
AcDb2dVertex
 10
2231.534962432335
 20
1294.836958643442
 30
0.0
 42
0.0056522216025541
 70
     1
  0
VERTEX
  5
9A4
330
91A
100
AcDbEntity
  8
_0-0_
  6
Continuous
 62
     7
100
AcDbVertex
100
AcDb2dVertex
 10
2232.076955201716
 20
1294.4287366845
 30
0.0
 42
0.0204539649629669
  0
VERTEX
  5
9D0
330
91A
100
AcDbEntity
  8
_0-0_
  6
Continuous
 62
     7
100
AcDbVertex
100
AcDb2dVertex
 10
2232.683942593281
 20
1294.019389842067
 30
0.0
 42
0.022341683543798
 70
     1
  0
VERTEX
  5
9A5
330
91A
100
AcDbEntity
  8
_0-0_
  6
Continuous
 62
     7
100
AcDbVertex
100
AcDb2dVertex
 10
2233.269689518165
 20
1293.69347299353
 30
0.0
 42
0.0889757883292165
  0
VERTEX
  5
9D1
330
91A
100
AcDbEntity
  8
_0-0_
  6
Continuous
 62
     7
100
AcDbVertex
100
AcDb2dVertex
 10
2233.768779047406
 20
1293.546930579819
 30
0.0
 42
0.0640050149772331
 70
     1
  0
VERTEX
  5
9A6
330
91A
100
AcDbEntity
  8
_0-0_
  6
Continuous
 62
     7
100
AcDbVertex
100
AcDb2dVertex
 10
2234.488990540302
 20
1293.561140011559
 30
0.0
 42
0.0567041458928928
  0
VERTEX
  5
9D2
330
91A
100
AcDbEntity
  8
_0-0_
  6
Continuous
 62
     7
100
AcDbVertex
100
AcDb2dVertex
 10
2235.121053863358
 20
1293.729857603213
 30
0.0
 42
0.0568209283254841
 70
     1
  0
VERTEX
  5
9A7
330
91A
100
AcDbEntity
  8
_0-0_
  6
Continuous
 62
     7
100
AcDbVertex
100
AcDb2dVertex
 10
2235.697810423566
 20
1294.035758609282
 30
0.0
 42
0.035481106048924
  0
VERTEX
  5
9D3
330
91A
100
AcDbEntity
  8
_0-0_
  6
Continuous
 62
     7
100
AcDbVertex
100
AcDb2dVertex
 10
2236.36138060917
 20
1294.563756124779
 30
0.0
 42
0.0410102746536599
 70
     1
  0
VERTEX
  5
9A8
330
91A
100
AcDbEntity
  8
_0-0_
  6
Continuous
 62
     7
100
AcDbVertex
100
AcDb2dVertex
 10
2236.859419787496
 20
1295.102907740776
 30
0.0
 42
0.0195640765023079
  0
VERTEX
  5
9D5
330
91A
100
AcDbEntity
  8
_0-0_
  6
Continuous
 62
     7
100
AcDbVertex
100
AcDb2dVertex
 10
2237.193260366508
 20
1295.565930619317
 30
0.0
 42
0.0080762505658847
 70
     1
  0
VERTEX
  5
9A9
330
91A
100
AcDbEntity
  8
_0-0_
  6
Continuous
 62
     7
100
AcDbVertex
100
AcDb2dVertex
 10
2237.938523719372
 20
1296.730162619683
 30
0.0
 42
0.0269227774397643
  0
VERTEX
  5
9D4
330
91A
100
AcDbEntity
  8
_0-0_
  6
Continuous
 62
     7
100
AcDbVertex
100
AcDb2dVertex
 10
2238.211766111835
 20
1297.231016294047
 30
0.0
 42
0.0155278052454622
 70
     1
  0
VERTEX
  5
9AA
330
91A
100
AcDbEntity
  8
_0-0_
  6
Continuous
 62
     7
100
AcDbVertex
100
AcDb2dVertex
 10
2238.610000760601
 20
1298.13602061475
 30
0.0
  0
SEQEND
  5
9AB
330
91A
100
AcDbEntity
  8
_0-0_
  6
Continuous
 62
     7
  0
TEXT
  5
91B
330
20
100
AcDbEntity
  8
_0-0_
 62
     7
100
AcDbText
 10
2247.925670889389
 20
1288.91693174812
 30
0.0
 40
27.0
  1
1
 50
0.0000000000002398
 41
0.8
  7
MSゴシック
100
AcDbText
  0
TEXT
  5
91E
330
20
100
AcDbEntity
  8
_0-0_
 62
     7
100
AcDbText
 10
2381.666032922133
 20
1288.91693174812
 30
0.0
 40
27.0
  1
2
 50
0.0000000000002398
 41
0.8
  7
MSゴシック
100
AcDbText
  0
POLYLINE
  5
91F
330
20
100
AcDbEntity
  8
_0-0_
  6
Continuous
 62
     7
100
AcDb2dPolyline
 66
     1
 10
0.0
 20
0.0
 30
0.0
 70
     2
 40
2.0
 41
2.0
  0
VERTEX
  5
9D6
330
91F
100
AcDbEntity
  8
_0-0_
  6
Continuous
 62
     7
100
AcDbVertex
100
AcDb2dVertex
 10
2355.532684334528
 20
1294.622393124377
 30
0.0
  0
VERTEX
  5
9D7
330
91F
100
AcDbEntity
  8
_0-0_
  6
Continuous
 62
     7
100
AcDbVertex
100
AcDb2dVertex
 10
2355.532684334528
 20
1294.622393124377
 30
0.0
 42
0.0348466189741512
  0
VERTEX
  5
A03
330
91F
100
AcDbEntity
  8
_0-0_
  6
Continuous
 62
     7
100
AcDbVertex
100
AcDb2dVertex
 10
2356.514956476834
 20
1294.594425793022
 30
0.0
 42
0.0611442415309874
 70
     1
  0
VERTEX
  5
9D8
330
91F
100
AcDbEntity
  8
_0-0_
  6
Continuous
 62
     7
100
AcDbVertex
100
AcDb2dVertex
 10
2357.068927759653
 20
1294.685723203966
 30
0.0
 42
0.0152221414430189
  0
VERTEX
  5
A04
330
91F
100
AcDbEntity
  8
_0-0_
  6
Continuous
 62
     7
100
AcDbVertex
100
AcDb2dVertex
 10
2358.261466647991
 20
1295.075519317147
 30
0.0
 42
0.0332604620222489
 70
     1
  0
VERTEX
  5
9D9
330
91F
100
AcDbEntity
  8
_0-0_
  6
Continuous
 62
     7
100
AcDbVertex
100
AcDb2dVertex
 10
2358.787880837754
 20
1295.306103633896
 30
0.0
 42
0.0200758100404553
  0
VERTEX
  5
A05
330
91F
100
AcDbEntity
  8
_0-0_
  6
Continuous
 62
     7
100
AcDbVertex
100
AcDb2dVertex
 10
2359.88980568986
 20
1295.93628714329
 30
0.0
 42
0.027849505691416
 70
     1
  0
VERTEX
  5
9DA
330
91F
100
AcDbEntity
  8
_0-0_
  6
Continuous
 62
     7
100
AcDbVertex
100
AcDb2dVertex
 10
2360.637314049383
 20
1296.464684468731
 30
0.0
 42
0.0103505259042308
  0
VERTEX
  5
A06
330
91F
100
AcDbEntity
  8
_0-0_
  6
Continuous
 62
     7
100
AcDbVertex
100
AcDb2dVertex
 10
2361.789094495843
 20
1297.418610572598
 30
0.0
 42
0.0147831202149036
 70
     1
  0
VERTEX
  5
9DB
330
91F
100
AcDbEntity
  8
_0-0_
  6
Continuous
 62
     7
100
AcDbVertex
100
AcDb2dVertex
 10
2362.561033302263
 20
1298.126262816076
 30
0.0
 42
0.0021500350901369
  0
VERTEX
  5
A07
330
91F
100
AcDbEntity
  8
_0-0_
  6
Continuous
 62
     7
100
AcDbVertex
100
AcDb2dVertex
 10
2362.690234197719
 20
1298.253017365401
 30
0.0
 42
0.0033851729461339
 70
     1
  0
VERTEX
  5
9DC
330
91F
100
AcDbEntity
  8
_0-0_
  6
Continuous
 62
     7
100
AcDbVertex
100
AcDb2dVertex
 10
2362.771398264203
 20
1298.334427402054
 30
0.0
 42
0.044490702917796
  0
VERTEX
  5
A08
330
91F
100
AcDbEntity
  8
_0-0_
  6
Continuous
 62
     7
100
AcDbVertex
100
AcDb2dVertex
 10
2363.256704019823
 20
1298.924607415822
 30
0.0
 42
0.0152761258850106
 70
     1
  0
VERTEX
  5
9DD
330
91F
100
AcDbEntity
  8
_0-0_
  6
Continuous
 62
     7
100
AcDbVertex
100
AcDb2dVertex
 10
2364.453092386524
 20
1300.796411026032
 30
0.0
 42
0.006695766051282
  0
VERTEX
  5
A09
330
91F
100
AcDbEntity
  8
_0-0_
  6
Continuous
 62
     7
100
AcDbVertex
100
AcDb2dVertex
 10
2365.436036632069
 20
1302.494292386771
 30
0.0
 42
0.0103887987746622
 70
     1
  0
VERTEX
  5
9DE
330
91F
100
AcDbEntity
  8
_0-0_
  6
Continuous
 62
     7
100
AcDbVertex
100
AcDb2dVertex
 10
2366.031846067014
 20
1303.609681029287
 30
0.0
 42
0.0089064125467171
  0
VERTEX
  5
A0A
330
91F
100
AcDbEntity
  8
_0-0_
  6
Continuous
 62
     7
100
AcDbVertex
100
AcDb2dVertex
 10
2366.843645157032
 20
1305.281597831788
 30
0.0
 42
0.010776561922414
 70
     1
  0
VERTEX
  5
9DF
330
91F
100
AcDbEntity
  8
_0-0_
  6
Continuous
 62
     7
100
AcDbVertex
100
AcDb2dVertex
 10
2367.459689673982
 20
1306.688757626352
 30
0.0
 42
0.0071207367936354
  0
VERTEX
  5
A0B
330
91F
100
AcDbEntity
  8
_0-0_
  6
Continuous
 62
     7
100
AcDbVertex
100
AcDb2dVertex
 10
2368.11276344036
 20
1308.338852711677
 30
0.0
 42
0.0074194056807668
 70
     1
  0
VERTEX
  5
9E0
330
91F
100
AcDbEntity
  8
_0-0_
  6
Continuous
 62
     7
100
AcDbVertex
100
AcDb2dVertex
 10
2368.693238901952
 20
1309.940084632915
 30
0.0
 42
0.0112927049577677
  0
VERTEX
  5
A0C
330
91F
100
AcDbEntity
  8
_0-0_
  6
Continuous
 62
     7
100
AcDbVertex
100
AcDb2dVertex
 10
2368.943760771693
 20
1310.721197158026
 30
0.0
 42
-0.0141139778280096
 70
     1
  0
VERTEX
  5
9E1
330
91F
100
AcDbEntity
  8
_0-0_
  6
Continuous
 62
     7
100
AcDbVertex
100
AcDb2dVertex
 10
2369.147742579747
 20
1311.345075385451
 30
0.0
 42
-0.0385395619378203
  0
VERTEX
  5
A0D
330
91F
100
AcDbEntity
  8
_0-0_
  6
Continuous
 62
     7
100
AcDbVertex
100
AcDb2dVertex
 10
2369.438831892938
 20
1311.994690464137
 30
0.0
 42
0.033132897742393
 70
     1
  0
VERTEX
  5
9E2
330
91F
100
AcDbEntity
  8
_0-0_
  6
Continuous
 62
     7
100
AcDbVertex
100
AcDb2dVertex
 10
2369.785427696956
 20
1312.746318964671
 30
0.0
 42
0.0162478442304176
  0
VERTEX
  5
A0E
330
91F
100
AcDbEntity
  8
_0-0_
  6
Continuous
 62
     7
100
AcDbVertex
100
AcDb2dVertex
 10
2370.043329253139
 20
1313.491152495469
 30
0.0
 42
0.0151396794310421
 70
     1
  0
VERTEX
  5
9E3
330
91F
100
AcDbEntity
  8
_0-0_
  6
Continuous
 62
     7
100
AcDbVertex
100
AcDb2dVertex
 10
2370.269412931962
 20
1314.306264299186
 30
0.0
 42
0.0134147030704961
  0
VERTEX
  5
A0F
330
91F
100
AcDbEntity
  8
_0-0_
  6
Continuous
 62
     7
100
AcDbVertex
100
AcDb2dVertex
 10
2370.452474699254
 20
1315.150796111979
 30
0.0
 42
0.0138454350657582
 70
     1
  0
VERTEX
  5
9E4
330
91F
100
AcDbEntity
  8
_0-0_
  6
Continuous
 62
     7
100
AcDbVertex
100
AcDb2dVertex
 10
2370.584992638306
 20
1315.977513239378
 30
0.0
 42
0.0129936672255999
  0
VERTEX
  5
A10
330
91F
100
AcDbEntity
  8
_0-0_
  6
Continuous
 62
     7
100
AcDbVertex
100
AcDb2dVertex
 10
2370.676831016339
 20
1316.846720195819
 30
0.0
 42
0.0131481711146214
 70
     1
  0
VERTEX
  5
9E5
330
91F
100
AcDbEntity
  8
_0-0_
  6
Continuous
 62
     7
100
AcDbVertex
100
AcDb2dVertex
 10
2370.722578086303
 20
1317.709285731889
 30
0.0
 42
0.0130799328710435
  0
VERTEX
  5
A11
330
91F
100
AcDbEntity
  8
_0-0_
  6
Continuous
 62
     7
100
AcDbVertex
100
AcDb2dVertex
 10
2370.723040285945
 20
1318.576115508636
 30
0.0
 42
0.0129724564124345
 70
     1
  0
VERTEX
  5
9E6
330
91F
100
AcDbEntity
  8
_0-0_
  6
Continuous
 62
     7
100
AcDbVertex
100
AcDb2dVertex
 10
2370.677988811738
 20
1319.448962745856
 30
0.0
 42
0.0136804442002109
  0
VERTEX
  5
A12
330
91F
100
AcDbEntity
  8
_0-0_
  6
Continuous
 62
     7
100
AcDbVertex
100
AcDb2dVertex
 10
2370.577313782086
 20
1320.405427661404
 30
0.0
 42
0.0175749805664867
 70
     1
  0
VERTEX
  5
9E7
330
91F
100
AcDbEntity
  8
_0-0_
  6
Continuous
 62
     7
100
AcDbVertex
100
AcDb2dVertex
 10
2370.452579637153
 20
1321.143685075527
 30
0.0
 42
0.0105865329834797
  0
VERTEX
  5
A13
330
91F
100
AcDbEntity
  8
_0-0_
  6
Continuous
 62
     7
100
AcDbVertex
100
AcDb2dVertex
 10
2370.236188193163
 20
1322.094844359875
 30
0.0
 42
0.0153579324318459
 70
     1
  0
VERTEX
  5
9E8
330
91F
100
AcDbEntity
  8
_0-0_
  6
Continuous
 62
     7
100
AcDbVertex
100
AcDb2dVertex
 10
2370.053199506256
 20
1322.741959440487
 30
0.0
 42
0.0024884913847943
  0
VERTEX
  5
A14
330
91F
100
AcDbEntity
  8
_0-0_
  6
Continuous
 62
     7
100
AcDbVertex
100
AcDb2dVertex
 10
2370.028449930477
 20
1322.818885955509
 30
0.0
 42
-0.0022968626907385
 70
     1
  0
VERTEX
  5
9E9
330
91F
100
AcDbEntity
  8
_0-0_
  6
Continuous
 62
     7
100
AcDbVertex
100
AcDb2dVertex
 10
2370.001603560971
 20
1322.902220155007
 30
0.0
 42
-0.0397983984075798
  0
VERTEX
  5
A15
330
91F
100
AcDbEntity
  8
_0-0_
  6
Continuous
 62
     7
100
AcDbVertex
100
AcDb2dVertex
 10
2369.860792501703
 20
1323.510437278138
 30
0.0
 42
0.0317774908702264
 70
     1
  0
VERTEX
  5
9EA
330
91F
100
AcDbEntity
  8
_0-0_
  6
Continuous
 62
     7
100
AcDbVertex
100
AcDb2dVertex
 10
2369.69675966391
 20
1324.274462869656
 30
0.0
 42
0.0259971418749257
  0
VERTEX
  5
A16
330
91F
100
AcDbEntity
  8
_0-0_
  6
Continuous
 62
     7
100
AcDbVertex
100
AcDb2dVertex
 10
2369.503646515005
 20
1324.843819689926
 30
0.0
 42
0.0198764702616558
 70
     1
  0
VERTEX
  5
9EB
330
91F
100
AcDbEntity
  8
_0-0_
  6
Continuous
 62
     7
100
AcDbVertex
100
AcDb2dVertex
 10
2369.184004456913
 20
1325.562032571262
 30
0.0
 42
0.0236273287509611
  0
VERTEX
  5
A17
330
91F
100
AcDbEntity
  8
_0-0_
  6
Continuous
 62
     7
100
AcDbVertex
100
AcDb2dVertex
 10
2368.882432523431
 20
1326.10662252305
 30
0.0
 42
0.0227635298282696
 70
     1
  0
VERTEX
  5
9EC
330
91F
100
AcDbEntity
  8
_0-0_
  6
Continuous
 62
     7
100
AcDbVertex
100
AcDb2dVertex
 10
2368.518416602871
 20
1326.64043079029
 30
0.0
 42
0.029504954782389
  0
VERTEX
  5
A18
330
91F
100
AcDbEntity
  8
_0-0_
  6
Continuous
 62
     7
100
AcDbVertex
100
AcDb2dVertex
 10
2368.155339737526
 20
1327.068873712633
 30
0.0
 42
0.0277758321604413
 70
     1
  0
VERTEX
  5
9ED
330
91F
100
AcDbEntity
  8
_0-0_
  6
Continuous
 62
     7
100
AcDbVertex
100
AcDb2dVertex
 10
2367.720219651929
 20
1327.476890942553
 30
0.0
 42
0.0342979536144509
  0
VERTEX
  5
A19
330
91F
100
AcDbEntity
  8
_0-0_
  6
Continuous
 62
     7
100
AcDbVertex
100
AcDb2dVertex
 10
2367.294029485809
 20
1327.787082905947
 30
0.0
 42
0.0331278282109061
 70
     1
  0
VERTEX
  5
9EE
330
91F
100
AcDbEntity
  8
_0-0_
  6
Continuous
 62
     7
100
AcDbVertex
100
AcDb2dVertex
 10
2366.813666414533
 20
1328.045997609594
 30
0.0
 42
0.0369218515173571
  0
VERTEX
  5
A1A
330
91F
100
AcDbEntity
  8
_0-0_
  6
Continuous
 62
     7
100
AcDbVertex
100
AcDb2dVertex
 10
2366.33240065483
 20
1328.224030692485
 30
0.0
 42
0.036633497230893
 70
     1
  0
VERTEX
  5
9EF
330
91F
100
AcDbEntity
  8
_0-0_
  6
Continuous
 62
     7
100
AcDbVertex
100
AcDb2dVertex
 10
2365.826302052063
 20
1328.330458773315
 30
0.0
 42
0.0356499845908603
  0
VERTEX
  5
A1B
330
91F
100
AcDbEntity
  8
_0-0_
  6
Continuous
 62
     7
100
AcDbVertex
100
AcDb2dVertex
 10
2365.302189156556
 20
1328.363399059545
 30
0.0
 42
0.0363008017061702
 70
     1
  0
VERTEX
  5
9F0
330
91F
100
AcDbEntity
  8
_0-0_
  6
Continuous
 62
     7
100
AcDbVertex
100
AcDb2dVertex
 10
2364.788127131041
 20
1328.321631225203
 30
0.0
 42
0.0311136300040476
  0
VERTEX
  5
A1C
330
91F
100
AcDbEntity
  8
_0-0_
  6
Continuous
 62
     7
100
AcDbVertex
100
AcDb2dVertex
 10
2364.237782308417
 20
1328.200959704011
 30
0.0
 42
0.0325570026452229
 70
     1
  0
VERTEX
  5
9F1
330
91F
100
AcDbEntity
  8
_0-0_
  6
Continuous
 62
     7
100
AcDbVertex
100
AcDb2dVertex
 10
2363.730686071102
 20
1328.019783185838
 30
0.0
 42
0.0257017148351485
  0
VERTEX
  5
A1D
330
91F
100
AcDbEntity
  8
_0-0_
  6
Continuous
 62
     7
100
AcDbVertex
100
AcDb2dVertex
 10
2363.17502208184
 20
1327.744735645471
 30
0.0
 42
0.0275125935022596
 70
     1
  0
VERTEX
  5
9F2
330
91F
100
AcDbEntity
  8
_0-0_
  6
Continuous
 62
     7
100
AcDbVertex
100
AcDb2dVertex
 10
2362.686108683759
 20
1327.434086155154
 30
0.0
 42
0.0211221603884359
  0
VERTEX
  5
A1E
330
91F
100
AcDbEntity
  8
_0-0_
  6
Continuous
 62
     7
100
AcDbVertex
100
AcDb2dVertex
 10
2362.126842065589
 20
1326.997086578899
 30
0.0
 42
0.0247761558641959
 70
     1
  0
VERTEX
  5
9F3
330
91F
100
AcDbEntity
  8
_0-0_
  6
Continuous
 62
     7
100
AcDbVertex
100
AcDb2dVertex
 10
2361.686133924348
 20
1326.582336241054
 30
0.0
 42
0.0158441700633532
  0
VERTEX
  5
A1F
330
91F
100
AcDbEntity
  8
_0-0_
  6
Continuous
 62
     7
100
AcDbVertex
100
AcDb2dVertex
 10
2361.262691506228
 20
1326.113440409303
 30
0.0
 42
0.0125145081841107
 70
     1
  0
VERTEX
  5
9F4
330
91F
100
AcDbEntity
  8
_0-0_
  6
Continuous
 62
     7
100
AcDbVertex
100
AcDb2dVertex
 10
2360.761145519921
 20
1325.490413433669
 30
0.0
 42
0.0159422896097059
  0
VERTEX
  5
A20
330
91F
100
AcDbEntity
  8
_0-0_
  6
Continuous
 62
     7
100
AcDbVertex
100
AcDb2dVertex
 10
2360.26435083452
 20
1324.795829783854
 30
0.0
 42
0.0217477748890169
 70
     1
  0
VERTEX
  5
9F5
330
91F
100
AcDbEntity
  8
_0-0_
  6
Continuous
 62
     7
100
AcDbVertex
100
AcDb2dVertex
 10
2359.939476342701
 20
1324.260568783768
 30
0.0
 42
0.0284230300774788
  0
VERTEX
  5
A21
330
91F
100
AcDbEntity
  8
_0-0_
  6
Continuous
 62
     7
100
AcDbVertex
100
AcDb2dVertex
 10
2359.679945243534
 20
1323.71663635737
 30
0.0
 42
0.0206071100599986
 70
     1
  0
VERTEX
  5
9F6
330
91F
100
AcDbEntity
  8
_0-0_
  6
Continuous
 62
     7
100
AcDbVertex
100
AcDb2dVertex
 10
2359.397240519401
 20
1322.935263153329
 30
0.0
 42
0.0178404217859479
  0
VERTEX
  5
A22
330
91F
100
AcDbEntity
  8
_0-0_
  6
Continuous
 62
     7
100
AcDbVertex
100
AcDb2dVertex
 10
2359.388603398422
 20
1322.904087358292
 30
0.0
 42
0.0009364311840607
 70
     1
  0
VERTEX
  5
9F7
330
91F
100
AcDbEntity
  8
_0-0_
  6
Continuous
 62
     7
100
AcDbVertex
100
AcDb2dVertex
 10
2359.246511729371
 20
1322.30457317301
 30
0.0
 42
0.0971214582096977
  0
VERTEX
  5
A23
330
91F
100
AcDbEntity
  8
_0-0_
  6
Continuous
 62
     7
100
AcDbVertex
100
AcDb2dVertex
 10
2358.762996817995
 20
1309.315904375899
 30
0.0
 42
0.0998297906938351
 70
     1
  0
VERTEX
  5
9F8
330
91F
100
AcDbEntity
  8
_0-0_
  6
Continuous
 62
     7
100
AcDbVertex
100
AcDb2dVertex
 10
2363.165681991582
 20
1297.45493638216
 30
0.0
 42
0.0028513134890219
  0
VERTEX
  5
A24
330
91F
100
AcDbEntity
  8
_0-0_
  6
Continuous
 62
     7
100
AcDbVertex
100
AcDb2dVertex
 10
2363.925740139464
 20
1296.242974982841
 30
0.0
 42
0.0326388048226661
 70
     1
  0
VERTEX
  5
9F9
330
91F
100
AcDbEntity
  8
_0-0_
  6
Continuous
 62
     7
100
AcDbVertex
100
AcDb2dVertex
 10
2363.999555776461
 20
1296.141965738429
 30
0.0
 42
0.0129747189741741
  0
VERTEX
  5
A25
330
91F
100
AcDbEntity
  8
_0-0_
  6
Continuous
 62
     7
100
AcDbVertex
100
AcDb2dVertex
 10
2364.689509967444
 20
1295.358929465288
 30
0.0
 42
0.0298753151556869
 70
     1
  0
VERTEX
  5
9FA
330
91F
100
AcDbEntity
  8
_0-0_
  6
Continuous
 62
     7
100
AcDbVertex
100
AcDb2dVertex
 10
2365.017393879998
 20
1295.045523320001
 30
0.0
 42
0.0115632844463003
  0
VERTEX
  5
A26
330
91F
100
AcDbEntity
  8
_0-0_
  6
Continuous
 62
     7
100
AcDbVertex
100
AcDb2dVertex
 10
2365.275324465074
 20
1294.836958643442
 30
0.0
 42
0.0056522216001348
 70
     1
  0
VERTEX
  5
9FB
330
91F
100
AcDbEntity
  8
_0-0_
  6
Continuous
 62
     7
100
AcDbVertex
100
AcDb2dVertex
 10
2365.81731723446
 20
1294.4287366845
 30
0.0
 42
0.0204539649640211
  0
VERTEX
  5
A27
330
91F
100
AcDbEntity
  8
_0-0_
  6
Continuous
 62
     7
100
AcDbVertex
100
AcDb2dVertex
 10
2366.424304626031
 20
1294.019389842065
 30
0.0
 42
0.0223416835445919
 70
     1
  0
VERTEX
  5
9FC
330
91F
100
AcDbEntity
  8
_0-0_
  6
Continuous
 62
     7
100
AcDbVertex
100
AcDb2dVertex
 10
2367.010051550908
 20
1293.69347299353
 30
0.0
 42
0.0889757883288809
  0
VERTEX
  5
A28
330
91F
100
AcDbEntity
  8
_0-0_
  6
Continuous
 62
     7
100
AcDbVertex
100
AcDb2dVertex
 10
2367.509141080149
 20
1293.546930579819
 30
0.0
 42
0.0640050149770809
 70
     1
  0
VERTEX
  5
9FD
330
91F
100
AcDbEntity
  8
_0-0_
  6
Continuous
 62
     7
100
AcDbVertex
100
AcDb2dVertex
 10
2368.229352573046
 20
1293.561140011559
 30
0.0
 42
0.0567041458929042
  0
VERTEX
  5
A29
330
91F
100
AcDbEntity
  8
_0-0_
  6
Continuous
 62
     7
100
AcDbVertex
100
AcDb2dVertex
 10
2368.861415896101
 20
1293.729857603213
 30
0.0
 42
0.0568209283256572
 70
     1
  0
VERTEX
  5
9FE
330
91F
100
AcDbEntity
  8
_0-0_
  6
Continuous
 62
     7
100
AcDbVertex
100
AcDb2dVertex
 10
2369.438172456311
 20
1294.035758609282
 30
0.0
 42
0.0354811060485468
  0
VERTEX
  5
A2A
330
91F
100
AcDbEntity
  8
_0-0_
  6
Continuous
 62
     7
100
AcDbVertex
100
AcDb2dVertex
 10
2370.101742641915
 20
1294.563756124779
 30
0.0
 42
0.0410102746532214
 70
     1
  0
VERTEX
  5
9FF
330
91F
100
AcDbEntity
  8
_0-0_
  6
Continuous
 62
     7
100
AcDbVertex
100
AcDb2dVertex
 10
2370.59978182024
 20
1295.102907740776
 30
0.0
 42
0.01956407650324
  0
VERTEX
  5
A2C
330
91F
100
AcDbEntity
  8
_0-0_
  6
Continuous
 62
     7
100
AcDbVertex
100
AcDb2dVertex
 10
2370.933622399252
 20
1295.565930619319
 30
0.0
 42
0.0080762505662395
 70
     1
  0
VERTEX
  5
A00
330
91F
100
AcDbEntity
  8
_0-0_
  6
Continuous
 62
     7
100
AcDbVertex
100
AcDb2dVertex
 10
2371.678885752116
 20
1296.730162619683
 30
0.0
 42
0.0269227774383001
  0
VERTEX
  5
A2B
330
91F
100
AcDbEntity
  8
_0-0_
  6
Continuous
 62
     7
100
AcDbVertex
100
AcDb2dVertex
 10
2371.952128144581
 20
1297.231016294045
 30
0.0
 42
0.0155278052446446
 70
     1
  0
VERTEX
  5
A01
330
91F
100
AcDbEntity
  8
_0-0_
  6
Continuous
 62
     7
100
AcDbVertex
100
AcDb2dVertex
 10
2372.350362793345
 20
1298.13602061475
 30
0.0
  0
SEQEND
  5
A02
330
91F
100
AcDbEntity
  8
_0-0_
  6
Continuous
 62
     7
  0
TEXT
  5
926
330
20
100
AcDbEntity
  8
_0-0_
 62
     7
100
AcDbText
 10
2437.65198752212
 20
1128.75
 30
0.0
 40
52.5
  1
φ6.0- 8
 41
0.6
  7
MSゴシック
100
AcDbText
  0
TEXT
  5
927
330
20
100
AcDbEntity
  8
_0-0_
 62
     7
100
AcDbText
 10
2437.65198752212
 20
1053.75
 30
0.0
 40
52.5
  1
φ6.0- 8
 41
0.6
  7
MSゴシック
100
AcDbText
  0
TEXT
  5
928
330
20
100
AcDbEntity
  8
_0-0_
 62
     7
100
AcDbText
 10
2437.65198752212
 20
978.7499999999999
 30
0.0
 40
52.5
  1
φ6.0- 8
 41
0.6
  7
MSゴシック
100
AcDbText
  0
TEXT
  5
929
330
20
100
AcDbEntity
  8
_0-0_
 62
     7
100
AcDbText
 10
2437.65198752212
 20
903.7499999999999
 30
0.0
 40
52.5
  1
φ6.0- 8
 41
0.6
  7
MSゴシック
100
AcDbText
  0
TEXT
  5
92A
330
20
100
AcDbEntity
  8
_0-0_
 62
     7
100
AcDbText
 10
2437.65198752212
 20
828.7499999999999
 30
0.0
 40
52.5
  1
φ6.0- 8
 41
0.6
  7
MSゴシック
100
AcDbText
  0
TEXT
  5
92B
330
20
100
AcDbEntity
  8
_0-0_
 62
     7
100
AcDbText
 10
2437.65198752212
 20
678.75
 30
0.0
 40
52.5
  1
φ6.0- 8
 41
0.6
  7
MSゴシック
100
AcDbText
  0
TEXT
  5
92C
330
20
100
AcDbEntity
  8
_0-0_
 62
     7
100
AcDbText
 10
2437.65198752212
 20
753.75
 30
0.0
 40
52.5
  1
φ6.0-11
 41
0.6
  7
MSゴシック
100
AcDbText
  0
TEXT
  5
92D
330
20
100
AcDbEntity
  8
_0-0_
 62
     7
100
AcDbText
 10
2610.151987522121
 20
1203.75
 30
0.0
 40
52.5
  1
φ4.0-11
 41
0.6
  7
MSゴシック
100
AcDbText
  0
TEXT
  5
92E
330
20
100
AcDbEntity
  8
_0-0_
 62
     7
100
AcDbText
 10
2610.151987522121
 20
1128.75
 30
0.0
 40
52.5
  1
φ4.0-11
 41
0.6
  7
MSゴシック
100
AcDbText
  0
TEXT
  5
92F
330
20
100
AcDbEntity
  8
_0-0_
 62
     7
100
AcDbText
 10
2610.151987522121
 20
1053.75
 30
0.0
 40
52.5
  1
φ4.0-13
 41
0.6
  7
MSゴシック
100
AcDbText
  0
TEXT
  5
930
330
20
100
AcDbEntity
  8
_0-0_
 62
     7
100
AcDbText
 10
2610.151987522121
 20
978.7499999999999
 30
0.0
 40
52.5
  1
φ4.0-15
 41
0.6
  7
MSゴシック
100
AcDbText
  0
TEXT
  5
931
330
20
100
AcDbEntity
  8
_0-0_
 62
     7
100
AcDbText
 10
2610.151987522121
 20
903.7499999999999
 30
0.0
 40
52.5
  1
φ4.0-14
 41
0.6
  7
MSゴシック
100
AcDbText
  0
TEXT
  5
932
330
20
100
AcDbEntity
  8
_0-0_
 62
     7
100
AcDbText
 10
2610.151987522121
 20
828.7499999999999
 30
0.0
 40
52.5
  1
φ4.0-16
 41
0.6
  7
MSゴシック
100
AcDbText
  0
TEXT
  5
933
330
20
100
AcDbEntity
  8
_0-0_
 62
     7
100
AcDbText
 10
2610.151987522121
 20
753.75
 30
0.0
 40
52.5
  1
φ4.0-17
 41
0.6
  7
MSゴシック
100
AcDbText
  0
TEXT
  5
934
330
20
100
AcDbEntity
  8
_0-0_
 62
     7
100
AcDbText
 10
2610.151987522121
 20
678.75
 30
0.0
 40
52.5
  1
φ4.0-21
 41
0.6
  7
MSゴシック
100
AcDbText
  0
ENDSEC
  0
SECTION
  2
OBJECTS
  0
DICTIONARY
  5
C
330
0
100
AcDbDictionary
281
     1
  3
ACAD_COLOR
350
1B
  3
ACAD_GROUP
350
D
  3
ACAD_LAYOUT
350
19
  3
ACAD_MATERIAL
350
1A
  3
ACAD_MLINESTYLE
350
16
  3
ACAD_PLOTSETTINGS
350
18
  3
ACAD_PLOTSTYLENAME
350
E
  3
ACDBHEADERROUNDTRIPXREC
350
B92
  3
AcDbVariableDictionary
350
956
  0
DICTIONARY
  5
1B
102
{ACAD_REACTORS
330
C
102
}
330
C
100
AcDbDictionary
281
     1
  0
DICTIONARY
  5
D
102
{ACAD_REACTORS
330
C
102
}
330
C
100
AcDbDictionary
281
     1
  0
DICTIONARY
  5
19
102
{ACAD_REACTORS
330
C
102
}
330
C
100
AcDbDictionary
281
     1
  3
Model
350
23
  3
レイアウト1
350
1F
  0
DICTIONARY
  5
1A
102
{ACAD_REACTORS
330
C
102
}
330
C
100
AcDbDictionary
281
     1
  0
DICTIONARY
  5
16
102
{ACAD_REACTORS
330
C
102
}
330
C
100
AcDbDictionary
281
     1
  3
Standard
350
17
  0
DICTIONARY
  5
18
102
{ACAD_REACTORS
330
C
102
}
330
C
100
AcDbDictionary
281
     1
  0
ACDBDICTIONARYWDFLT
  5
E
102
{ACAD_REACTORS
330
C
102
}
330
C
100
AcDbDictionary
281
     1
  3
Normal
350
F
100
AcDbDictionaryWithDefault
340
F
  0
DICTIONARY
  5
B92
102
{ACAD_REACTORS
330
C
102
}
330
C
100
AcDbDictionary
281
     1
  3
COLORDICT
350
B94
  3
MATERIALDICT
350
B93
  0
DICTIONARY
  5
956
102
{ACAD_REACTORS
330
C
102
}
330
C
100
AcDbDictionary
281
     1
  3
DIMASSOC
350
957
  3
PROJECTNAME
350
958
  0
LAYOUT
  5
23
102
{ACAD_XDICTIONARY
360
B97
102
}
102
{ACAD_REACTORS
330
19
102
}
330
19
100
AcDbPlotSettings
  1

  2
EPSON LP-S5000
  4

  6

 40
0.0
 41
0.0
 42
0.0
 43
0.0
 44
0.0
 45
0.0
 46
0.0
 47
0.0
 48
0.0
 49
0.0
140
0.0
141
0.0
142
1.0
143
1.0
 70
  1712
 72
     0
 73
     0
 74
     0
  7

 75
     0
147
1.0
148
0.0
149
0.0
100
AcDbLayout
  1
Model
 70
     1
 71
     0
 10
0.0
 20
0.0
 11
12.0
 21
9.0
 12
0.0
 22
0.0
 32
0.0
 14
0.0
 24
0.0
 34
0.0
 15
0.0
 25
0.0
 35
0.0
146
0.0
 13
0.0
 23
0.0
 33
0.0
 16
1.0
 26
0.0
 36
0.0
 17
0.0
 27
1.0
 37
0.0
 76
     0
330
20
  0
LAYOUT
  5
1F
102
{ACAD_XDICTIONARY
360
B95
102
}
102
{ACAD_REACTORS
330
19
102
}
330
19
100
AcDbPlotSettings
  1

  2
EPSON LP-S5000
  4

  6

 40
0.0
 41
0.0
 42
0.0
 43
0.0
 44
0.0
 45
0.0
 46
0.0
 47
0.0
 48
0.0
 49
0.0
140
0.0
141
0.0
142
1.0
143
1.0
 70
   688
 72
     0
 73
     0
 74
     5
  7

 75
    16
147
1.0
148
0.0
149
0.0
100
AcDbLayout
  1
レイアウト1
 70
     1
 71
     1
 10
0.0
 20
0.0
 11
12.0
 21
9.0
 12
0.0
 22
0.0
 32
0.0
 14
1.000000000000000E+20
 24
1.000000000000000E+20
 34
1.000000000000000E+20
 15
-1.000000000000000E+20
 25
-1.000000000000000E+20
 35
-1.000000000000000E+20
146
0.0
 13
0.0
 23
0.0
 33
0.0
 16
1.0
 26
0.0
 36
0.0
 17
0.0
 27
1.0
 37
0.0
 76
     0
330
1C
  0
MLINESTYLE
  5
17
102
{ACAD_REACTORS
330
16
102
}
330
16
100
AcDbMlineStyle
  2
STANDARD
 70
     0
  3

 62
   256
 51
90.0
 52
90.0
 71
     2
 49
0.5
 62
   256
  6
BYLAYER
 49
-0.5
 62
   256
  6
BYLAYER
  0
ACDBPLACEHOLDER
  5
F
102
{ACAD_REACTORS
330
E
102
}
330
E
  0
XRECORD
  5
B94
102
{ACAD_REACTORS
330
B92
102
}
330
B92
100
AcDbXrecord
280
     1
340
1B
  0
XRECORD
  5
B93
102
{ACAD_REACTORS
330
B92
102
}
330
B92
100
AcDbXrecord
280
     1
340
1A
  0
DICTIONARYVAR
  5
957
102
{ACAD_REACTORS
330
956
102
}
330
956
100
DictionaryVariables
280
     0
  1
1
  0
DICTIONARYVAR
  5
958
102
{ACAD_REACTORS
330
956
102
}
330
956
100
DictionaryVariables
280
     0
  1

  0
DICTIONARY
  5
B97
330
23
100
AcDbDictionary
280
     1
281
     1
  3
ACAD_XREC_ROUNDTRIP
360
B98
  0
DICTIONARY
  5
B95
330
1F
100
AcDbDictionary
280
     1
281
     1
  3
ACAD_XREC_ROUNDTRIP
360
B96
  0
XRECORD
  5
B98
102
{ACAD_REACTORS
330
B97
102
}
330
B97
100
AcDbXrecord
280
     1
102
SHADEPLOT
 70
     0
102
SHADEPLOTRESLEVEL
 70
     2
102
SHADEPLOTCUSTOMDPI
 70
   300
  0
XRECORD
  5
B96
102
{ACAD_REACTORS
330
B95
102
}
330
B95
100
AcDbXrecord
280
     1
102
SHADEPLOT
 70
     0
102
SHADEPLOTRESLEVEL
 70
     2
102
SHADEPLOTCUSTOMDPI
 70
   300
  0
ENDSEC
  0
EOF
