  0
SECTION
  2
HEADER
  9
$ACADVER
  1
AC1009
  9
$INSBASE
 10
0
 20
0
 30
0
  9
$EXTMIN
 10
0
 20
0
  9
$EXTMAX
 10
10395
 20
7350
  9
$LIMMIN
 10
0
 20
0
  9
$LIMMAX
 10
10395
 20
7350
  9
$LTSCALE
 40
35
  0
ENDSEC
  0
SECTION
  2
TABLES
  0
TABLE
  2
LTYPE
 70
     9
  0
LTYPE
  2
CONTINUOUS
 70
    64
  3
実線
 72
    65
 73
     0
 40
0.0
  0
LTYPE
  2
DASHED1
 70
    64
  3
--  --  --  --  --  --  --  --  
 72
    65
 73
     2
 40
2.5
 49
1.25
 49
-1.25
  0
LTYPE
  2
DASHED2
 70
    64
  3
----    ----    ----    ----    
 72
    65
 73
     2
 40
5.0
 49
2.5
 49
-2.5
  0
LTYPE
  2
DASHED3
 70
    64
  3
------  ------  ------  ------  
 72
    65
 73
     2
 40
5.0
 49
3.75
 49
-1.25
  0
LTYPE
  2
CENTER1
 70
    64
  3
----- - ----- - ----- - ----- - 
 72
    65
 73
     4
 40
10.0
 49
6.25
 49
-1.25
 49
1.25
 49
-1.25
  0
LTYPE
  2
CENTER2
 70
    64
  3
----------  --  ----------  --  
 72
    65
 73
     4
 40
20.0
 49
12.5
 49
-2.5
 49
2.5
 49
-2.5
  0
LTYPE
  2
PHANTOM1
 70
    64
  3
--- - - --- - - --- - - --- - - 
 72
    65
 73
     6
 40
10.0
 49
3.25
 49
-1.25
 49
1.25
 49
-1.25
 49
1.25
 49
-1.25
  0
LTYPE
  2
PHANTOM2
 70
    64
  3
--------  -  -  --------  -  -  
 72
    65
 73
     6
 40
20.0
 49
10.0
 49
-2.5
 49
1.25
 49
-2.5
 49
1.25
 49
-2.5
  0
LTYPE
  2
DOT
 70
    64
  3
-   -   -   -   -   -   -   -   
 72
    65
 73
     2
 40
2.5
 49
0.625
 49
-1.875
  0
LTYPE
  2
DUMMY
 70
    64
  3
ダミー
 72
    65
 73
     0
 40
0.0
  0
LTYPE
  2
RAND1
 70
    64
  3
ランダム線1
 72
    65
 73
     4
 40
10.0
 49
1.0
 49
-2.0
 49
3.0
 49
-4.0
  0
LTYPE
  2
RAND2
 70
    64
  3
ランダム線2
 72
    65
 73
     4
 40
14.0
 49
2.0
 49
-3.0
 49
4.0
 49
-5.0
  0
LTYPE
  2
RAND3
 70
    64
  3
ランダム線3
 72
    65
 73
     4
 40
18.0
 49
3.0
 49
-4.0
 49
5.0
 49
-6.0
  0
LTYPE
  2
RAND4
 70
    64
  3
ランダム線4
 72
    65
 73
     4
 40
22.0
 49
4.0
 49
-5.0
 49
6.0
 49
-7.0
  0
LTYPE
  2
RAND5
 70
    64
  3
ランダム線5
 72
    65
 73
     4
 40
26.0
 49
5.0
 49
-6.0
 49
7.0
 49
-8.0
  0
LTYPE
  2
LONG1
 70
    64
  3
----------  --  ----------  --  
 72
    65
 73
     4
 40
40.0
 49
32.5
 49
-2.5
 49
2.5
 49
-2.5
  0
LTYPE
  2
LONG2
 70
    64
  3
--------  -  -  --------  -  -  
 72
    65
 73
     6
 40
40.0
 49
30.0
 49
-2.5
 49
1.25
 49
-2.5
 49
1.25
 49
-2.5
  0
LTYPE
  2
LONG3
 70
    64
  3
+++++++++++++++..+++++++++++++++
 72
    65
 73
     2
 40
40.0
 49
37.5
 49
-2.5
  0
LTYPE
  2
LONG4
 70
    64
  3
+++++++++++++++..+++++++++++++++
 72
    65
 73
     2
 40
80.0
 49
75.0
 49
-5.0
  0
LTYPE
  2
LONG5
 70
    64
  3
----------  --  ----------  --  
 72
    65
 73
     4
 40
60.0
 49
37.5
 49
-7.5
 49
7.5
 49
-7.5
  0
LTYPE
  2
dashed
 70
   64
  3
-------   -------------   ------
 72
   65
 73
    2
 40
7.5
 49
6
 49
-1.5
  0
LTYPE
  2
dashed_spaced
 70
   64
  3
----        --------        ----
 72
   65
 73
    2
 40
12
 49
6
 49
-6
  0
LTYPE
  2
long_dashed_dotted
 70
   64
  3
------------- --- --------------
 72
   65
 73
    4
 40
15.25
 49
12
 49
-1.5
 49
0.25
 49
-1.5
  0
LTYPE
  2
long_dashed_double-dotted
 70
   64
  3
----------- --- --- ------------
 72
   65
 73
    6
 40
17
 49
12
 49
-1.5
 49
0.25
 49
-1.5
 49
0.25
 49
-1.5
  0
LTYPE
  2
long_dashed_triplicate-dotted
 70
   64
  3
--------- --- --- --- ----------
 72
   65
 73
    8
 40
18.75
 49
12
 49
-1.5
 49
0.25
 49
-1.5
 49
0.25
 49
-1.5
 49
0.25
 49
-1.5
  0
LTYPE
  2
dotted
 70
   64
  3
   -       -       -       -    
 72
   65
 73
    2
 40
1.75
 49
0.25
 49
-1.5
  0
LTYPE
  2
chain
 70
   64
  3
-------------- -- --------------
 72
   65
 73
    4
 40
18.5
 49
12
 49
-1.5
 49
3.5
 49
-1.5
  0
LTYPE
  2
chain_double_dash
 70
   64
  3
------------ -- -- -------------
 72
   65
 73
    6
 40
23.5
 49
12
 49
-1.5
 49
3.5
 49
-1.5
 49
3.5
 49
-1.5
  0
LTYPE
  2
dashed_dotted
 70
   64
  3
-----------     -     ----------
 72
   65
 73
    4
 40
9.25
 49
6
 49
-1.5
 49
0.25
 49
-1.5
  0
LTYPE
  2
double-dashed_dotted
 70
   64
  3
------   -----------   -   -----
 72
   65
 73
    6
 40
16.75
 49
6
 49
-1.5
 49
6
 49
-1.5
 49
0.25
 49
-1.5
  0
LTYPE
  2
dashed_double-dotted
 70
   64
  3
---------    -    -    ---------
 72
   65
 73
    6
 40
11
 49
6
 49
-1.5
 49
0.25
 49
-1.5
 49
0.25
 49
-1.5
  0
LTYPE
  2
double-dashed_double-dotted
 70
   64
  3
-----   ---------   -   -   ----
 72
   65
 73
    8
 40
18.5
 49
6
 49
-1.5
 49
6
 49
-1.5
 49
0.25
 49
-1.5
 49
0.25
 49
-1.5
  0
LTYPE
  2
dashed_triplicate-dotted
 70
   64
  3
-------    -    -    -    ------
 72
   65
 73
    8
 40
12.75
 49
6
 49
-1.5
 49
0.25
 49
-1.5
 49
0.25
 49
-1.5
 49
0.25
 49
-1.5
  0
LTYPE
  2
double-dashed_triplicate-dotted
 70
   64
  3
-----  ---------  -  -  -  -----
 72
   65
 73
   10
 40
20.25
 49
6
 49
-1.5
 49
6
 49
-1.5
 49
0.25
 49
-1.5
 49
0.25
 49
-1.5
 49
0.25
 49
-1.5
  0
LTYPE
  2
undefined
 70
   64
  3
--------------------------------
 72
   65
 73
    0
 40
0
  0
LTYPE
  2
_
 70
   64
  3
                                
 72
   65
 73
    0
 40
0
  0
LTYPE
  2
__18
 70
   64
  3
                                
 72
   65
 73
    0
 40
0
  0
LTYPE
  2
__19
 70
   64
  3
                                
 72
   65
 73
    0
 40
0
  0
LTYPE
  2
__20
 70
   64
  3
                                
 72
   65
 73
    0
 40
0
  0
LTYPE
  2
__21
 70
   64
  3
                                
 72
   65
 73
    0
 40
0
  0
LTYPE
  2
__22
 70
   64
  3
                                
 72
   65
 73
    0
 40
0
  0
LTYPE
  2
__23
 70
   64
  3
                                
 72
   65
 73
    0
 40
0
  0
LTYPE
  2
__24
 70
   64
  3
                                
 72
   65
 73
    0
 40
0
  0
LTYPE
  2
__25
 70
   64
  3
                                
 72
   65
 73
    0
 40
0
  0
LTYPE
  2
__26
 70
   64
  3
                                
 72
   65
 73
    0
 40
0
  0
LTYPE
  2
__27
 70
   64
  3
                                
 72
   65
 73
    0
 40
0
  0
LTYPE
  2
__28
 70
   64
  3
                                
 72
   65
 73
    0
 40
0
  0
LTYPE
  2
__29
 70
   64
  3
                                
 72
   65
 73
    0
 40
0
  0
LTYPE
  2
__30
 70
   64
  3
                                
 72
   65
 73
    0
 40
0
  0
LTYPE
  2
__31
 70
   64
  3
                                
 72
   65
 73
    0
 40
0
  0
LTYPE
  2
__32
 70
   64
  3
                                
 72
   65
 73
    0
 40
0
  0
ENDTAB
  0
TABLE
  2
STYLE
  5
3
100
AcDbSymbolTable
 70
     1
  0
STYLE
  5
10
100
AcDbSymbolTableRecord
100
AcDbTextStyleTableRecord
  2
STANDARD
 70
     0
 40
0.0
 41
1.0
 50
0.0
 71
     0
 42
0.2
  3
txt
  4
bigfont.shx
  0
STYLE
  5
26
100
AcDbSymbolTableRecord
100
AcDbTextStyleTableRecord
  2
TATEGAKI
 70
    68
 40
0.0
 41
1.0
 50
0.0
 71
     0
 42
1.0
  3
txt
  4
bigfont.shx
  0
ENDTAB
  0
TABLE
  2
LAYER
 70
    2
  0
LAYER
  2
_0-0_
 70
   64
 62
    7
  6
CONTINUOUS
  0
LAYER
  2
ADD_LINE
 70
   64
 62
    7
  6
CONTINUOUS
  0
ENDTAB
  0
ENDSEC
  0
SECTION
  2
BLOCKS
  0
ENDSEC
  0
SECTION
  2
ENTITIES
  0
LINE
  8
_0-0_
  6
CONTINUOUS
 62
    4
 10
1538.8743863340907
 20
4870.555228755159
 11
1276.4250455137787
 21
4870.555228755159
  0
LINE
  8
_0-0_
  6
CONTINUOUS
 62
    4
 10
2339.5355893534874
 20
3514.2286778417915
 11
2353.123479978487
 21
3463.517496201166
  0
LINE
  8
_0-0_
  6
CONTINUOUS
 62
    4
 10
2339.5355893534874
 20
3514.2286778417915
 11
2339.5355893534874
 21
3384.228677841791
  0
LINE
  8
_0-0_
  6
CONTINUOUS
 62
    4
 10
2339.5355893534874
 20
3514.2286778417915
 11
2325.947576658174
 21
3463.517496201166
  0
TEXT
  8
_0-0_
 62
    7
 10
2332.0355893534874
 20
3394.228677841791
 40
87.5
 41
1
 50
90
  1
30
  0
TEXT
  8
_0-0_
 62
    7
 10
2532.0355893534874
 20
3523.6036778417915
 40
87.5
 41
1
 50
90
  1
150
  0
LINE
  8
_0-0_
  6
CONTINUOUS
 62
    4
 10
2136.6132260722374
 20
3514.2286778417915
 11
2574.535589353487
 21
3514.2286778417915
  0
LINE
  8
_0-0_
  6
CONTINUOUS
 62
    4
 10
2126.6132260722374
 20
3664.2286778417915
 11
2574.535589353487
 21
3664.2286778417915
  0
LINE
  8
_0-0_
  6
CONTINUOUS
 62
    4
 10
2339.5355893534874
 20
3544.2286778417915
 11
2339.5355893534874
 21
3624.2286778417915
  0
LINE
  8
_0-0_
  6
CONTINUOUS
 62
    4
 10
2136.6132260722374
 20
3544.2286778417915
 11
2374.5355893534874
 21
3544.2286778417915
  0
LINE
  8
_0-0_
  6
CONTINUOUS
 62
    4
 10
2339.5355893534874
 20
3544.2286778417915
 11
2353.123479978487
 21
3594.939859482416
  0
LINE
  8
_0-0_
  6
CONTINUOUS
 62
    4
 10
2339.5355893534874
 20
3544.2286778417915
 11
2325.947576658174
 21
3594.939859482416
  0
LINE
  8
_0-0_
  6
CONTINUOUS
 62
    4
 10
2339.5355893534874
 20
3544.2286778417915
 11
2353.123479978487
 21
3594.939859482416
  0
LINE
  8
_0-0_
  6
CONTINUOUS
 62
    4
 10
2339.5355893534874
 20
3544.2286778417915
 11
2325.947576658174
 21
3594.939859482416
  0
LINE
  8
_0-0_
  6
CONTINUOUS
 62
    4
 10
2539.535589353487
 20
3514.2286778417915
 11
2553.123479978487
 21
3564.939859482416
  0
LINE
  8
_0-0_
  6
CONTINUOUS
 62
    4
 10
2539.535589353487
 20
3514.2286778417915
 11
2525.9475766581745
 21
3564.939859482416
  0
LINE
  8
_0-0_
  6
CONTINUOUS
 62
    4
 10
2539.535589353487
 20
3664.2286778417915
 11
2525.9475766581745
 21
3613.5174962011665
  0
LINE
  8
_0-0_
  6
CONTINUOUS
 62
    4
 10
2539.535589353487
 20
3664.2286778417915
 11
2553.123479978487
 21
3613.5174962011665
  0
LINE
  8
_0-0_
  6
CONTINUOUS
 62
    4
 10
2539.535589353487
 20
3664.2286778417915
 11
2539.535589353487
 21
3514.2286778417915
  0
LINE
  8
_0-0_
  6
CONTINUOUS
 62
    2
 10
1426.6907455472567
 20
2379.1759390000484
 11
1426.6907455472567
 21
1379.1759390000486
  0
LINE
  8
_0-0_
  6
CONTINUOUS
 62
    2
 10
3481.9802352933543
 20
5539.1432414504715
 11
3481.9802352933543
 21
5269.1432414504715
  0
LINE
  8
_0-0_
  6
CONTINUOUS
 62
    2
 10
8305.5880503144653
 20
3912.7664994825254
 11
8305.5880503144653
 21
3737.7664994825254
  0
TEXT
  8
_0-0_
 62
    7
 10
7854.6360759493663
 20
1625.4367088607589
 40
98
 41
1
 50
0
  1
試験項目
  0
TEXT
  8
_0-0_
 62
    7
 10
8504.6360759493672
 20
1625.4367088607589
 40
98
 41
1
 50
0
  1
規格値・
  0
TEXT
  8
_0-0_
 62
    7
 10
7854.6360759493663
 20
2544.0443037974678
 40
98
 41
1
 50
0
  1
試験項目
  0
TEXT
  8
_0-0_
 62
    7
 10
9206.8860759493672
 20
2386.7943037974678
 40
87.5
 41
1
 50
0
  1
JIS K 6767
  0
TEXT
  8
_0-0_
 62
    7
 10
9206.8860759493672
 20
2086.7943037974678
 40
87.5
 41
1
 50
0
  1
JIS K 6767
  0
TEXT
  8
_0-0_
 62
    7
 10
9206.8860759493672
 20
2236.7943037974678
 40
87.5
 41
1
 50
0
  1
JIS K 6767
  0
TEXT
  8
_0-0_
 62
    7
 10
7875.6360759493672
 20
2386.7943037974678
 40
87.5
 41
1
 50
0
  1
引張強さ
  0
TEXT
  8
_0-0_
 62
    7
 10
7919.3860759493672
 20
2236.7943037974678
 40
87.5
 41
1
 50
0
  1
伸び率
  0
TEXT
  8
_0-0_
 62
    7
 10
7985.6360759493682
 20
2086.7943037974678
 40
87.5
 41
0.8
 50
0
  1
圧縮硬さ
  0
TEXT
  8
_0-0_
 62
    7
 10
7835.6360759493663
 20
2086.7943037974678
 40
87.5
 41
1
 50
0
  1
50%
  0
TEXT
  8
_0-0_
 62
    7
 10
8344.3860759493672
 20
2386.7943037974678
 40
87.5
 41
1
 50
0
  1
kgf/cm
  0
TEXT
  8
_0-0_
 62
    7
 10
8344.3860759493672
 20
2086.7943037974678
 40
87.5
 41
1
 50
0
  1
kgf/cm
  0
TEXT
  8
_0-0_
 62
    7
 10
8431.8860759493672
 20
2236.7943037974678
 40
87.5
 41
1
 50
0
  1
％
  0
TEXT
  8
_0-0_
 62
    7
 10
8744.3860759493672
 20
2086.7943037974678
 40
87.5
 41
1
 50
0
  1
0.5
  0
TEXT
  8
_0-0_
 62
    7
 10
8744.3860759493672
 20
2236.7943037974678
 40
87.5
 41
1
 50
0
  1
100
  0
TEXT
  8
_0-0_
 62
    7
 10
8744.3860759493672
 20
2386.7943037974678
 40
87.5
 41
1
 50
0
  1
0.5
  0
TEXT
  8
_0-0_
 62
    7
 10
8895.6360759493672
 20
2086.7943037974678
 40
87.5
 41
0.8
 50
0
  1
以下
  0
TEXT
  8
_0-0_
 62
    7
 10
8895.6360759493672
 20
2236.7943037974678
 40
87.5
 41
0.8
 50
0
  1
以上
  0
TEXT
  8
_0-0_
 62
    7
 10
8895.6360759493672
 20
2386.7943037974678
 40
87.5
 41
0.8
 50
0
  1
以上
  0
TEXT
  8
_0-0_
 62
    7
 10
7842.7616033755284
 20
2711.0189873417716
 40
105
 41
1
 50
0
  1
一般物性
  0
LINE
  8
_0-0_
  6
CONTINUOUS
 62
    3
 10
7800.6360759493663
 20
2680.5443037974682
 11
9750.6360759493672
 21
2680.5443037974682
  0
LINE
  8
_0-0_
  6
CONTINUOUS
 62
    3
 10
8300.6360759493672
 20
2055.5443037974682
 11
8300.6360759493672
 21
2680.5443037974682
  0
LINE
  8
_0-0_
  6
CONTINUOUS
 62
    3
 10
7800.6360759493663
 20
2505.5443037974682
 11
9750.6360759493672
 21
2505.5443037974682
  0
LINE
  8
_0-0_
  6
CONTINUOUS
 62
    3
 10
7800.6360759493663
 20
2355.5443037974678
 11
9750.6360759493672
 21
2355.5443037974678
  0
LINE
  8
_0-0_
  6
CONTINUOUS
 62
    3
 10
7800.6360759493663
 20
2205.5443037974678
 11
9750.6360759493672
 21
2205.5443037974678
  0
LINE
  8
_0-0_
  6
CONTINUOUS
 62
    3
 10
7800.6360759493663
 20
2055.5443037974682
 11
9750.6360759493672
 21
2055.5443037974682
  0
LINE
  8
_0-0_
  6
CONTINUOUS
 62
    3
 10
7800.6360759493663
 20
2055.5443037974682
 11
7800.6360759493663
 21
2680.5443037974682
  0
LINE
  8
_0-0_
  6
CONTINUOUS
 62
    3
 10
8660.6360759493672
 20
2055.5443037974682
 11
8660.6360759493672
 21
2680.5443037974682
  0
LINE
  8
_0-0_
  6
CONTINUOUS
 62
    3
 10
9100.6360759493672
 20
2055.5443037974682
 11
9100.6360759493672
 21
2680.5443037974682
  0
LINE
  8
_0-0_
  6
CONTINUOUS
 62
    3
 10
9750.6360759493672
 20
2055.5443037974682
 11
9750.6360759493672
 21
2680.5443037974682
  0
LINE
  8
_0-0_
  6
CONTINUOUS
 62
    3
 10
7800.6360759493663
 20
1586.9367088607591
 11
9750.6360759493672
 21
1586.9367088607591
  0
LINE
  8
_0-0_
  6
CONTINUOUS
 62
    3
 10
7800.6360759493663
 20
1761.9367088607591
 11
9750.6360759493672
 21
1761.9367088607591
  0
TEXT
  8
_0-0_
 62
    7
 10
9131.6360759493672
 20
1348.1867088607586
 40
87.5
 41
1.1199999999999998
 50
0
  1
ｻﾝｼｬｲﾝｶｰﾎﾞﾝ･
  0
TEXT
  8
_0-0_
 62
    7
 10
9543.6360759493527
 20
1464.8533755274256
 40
87.5
 41
0.7199999999999999
 50
0
  1
による
  0
TEXT
  8
_0-0_
 62
    7
 10
9130.8860759493582
 20
1464.8533755274256
 40
87.5
 41
0.9199999999999999
 50
0
  1
JIS K 6266
  0
TEXT
  8
_0-0_
 62
    7
 10
7919.3860759493672
 20
1464.8533755274256
 40
87.5
 41
1
 50
0
  1
耐候性
  0
TEXT
  8
_0-0_
 62
    7
 10
8338.3860759493672
 20
1348.1867088607586
 40
87.5
 41
0.7199999999999999
 50
0
  1
亀裂､削れ等異常なきこと
  0
TEXT
  8
_0-0_
 62
    7
 10
9316.2610759493672
 20
1226.5200421940921
 40
87.5
 41
1
 50
0
  1
1000H
  0
LINE
  8
_0-0_
  6
CONTINUOUS
 62
    3
 10
7800.6360759493663
 20
1196.9367088607591
 11
9750.6360759493672
 21
1196.9367088607591
  0
TEXT
  8
_0-0_
 62
    7
 10
7831.8860759493672
 20
1074.8533755274252
 40
87.5
 41
1
 50
0
  1
耐ｱｽﾌｧﾙﾄ性
  0
TEXT
  8
_0-0_
 62
    7
 10
8338.3860759493672
 20
958.18670886075881
 40
87.5
 41
0.7199999999999999
 50
0
  1
亀裂､破れ､溶け等　　　 
  0
TEXT
  8
_0-0_
 62
    7
 10
8354.1360759493672
 20
836.52004219409241
 40
87.5
 41
0.7199999999999999
 50
0
  1
　　　　　異常なきこと
  0
TEXT
  8
_0-0_
 62
    7
 10
9141.2610759493672
 20
1074.8533755274252
 40
87.5
 41
1
 50
0
  1
185℃熱板で　
  0
TEXT
  8
_0-0_
 62
    7
 10
9163.1360759493672
 20
958.18670886075881
 40
87.5
 41
1
 50
0
  1
   1分間放置
  0
LINE
  8
_0-0_
  6
CONTINUOUS
 62
    3
 10
7800.6360759493663
 20
1761.9367088607591
 11
7800.6360759493663
 21
806.93670886075835
  0
LINE
  8
_0-0_
  6
CONTINUOUS
 62
    3
 10
8300.6360759493672
 20
1761.9367088607591
 11
8300.6360759493672
 21
806.93670886075835
  0
LINE
  8
_0-0_
  6
CONTINUOUS
 62
    3
 10
9100.6360759493672
 20
1761.9367088607591
 11
9100.6360759493672
 21
806.93670886075835
  0
LINE
  8
_0-0_
  6
CONTINUOUS
 62
    3
 10
9750.6360759493672
 20
1761.9367088607591
 11
9750.6360759493672
 21
806.93670886075835
  0
LINE
  8
_0-0_
  6
CONTINUOUS
 62
    3
 10
7800.6360759493663
 20
806.93670886075835
 11
9750.6360759493672
 21
806.93670886075835
  0
TEXT
  8
_0-0_
 62
    7
 10
7842.7616033755284
 20
1792.4113924050629
 40
105
 41
1
 50
0
  1
製品性能試験
  0
TEXT
  8
_0-0_
 62
    7
 10
9219.1360759493672
 20
2544.0443037974678
 40
98
 41
1
 50
0
  1
試験方法
  0
TEXT
  8
_0-0_
 62
    7
 10
8377.6360759493672
 20
2544.0443037974678
 40
98
 41
1
 50
0
  1
単位
  0
TEXT
  8
_0-0_
 62
    7
 10
8733.6360759493672
 20
2544.0443037974678
 40
98
 41
1
 50
0
  1
規格値
  0
TEXT
  8
_0-0_
 62
    7
 10
9219.1360759493672
 20
1625.4367088607589
 40
98
 41
1
 50
0
  1
試験方法
  0
TEXT
  8
_0-0_
 62
    7
 10
8509.8860759493672
 20
1074.8533755274252
 40
87.5
 41
1
 50
0
  1
外観表面
  0
TEXT
  8
_0-0_
 62
    7
 10
8509.8860759493672
 20
1464.8533755274256
 40
87.5
 41
1
 50
0
  1
外観表面
  0
LINE
  8
_0-0_
  6
CONTINUOUS
 62
    3
 10
8105.6360759493663
 20
3035.2943037974678
 11
9445.6360759493654
 21
3035.2943037974678
  0
TEXT
  8
_0-0_
 62
    7
 10
8142.1360759493672
 20
3041.2943037974678
 40
112
 41
1
 50
0
  1
シール材の品質及び性能
  0
LINE
  8
_0-0_
  6
CONTINUOUS
 62
  136
 10
10002.5
 20
6925
 11
392.50000000000028
 21
6925
  0
LINE
  8
_0-0_
  6
CONTINUOUS
 62
  136
 10
392.50000000000028
 20
6925
 11
392.50000000000028
 21
255.00000000000022
  0
LINE
  8
_0-0_
  6
CONTINUOUS
 62
  136
 10
392.50000000000028
 20
255.00000000000022
 11
10002.5
 21
255.00000000000022
  0
LINE
  8
_0-0_
  6
CONTINUOUS
 62
  136
 10
10002.5
 20
255.00000000000022
 11
10002.5
 21
6925
  0
LINE
  8
_0-0_
  6
CONTINUOUS
 62
    2
 10
6211.906446540881
 20
1506.75692997917
 11
6211.906446540881
 21
1606.75692997917
  0
LINE
  8
_0-0_
  6
CONTINUOUS
 62
    2
 10
5294.906446540881
 20
1606.75692997917
 11
6569.906446540881
 21
1606.75692997917
  0
LINE
  8
_0-0_
  6
CONTINUOUS
 62
    6
 10
6142.40644654088
 20
1624.5069299791705
 11
6247.40644654088
 21
1624.5069299791705
  0
LINE
  8
_0-0_
  6
CONTINUOUS
 62
    6
 10
6142.40644654088
 20
1623.50692997917
 11
6247.40644654088
 21
1623.50692997917
  0
LINE
  8
_0-0_
  6
CONTINUOUS
 62
    6
 10
6247.40644654088
 20
1625.5069299791709
 11
6142.40644654088
 21
1625.5069299791709
  0
LINE
  8
_0-0_
  6
CONTINUOUS
 62
    2
 10
6177.90644654088
 20
1506.75692997917
 11
6177.90644654088
 21
1606.75692997917
  0
LINE
  8
_0-0_
  6
CONTINUOUS
 62
    2
 10
6177.90644654088
 20
1506.75692997917
 11
6211.906446540881
 21
1506.75692997917
  0
LINE
  8
_0-0_
  6
CONTINUOUS
 62
    2
 10
6177.90644654088
 20
1525.6243508523618
 11
6178.1224503472476
 21
1525.6609692308647
  0
LINE
  8
_0-0_
  6
CONTINUOUS
 62
    2
 10
5686.906446540881
 20
1506.75692997917
 11
5686.906446540881
 21
1606.75692997917
  0
LINE
  8
_0-0_
  6
CONTINUOUS
 62
    2
 10
5652.906446540881
 20
1506.75692997917
 11
5652.906446540881
 21
1606.75692997917
  0
LINE
  8
_0-0_
  6
CONTINUOUS
 62
    2
 10
5652.906446540881
 20
1506.75692997917
 11
5686.906446540881
 21
1506.75692997917
  0
LINE
  8
_0-0_
  6
CONTINUOUS
 62
    6
 10
5617.40644654088
 20
1624.5069299791705
 11
5722.40644654088
 21
1624.5069299791705
  0
LINE
  8
_0-0_
  6
CONTINUOUS
 62
    6
 10
5617.40644654088
 20
1623.50692997917
 11
5722.40644654088
 21
1623.50692997917
  0
LINE
  8
_0-0_
  6
CONTINUOUS
 62
    6
 10
5722.40644654088
 20
1625.5069299791709
 11
5617.40644654088
 21
1625.5069299791709
  0
LINE
  8
_0-0_
  6
CONTINUOUS
 62
    2
 10
5652.906446540881
 20
1523.8082960978949
 11
5686.906446540881
 21
1523.8082960978949
  0
LINE
  8
_0-0_
  6
CONTINUOUS
 62
    2
 10
5652.906446540881
 20
1525.6243508523618
 11
5653.1224503472476
 21
1525.6609692308647
  0
LINE
  8
_0-0_
  6
CENTER1
 62
    4
 10
5244.906446540881
 20
1406.7569299791703
 11
6619.906446540881
 21
1406.7569299791703
  0
LINE
  8
_0-0_
  6
CENTER1
 62
    4
 10
5294.906446540881
 20
1656.7569299791703
 11
5294.906446540881
 21
1356.7569299791703
  0
LINE
  8
_0-0_
  6
CENTER1
 62
    4
 10
6569.906446540881
 20
1656.7569299791703
 11
6569.906446540881
 21
1356.7569299791703
  0
LINE
  8
_0-0_
  6
CONTINUOUS
 62
    2
 10
5932.40644654088
 20
1406.7569299791703
 11
5932.40644654088
 21
1622.5069299791703
  0
LINE
  8
_0-0_
  6
CONTINUOUS
 62
    6
 10
5722.40644654088
 20
1626.5069299791712
 11
5617.40644654088
 21
1626.5069299791712
  0
LINE
  8
_0-0_
  6
CONTINUOUS
 62
    6
 10
6247.40644654088
 20
1626.5069299791712
 11
6142.40644654088
 21
1626.5069299791712
  0
LINE
  8
_0-0_
  6
CONTINUOUS
 62
    4
 10
6419.4738351997066
 20
1126.087714256449
 11
6199.6943610299904
 21
1506.75692997917
  0
LINE
  8
_0-0_
  6
CONTINUOUS
 62
    4
 10
6199.6943610299904
 20
1506.75692997917
 11
6236.817467042284
 21
1469.6338239668764
  0
LINE
  8
_0-0_
  6
CONTINUOUS
 62
    4
 10
6199.6943610299904
 20
1506.75692997917
 11
6213.2823608978724
 21
1456.0458240989939
  0
ARC
  8
_0-0_
  6
CONTINUOUS
 62
    2
 10
6169.656446540881
 20
1646.5069299791712
 40
8
 50
90
 51
180
  0
LINE
  8
_0-0_
  6
CONTINUOUS
 62
    2
 10
6220.156446540881
 20
1654.5069299791712
 11
6169.656446540881
 21
1654.5069299791712
  0
ARC
  8
_0-0_
  6
CONTINUOUS
 62
    2
 10
6220.156446540881
 20
1646.5069299791712
 40
8
 50
0
 51
90.000000000000014
  0
ARC
  8
_0-0_
  6
CONTINUOUS
 62
    2
 10
6194.8887902586538
 20
1616.4403671945738
 40
38.066566879323474
 50
60.095391358200487
 51
119.9115064859975
  0
ARC
  8
_0-0_
  6
CONTINUOUS
 62
    2
 10
6221.9313203852334
 20
1645.593441702824
 40
8.8985406554410761
 50
95.420563904963273
 51
154.50708730578242
  0
ARC
  8
_0-0_
  6
CONTINUOUS
 62
    2
 10
6169.1409898528354
 20
1647.4672045259524
 40
7.0461971242491765
 50
16.4938955136471
 51
87.212432526694499
  0
ARC
  8
_0-0_
  6
CONTINUOUS
 62
    2
 10
5644.656446540881
 20
1646.5069299791712
 40
8
 50
90
 51
180
  0
LINE
  8
_0-0_
  6
CONTINUOUS
 62
    2
 10
5695.156446540881
 20
1654.5069299791712
 11
5644.656446540881
 21
1654.5069299791712
  0
ARC
  8
_0-0_
  6
CONTINUOUS
 62
    2
 10
5695.156446540881
 20
1646.5069299791712
 40
8
 50
0
 51
90.000000000000014
  0
ARC
  8
_0-0_
  6
CONTINUOUS
 62
    2
 10
5669.8887902586557
 20
1616.4403671945738
 40
38.066566879323474
 50
60.095391358200487
 51
119.9115064859975
  0
ARC
  8
_0-0_
  6
CONTINUOUS
 62
    2
 10
5696.9313203852334
 20
1645.593441702824
 40
8.8985406554410761
 50
95.420563904963273
 51
154.50708730578242
  0
ARC
  8
_0-0_
  6
CONTINUOUS
 62
    2
 10
5644.1409898528354
 20
1647.4672045259524
 40
7.0461971242491765
 50
16.4938955136471
 51
87.212432526694499
  0
LINE
  8
_0-0_
  6
CONTINUOUS
 62
    6
 10
6247.40644654088
 20
1627.5069299791716
 11
6142.40644654088
 21
1627.5069299791716
  0
LINE
  8
_0-0_
  6
CONTINUOUS
 62
    6
 10
5722.40644654088
 20
1627.5069299791716
 11
5617.40644654088
 21
1627.5069299791716
  0
LINE
  8
_0-0_
  6
CONTINUOUS
 62
    4
 10
6339.8069339030398
 20
1904.8481459031295
 11
6222.852657846307
 21
1654.03889151628
  0
LINE
  8
_0-0_
  6
CONTINUOUS
 62
    4
 10
6222.852657846307
 20
1654.03889151628
 11
6231.9691871738214
 21
1705.7412985494211
  0
LINE
  8
_0-0_
  6
CONTINUOUS
 62
    4
 10
6222.852657846307
 20
1654.03889151628
 11
6256.59900735485
 21
1694.2562247800262
  0
LINE
  8
_0-0_
  6
CONTINUOUS
 62
    3
 10
6177.90644654088
 20
1523.8082960978949
 11
6211.906446540881
 21
1523.8082960978949
  0
LINE
  8
_0-0_
  6
CONTINUOUS
 62
    3
 10
6177.90644654088
 20
1523.8082960978949
 11
6211.906446540881
 21
1523.8082960978949
  0
LINE
  8
_0-0_
  6
CONTINUOUS
 62
    3
 10
6177.9553085566622
 20
1526.6469020996951
 11
6211.7393047502946
 21
1532.3741861729265
  0
LINE
  8
_0-0_
  6
CONTINUOUS
 62
    3
 10
6177.7741689877439
 20
1536.7718051359156
 11
6211.7741689877448
 21
1541.3091125500777
  0
LINE
  8
_0-0_
  6
CONTINUOUS
 62
    3
 10
6177.7724521084583
 20
1546.9135898669126
 11
6212.1380766232205
 21
1551.5602958195795
  0
LINE
  8
_0-0_
  6
CONTINUOUS
 62
    3
 10
6177.7701544713227
 20
1557.0550668366383
 11
6211.9879149102889
 21
1561.7626036641668
  0
LINE
  8
_0-0_
  6
CONTINUOUS
 62
    3
 10
6178.1365399775704
 20
1567.24810382814
 11
6211.7605820573953
 21
1572.2056807247674
  0
LINE
  8
_0-0_
  6
CONTINUOUS
 62
    3
 10
6178.2824044610561
 20
1576.4014776351993
 11
6211.906446540881
 21
1580.5407115010352
  0
LINE
  8
_0-0_
  6
CONTINUOUS
 62
    3
 10
6178.1755537971866
 20
1587.538431102949
 11
6211.7995958770125
 21
1591.15186896212
  0
LINE
  8
_0-0_
  6
CONTINUOUS
 62
    3
 10
5652.906446540881
 20
1523.8082960978949
 11
5686.906446540881
 21
1523.8082960978949
  0
LINE
  8
_0-0_
  6
CONTINUOUS
 62
    3
 10
5652.9553085566622
 20
1526.6469020996951
 11
5686.7393047502955
 21
1532.3741861729265
  0
LINE
  8
_0-0_
  6
CONTINUOUS
 62
    3
 10
5652.7741689877439
 20
1536.7718051359156
 11
5686.7741689877448
 21
1541.3091125500777
  0
LINE
  8
_0-0_
  6
CONTINUOUS
 62
    3
 10
5652.7724521084583
 20
1546.9135898669126
 11
5687.1380766232205
 21
1551.5602958195795
  0
LINE
  8
_0-0_
  6
CONTINUOUS
 62
    3
 10
5652.7701544713227
 20
1557.0550668366383
 11
5686.9879149102889
 21
1561.7626036641668
  0
LINE
  8
_0-0_
  6
CONTINUOUS
 62
    3
 10
5653.1365399775704
 20
1567.24810382814
 11
5686.7605820573953
 21
1572.2056807247674
  0
LINE
  8
_0-0_
  6
CONTINUOUS
 62
    3
 10
5653.2824044610561
 20
1576.4014776351993
 11
5686.906446540881
 21
1580.5407115010352
  0
LINE
  8
_0-0_
  6
CONTINUOUS
 62
    3
 10
5653.1755537971866
 20
1587.538431102949
 11
5686.7995958770125
 21
1591.15186896212
  0
LINE
  8
_0-0_
  6
CONTINUOUS
 62
    3
 10
5494.90644654088
 20
1622.5069299791703
 11
6369.90644654088
 21
1622.5069299791703
  0
LINE
  8
_0-0_
  6
CONTINUOUS
 62
    3
 10
5494.90644654088
 20
1622.5069299791703
 11
5494.90644654088
 21
1606.75692997917
  0
LINE
  8
_0-0_
  6
CONTINUOUS
 62
    3
 10
6369.90644654088
 20
1622.5069299791703
 11
6369.90644654088
 21
1606.75692997917
  0
TEXT
  8
_0-0_
 62
    7
 10
6430.3241742877826
 20
1793.7478198616324
 40
98
 41
1
 50
0
  1
(ﾒｯｷ)
  0
TEXT
  8
_0-0_
 62
    7
 10
6371.9147523363499
 20
1917.0200584416586
 40
98
 41
1
 50
0
  1
ﾎﾞﾙﾄ M12
  0
TEXT
  8
_0-0_
 62
    7
 10
6453.7934682578197
 20
1134.7596267949777
 40
98
 41
1
 50
0
  1
ｲﾝｻｰﾄ M12
  0
LINE
  8
_0-0_
  6
CONTINUOUS
 62
    4
 10
6339.8069339030398
 20
1904.8481459031295
 11
6782.3055251379555
 21
1904.8481459031295
  0
LINE
  8
_0-0_
  6
CONTINUOUS
 62
    4
 10
6419.4738351997066
 20
1126.087714256449
 11
6919.0618428150901
 21
1126.087714256449
  0
TEXT
  8
_0-0_
 62
    7
 10
6549.0120250911404
 20
1005.7425093843927
 40
98
 41
1
 50
0
  1
(ﾒｯｷ)
  0
TEXT
  8
_0-0_
 62
    7
 10
5171.0009351526232
 20
1909.3541216974372
 40
98
 41
1
 50
0
  1
ﾜｯｼｬー
  0
TEXT
  8
_0-0_
 62
    7
 10
5197.4603490618028
 20
1792.3099763719089
 40
98
 41
1
 50
0
  1
(ﾒｯｷ)
  0
LINE
  8
_0-0_
  6
CONTINUOUS
 62
    4
 10
5495.9143895315219
 20
1905.1551516006172
 11
5130.7239622520764
 21
1905.1551516006172
  0
LINE
  8
_0-0_
  6
CONTINUOUS
 62
    6
 10
5722.40644654088
 20
1628.5069299791719
 11
5617.40644654088
 21
1628.5069299791719
  0
LINE
  8
_0-0_
  6
CONTINUOUS
 62
    4
 10
5495.9143895315219
 20
1905.1551516006172
 11
5624.9175738885624
 21
1628.5069299791719
  0
LINE
  8
_0-0_
  6
CONTINUOUS
 62
    4
 10
5625.3838815467179
 20
1627.5069299791716
 11
5625.4356738921851
 21
1627.3958609358869
  0
LINE
  8
_0-0_
  6
CONTINUOUS
 62
    4
 10
5624.9175738885624
 20
1628.5069299791719
 11
5591.1712243800193
 21
1668.7242632429183
  0
LINE
  8
_0-0_
  6
CONTINUOUS
 62
    4
 10
5624.9175738885624
 20
1628.5069299791719
 11
5615.8010445610489
 21
1680.2093370123129
  0
LINE
  8
_0-0_
  6
CONTINUOUS
 62
    2
 10
5703.156446540881
 20
1646.5069299791712
 11
5703.156446540881
 21
1629.0942644017211
  0
LINE
  8
_0-0_
  6
CONTINUOUS
 62
    2
 10
5703.156446540881
 20
1629.0942644017211
 11
5703.156446540881
 21
1628.5069299791719
  0
LINE
  8
_0-0_
  6
CONTINUOUS
 62
    2
 10
5636.656446540881
 20
1646.5069299791712
 11
5636.656446540881
 21
1628.5069299791719
  0
LINE
  8
_0-0_
  6
CONTINUOUS
 62
    2
 10
5650.90644654088
 20
1628.5069299791719
 11
5650.90644654088
 21
1649.5069299791709
  0
LINE
  8
_0-0_
  6
CONTINUOUS
 62
    2
 10
5688.90644654088
 20
1628.5069299791719
 11
5688.90644654088
 21
1649.438623828388
  0
LINE
  8
_0-0_
  6
CONTINUOUS
 62
    6
 10
6247.40644654088
 20
1628.5069299791719
 11
6142.40644654088
 21
1628.5069299791719
  0
LINE
  8
_0-0_
  6
CONTINUOUS
 62
    2
 10
6161.656446540881
 20
1646.5069299791712
 11
6161.656446540881
 21
1628.5069299791719
  0
LINE
  8
_0-0_
  6
CONTINUOUS
 62
    2
 10
6175.90644654088
 20
1628.5069299791719
 11
6175.90644654088
 21
1649.5069299791709
  0
LINE
  8
_0-0_
  6
CONTINUOUS
 62
    2
 10
6213.90644654088
 20
1628.5069299791719
 11
6213.90644654088
 21
1649.438623828388
  0
LINE
  8
_0-0_
  6
CONTINUOUS
 62
    2
 10
6228.15644654088
 20
1646.5069299791712
 11
6228.15644654088
 21
1628.5069299791719
  0
LINE
  8
_0-0_
  6
CONTINUOUS
 62
    4
 10
991.69074554725716
 20
1379.1759390000486
 11
978.10274567937574
 21
1429.8870448802244
  0
LINE
  8
_0-0_
  6
CONTINUOUS
 62
    4
 10
991.69074554725716
 20
1379.1759390000486
 11
1005.2787454151406
 21
1429.8870448802244
  0
LINE
  8
_0-0_
  6
CONTINUOUS
 62
    4
 10
1391.6907455472567
 20
1379.1759390000486
 11
956.69074554725614
 21
1379.1759390000486
  0
LINE
  8
_0-0_
  6
CONTINUOUS
 62
    4
 10
1191.6907455472564
 20
1379.1759390000486
 11
1205.2787454151389
 21
1328.4648331198725
  0
LINE
  8
_0-0_
  6
CONTINUOUS
 62
    4
 10
1191.6907455472564
 20
1379.1759390000486
 11
1178.102745679374
 21
1328.4648331198725
  0
TEXT
  8
_0-0_
 62
    7
 10
1184.3730619640809
 20
1225.7999185672222
 40
105
 41
0.8333333333333333
 50
90
  1
35
  0
LINE
  8
_0-0_
  6
CONTINUOUS
 62
    4
 10
1191.6907455472564
 20
1514.1759390000486
 11
1191.6907455472564
 21
1414.1759390000486
  0
LINE
  8
_0-0_
  6
CONTINUOUS
 62
    4
 10
1191.6907455472564
 20
1414.1759390000486
 11
1178.102745679374
 21
1464.8870448802244
  0
LINE
  8
_0-0_
  6
CONTINUOUS
 62
    4
 10
1191.6907455472564
 20
1414.1759390000486
 11
1205.2787454151389
 21
1464.8870448802244
  0
LINE
  8
_0-0_
  6
CONTINUOUS
 62
    4
 10
1391.6907455472567
 20
1414.1759390000486
 11
1156.6907455472564
 21
1414.1759390000486
  0
LINE
  8
_0-0_
  6
CONTINUOUS
 62
    4
 10
1723.0657455472571
 20
1414.1759390000486
 11
1709.4777456793747
 21
1464.8870448802244
  0
LINE
  8
_0-0_
  6
CONTINUOUS
 62
    4
 10
1723.0657455472571
 20
1414.1759390000486
 11
1736.6537454151396
 21
1464.8870448802244
  0
LINE
  8
_0-0_
  6
CONTINUOUS
 62
    4
 10
1191.6907455472564
 20
1379.1759390000486
 11
1191.6907455472564
 21
1219.1759390000486
  0
LINE
  8
_0-0_
  6
CONTINUOUS
 62
    4
 10
1426.6907455472567
 20
914.17593900004783
 11
1256.6907455472567
 21
914.17593900004783
  0
LINE
  8
_0-0_
  6
CONTINUOUS
 62
    4
 10
1426.6907455472567
 20
914.17593900004783
 11
1375.9796396670803
 21
900.58793913216538
  0
LINE
  8
_0-0_
  6
CONTINUOUS
 62
    4
 10
1426.6907455472567
 20
914.17593900004783
 11
1375.9796396670803
 21
927.76393886793027
  0
LINE
  8
_0-0_
  6
CONTINUOUS
 62
    4
 10
1426.6907455472567
 20
1344.1759390000486
 11
1426.6907455472567
 21
879.17593900004783
  0
LINE
  8
_0-0_
  6
CONTINUOUS
 62
    4
 10
1723.0657455472571
 20
2344.1759390000484
 11
1736.6537454151396
 21
2293.4648331198723
  0
LINE
  8
_0-0_
  6
CONTINUOUS
 62
    4
 10
1723.0657455472571
 20
2344.1759390000484
 11
1709.4777456793747
 21
2293.4648331198723
  0
LINE
  8
_0-0_
  6
CONTINUOUS
 62
    4
 10
1191.6907455472564
 20
2344.1759390000484
 11
1191.6907455472564
 21
2244.1759390000484
  0
LINE
  8
_0-0_
  6
CONTINUOUS
 62
    4
 10
1191.6907455472564
 20
2344.1759390000484
 11
1205.2787454151389
 21
2293.4648331198723
  0
LINE
  8
_0-0_
  6
CONTINUOUS
 62
    4
 10
1191.6907455472564
 20
2344.1759390000484
 11
1178.102745679374
 21
2293.4648331198723
  0
LINE
  8
_0-0_
  6
CONTINUOUS
 62
    4
 10
991.69074554725716
 20
2379.1759390000484
 11
1005.2787454151406
 21
2328.4648331198723
  0
LINE
  8
_0-0_
  6
CONTINUOUS
 62
    4
 10
991.69074554725716
 20
2379.1759390000484
 11
978.10274567937574
 21
2328.4648331198723
  0
LINE
  8
_0-0_
  6
CONTINUOUS
 62
    4
 10
1391.6907455472567
 20
2379.1759390000484
 11
956.69074554725614
 21
2379.1759390000484
  0
LINE
  8
_0-0_
  6
CONTINUOUS
 62
    4
 10
1191.6907455472564
 20
2379.1759390000484
 11
1178.102745679374
 21
2429.8870448802244
  0
LINE
  8
_0-0_
  6
CONTINUOUS
 62
    4
 10
1191.6907455472564
 20
2379.1759390000484
 11
1205.2787454151389
 21
2429.8870448802244
  0
TEXT
  8
_0-0_
 62
    7
 10
1183.5788254736535
 20
2442.2232675868781
 40
105
 41
0.8333333333333333
 50
90
  1
35
  0
LINE
  8
_0-0_
  6
CONTINUOUS
 62
    4
 10
1391.6907455472567
 20
2344.1759390000484
 11
1156.6907455472564
 21
2344.1759390000484
  0
LINE
  8
_0-0_
  6
CONTINUOUS
 62
    4
 10
1191.6907455472564
 20
2539.1759390000488
 11
1191.6907455472564
 21
2379.1759390000484
  0
LINE
  8
_0-0_
  6
CONTINUOUS
 62
    4
 10
991.69074554725716
 20
1379.1759390000486
 11
991.69074554725716
 21
2379.1759390000484
  0
TEXT
  8
_0-0_
 62
    7
 10
984.19074554725693
 20
1783.8009390000474
 40
105
 41
0.8333333333333333
 50
90
  1
1000
  0
LINE
  8
_0-0_
  6
CONTINUOUS
 62
    3
 10
3085.3899072526064
 20
1415.2823371944916
 11
3085.3899072526064
 21
1065.2823371944916
  0
TEXT
  8
_0-0_
 62
    7
 10
3181.6399072526064
 20
1260.2823371944909
 40
105
 41
1
 50
0
  1
製品ﾎﾞﾘｭｰﾑ
  0
TEXT
  8
_0-0_
 62
    7
 10
4120.9582919456197
 20
1260.2823371944909
 40
105
 41
1
 50
0
  1
ｍ
  0
TEXT
  8
_0-0_
 62
    7
 10
4120.9582919456197
 20
1115.2823371944921
 40
105
 41
1
 50
0
  1
kg
  0
LINE
  8
_0-0_
  6
CONTINUOUS
 62
    3
 10
3085.3899072526064
 20
1415.2823371944916
 11
4315.3869072526067
 21
1415.2823371944916
  0
LINE
  8
_0-0_
  6
CONTINUOUS
 62
    3
 10
4315.3869072526076
 20
1415.2823371944916
 11
4315.3869072526076
 21
1065.2823371944916
  0
LINE
  8
_0-0_
  6
CONTINUOUS
 62
    3
 10
3085.3899072526064
 20
1065.2823371944916
 11
4315.3869072526067
 21
1065.2823371944916
  0
TEXT
  8
_0-0_
 62
    7
 10
4217.6519091221916
 20
1311.8432389904251
 40
52.5
 41
1.3333333333333332
 50
0
  1
3
  0
TEXT
  8
_0-0_
 62
    7
 10
3181.6399072526064
 20
1115.2823371944921
 40
105
 41
1
 50
0
  1
製品重量　
  0
LINE
  8
_0-0_
  6
CONTINUOUS
 62
    4
 10
1426.6907455472562
 20
3020.6406779739099
 11
1477.4018661527252
 21
3034.2288127395345
  0
LINE
  8
_0-0_
  6
CONTINUOUS
 62
    4
 10
1426.6907455472562
 20
3020.6406779739099
 11
1477.4018661527252
 21
3007.0527873489095
  0
LINE
  8
_0-0_
  6
CONTINUOUS
 62
    4
 10
1426.6907455472562
 20
3225.6406779739099
 11
1426.6907455472562
 21
2985.6406779739099
  0
LINE
  8
_0-0_
  6
CONTINUOUS
 62
    4
 10
1426.6907455472562
 20
3479.2286778417915
 11
1426.6907455472562
 21
3355.640677973909
  0
LINE
  8
_0-0_
  6
CONTINUOUS
 62
    4
 10
3608.2525377358497
 20
2225.7920597484276
 11
3658.9636436160249
 21
2212.2040598805451
  0
LINE
  8
_0-0_
  6
CONTINUOUS
 62
    4
 10
5669.90644654088
 20
2440.7920597484276
 11
5932.40644654088
 21
2440.7920597484276
  0
LINE
  8
_0-0_
  6
CONTINUOUS
 62
    4
 10
5932.40644654088
 20
2440.7920597484276
 11
6194.90644654088
 21
2440.7920597484276
  0
LINE
  8
_0-0_
  6
CONTINUOUS
 62
    4
 10
5669.90644654088
 20
2440.7920597484276
 11
5720.6175524210566
 21
2454.3800596163096
  0
LINE
  8
_0-0_
  6
CONTINUOUS
 62
    4
 10
5669.90644654088
 20
2440.7920597484276
 11
5720.6175524210566
 21
2427.2040598805451
  0
LINE
  8
_0-0_
  6
CONTINUOUS
 62
    4
 10
5932.40644654088
 20
2440.7920597484276
 11
5881.6953406607053
 21
2427.2040598805451
  0
LINE
  8
_0-0_
  6
CONTINUOUS
 62
    4
 10
5932.40644654088
 20
2440.7920597484276
 11
5881.6953406607053
 21
2454.3800596163096
  0
LINE
  8
_0-0_
  6
CONTINUOUS
 62
    4
 10
5932.40644654088
 20
2440.7920597484276
 11
5983.1175524210566
 21
2454.3800596163096
  0
LINE
  8
_0-0_
  6
CONTINUOUS
 62
    4
 10
5932.40644654088
 20
2440.7920597484276
 11
5983.1175524210566
 21
2427.2040598805451
  0
LINE
  8
_0-0_
  6
CONTINUOUS
 62
    4
 10
6194.90644654088
 20
2440.7920597484276
 11
6144.1953406607053
 21
2427.2040598805451
  0
LINE
  8
_0-0_
  6
CONTINUOUS
 62
    4
 10
6194.90644654088
 20
2440.7920597484276
 11
6144.1953406607053
 21
2454.3800596163096
  0
LINE
  8
_0-0_
  6
CONTINUOUS
 62
    4
 10
5059.906446540881
 20
2740.7920597484271
 11
5059.906446540881
 21
2985.7920597484271
  0
LINE
  8
_0-0_
  6
CONTINUOUS
 62
    4
 10
5259.906446540881
 20
2740.7920597484271
 11
5024.906446540881
 21
2740.7920597484271
  0
LINE
  8
_0-0_
  6
CONTINUOUS
 62
    4
 10
5059.906446540881
 20
2985.7920597484271
 11
5073.4944464087629
 21
2935.0809538682515
  0
LINE
  8
_0-0_
  6
CONTINUOUS
 62
    4
 10
5059.906446540881
 20
2985.7920597484271
 11
5046.3184466729981
 21
2935.0809538682515
  0
LINE
  8
_0-0_
  6
CONTINUOUS
 62
    4
 10
5059.906446540881
 20
2740.7920597484271
 11
5046.3184466729981
 21
2791.5031656286032
  0
LINE
  8
_0-0_
  6
CONTINUOUS
 62
    4
 10
5059.906446540881
 20
2740.7920597484271
 11
5073.4944464087629
 21
2791.5031656286032
  0
LINE
  8
_0-0_
  6
CONTINUOUS
 62
    4
 10
5459.90644654088
 20
2985.7920597484271
 11
5024.906446540881
 21
2985.7920597484271
  0
LINE
  8
_0-0_
  6
CONTINUOUS
 62
    4
 10
7204.906446540881
 20
2915.7920597484271
 11
7204.906446540881
 21
3055.7920597484271
  0
LINE
  8
_0-0_
  6
CONTINUOUS
 62
    4
 10
6404.90644654088
 20
3055.7920597484271
 11
7239.906446540881
 21
3055.7920597484271
  0
LINE
  8
_0-0_
  6
CONTINUOUS
 62
    4
 10
6404.90644654088
 20
2915.7920597484271
 11
7239.906446540881
 21
2915.7920597484271
  0
LINE
  8
_0-0_
  6
CONTINUOUS
 62
    4
 10
7204.906446540881
 20
3055.7920597484271
 11
7218.4944464087629
 21
3005.0809538682515
  0
LINE
  8
_0-0_
  6
CONTINUOUS
 62
    4
 10
7204.906446540881
 20
3055.7920597484271
 11
7191.3184466729981
 21
3005.0809538682515
  0
LINE
  8
_0-0_
  6
CONTINUOUS
 62
    4
 10
7204.906446540881
 20
2915.7920597484271
 11
7191.3184466729981
 21
2966.5031656286032
  0
LINE
  8
_0-0_
  6
CONTINUOUS
 62
    4
 10
7204.906446540881
 20
2915.7920597484271
 11
7218.4944464087629
 21
2966.5031656286032
  0
LINE
  8
_0-0_
  6
CONTINUOUS
 62
    4
 10
6904.906446540881
 20
3012.0420597484271
 11
6891.318446672999
 21
3062.7531656286032
  0
LINE
  8
_0-0_
  6
CONTINUOUS
 62
    4
 10
6904.906446540881
 20
3012.0420597484271
 11
6918.4944464087639
 21
3062.7531656286032
  0
LINE
  8
_0-0_
  6
CONTINUOUS
 62
    4
 10
6904.906446540881
 20
2959.5420597484271
 11
6918.4944464087639
 21
2908.8309538682515
  0
LINE
  8
_0-0_
  6
CONTINUOUS
 62
    4
 10
6904.906446540881
 20
2959.5420597484271
 11
6891.318446672999
 21
2908.8309538682515
  0
LINE
  8
_0-0_
  6
CONTINUOUS
 62
    4
 10
6904.906446540881
 20
2959.5420597484271
 11
6904.906446540881
 21
2799.5420597484271
  0
LINE
  8
_0-0_
  6
CONTINUOUS
 62
    4
 10
6904.906446540881
 20
3012.0420597484271
 11
6904.906446540881
 21
3112.0420597484271
  0
TEXT
  8
_0-0_
 62
    7
 10
6897.5887629577055
 20
2806.1660393156012
 40
105
 41
0.8333333333333333
 50
90
  1
15
  0
ARC
  8
_0-0_
  6
CONTINUOUS
 62
    2
 10
6168.65644654088
 20
2985.7920597484271
 40
26.25
 50
90
 51
270
  0
ARC
  8
_0-0_
  6
CONTINUOUS
 62
    2
 10
6221.15644654088
 20
2985.7920597484271
 40
26.25
 50
270
 51
90
  0
LINE
  8
_0-0_
  6
CONTINUOUS
 62
    2
 10
6168.65644654088
 20
3012.0420597484271
 11
6221.15644654088
 21
3012.0420597484271
  0
LINE
  8
_0-0_
  6
CONTINUOUS
 62
    2
 10
6168.65644654088
 20
2959.5420597484271
 11
6221.15644654088
 21
2959.5420597484271
  0
CIRCLE
  8
_0-0_
  6
CONTINUOUS
 62
    2
 10
5669.90644654088
 20
2985.7920597484271
 40
26.25
  0
LINE
  8
_0-0_
  6
CONTINUOUS
 62
    4
 10
5669.90644654088
 20
2405.7920597484276
 11
5669.90644654088
 21
2880.7920597484271
  0
LINE
  8
_0-0_
  6
CONTINUOUS
 62
    4
 10
6194.90644654088
 20
2405.7920597484276
 11
6194.90644654088
 21
2880.7920597484271
  0
TEXT
  8
_0-0_
 62
    7
 10
5757.4107783544404
 20
2449.0323725856655
 40
105
 41
0.8333333333333333
 50
0
  1
75
  0
TEXT
  8
_0-0_
 62
    7
 10
6019.9107783544404
 20
2449.0323725856655
 40
105
 41
0.8333333333333333
 50
0
  1
75
  0
TEXT
  8
_0-0_
 62
    7
 10
5053.8315505365399
 20
2820.5765341447518
 40
105
 41
0.8333333333333333
 50
90
  1
70
  0
LINE
  8
_0-0_
  6
CONTINUOUS
 62
    4
 10
5656.78144654088
 20
2963.058892899086
 11
5355.2505498325344
 21
2440.7920597484276
  0
LINE
  8
_0-0_
  6
CONTINUOUS
 62
    4
 10
5656.78144654088
 20
2963.058892899086
 11
5643.193446672999
 21
2912.3477870189094
  0
LINE
  8
_0-0_
  6
CONTINUOUS
 62
    4
 10
5656.78144654088
 20
2963.058892899086
 11
5619.6583405285873
 21
2925.9357868867919
  0
LINE
  8
_0-0_
  6
CONTINUOUS
 62
    2
 10
5494.90644654088
 20
3055.7920597484271
 11
6369.90644654088
 21
3055.7920597484271
  0
LINE
  8
_0-0_
  6
CONTINUOUS
 62
    2
 10
5494.90644654088
 20
2915.7920597484271
 11
6369.90644654088
 21
2915.7920597484271
  0
LINE
  8
_0-0_
  6
CONTINUOUS
 62
    2
 10
5494.90644654088
 20
2915.7920597484271
 11
5494.90644654088
 21
3055.7920597484271
  0
LINE
  8
_0-0_
  6
CONTINUOUS
 62
    2
 10
6369.90644654088
 20
2915.7920597484271
 11
6369.90644654088
 21
3055.7920597484271
  0
LINE
  8
_0-0_
  6
CONTINUOUS
 62
    4
 10
6282.40644654088
 20
2959.5420597484271
 11
6939.906446540881
 21
2959.5420597484271
  0
LINE
  8
_0-0_
  6
CONTINUOUS
 62
    4
 10
6282.40644654088
 20
3012.0420597484271
 11
6939.906446540881
 21
3012.0420597484271
  0
LINE
  8
_0-0_
  6
CONTINUOUS
 62
    4
 10
5801.15644654088
 20
3055.7920597484271
 11
5787.5684466729981
 21
3106.5031656286032
  0
LINE
  8
_0-0_
  6
CONTINUOUS
 62
    4
 10
5801.15644654088
 20
3055.7920597484271
 11
5814.7444464087629
 21
3106.5031656286032
  0
LINE
  8
_0-0_
  6
CONTINUOUS
 62
    4
 10
5932.40644654088
 20
2405.7920597484276
 11
5932.40644654088
 21
2705.7920597484271
  0
LINE
  8
_0-0_
  6
CONTINUOUS
 62
    4
 10
6142.40644654088
 20
3520.7920597484271
 11
6247.40644654088
 21
3520.7920597484271
  0
LINE
  8
_0-0_
  6
CONTINUOUS
 62
    4
 10
6142.40644654088
 20
3520.7920597484271
 11
6177.40644654088
 21
3530.1702814835161
  0
LINE
  8
_0-0_
  6
CONTINUOUS
 62
    4
 10
6142.40644654088
 20
3520.7920597484271
 11
6177.40644654088
 21
3511.4138380133381
  0
LINE
  8
_0-0_
  6
CONTINUOUS
 62
    4
 10
6247.40644654088
 20
3520.7920597484271
 11
6212.40644654088
 21
3511.4138380133381
  0
LINE
  8
_0-0_
  6
CONTINUOUS
 62
    4
 10
6247.40644654088
 20
3520.7920597484271
 11
6212.40644654088
 21
3530.1702814835161
  0
TEXT
  8
_0-0_
 62
    7
 10
6151.1607783544404
 20
3529.0323725856655
 40
105
 41
0.8333333333333333
 50
0
  1
30
  0
TEXT
  8
_0-0_
 62
    7
 10
5107.9877712634988
 20
3529.4639722869569
 40
105
 41
0.5999999999999999
 50
0
  1
連結プレート(メッキ)
  0
TEXT
  8
_0-0_
 62
    7
 10
5166.3971932149315
 20
3406.1917337069303
 40
105
 41
0.8333333333333333
 50
0
  1
250×40×4.5
  0
LINE
  8
_0-0_
  6
CONTINUOUS
 62
    4
 10
5075.8799528301897
 20
3520.7920597484271
 11
5801.15644654088
 21
3520.7920597484271
  0
LINE
  8
_0-0_
  6
CONTINUOUS
 62
    4
 10
5801.15644654088
 20
3055.7920597484271
 11
5801.15644654088
 21
3520.7920597484271
  0
LINE
  8
_0-0_
  6
CONTINUOUS
 62
    4
 10
6142.40644654088
 20
3090.7920597484271
 11
6142.40644654088
 21
3555.7920597484271
  0
LINE
  8
_0-0_
  6
CONTINUOUS
 62
    4
 10
6247.40644654088
 20
3090.7920597484271
 11
6247.40644654088
 21
3555.7920597484271
  0
LINE
  8
_0-0_
  6
CONTINUOUS
 62
    2
 10
3558.253537735849
 20
3235.7920597484271
 11
3558.253537735849
 21
2735.8920597484275
  0
LINE
  8
_0-0_
  6
CONTINUOUS
 62
    4
 10
4330.753537735849
 20
3235.7920597484271
 11
4317.165537867967
 21
3185.0809538682506
  0
LINE
  8
_0-0_
  6
CONTINUOUS
 62
    4
 10
4330.753537735849
 20
3235.7920597484271
 11
4344.341537603731
 21
3185.0809538682506
  0
LINE
  8
_0-0_
  6
CONTINUOUS
 62
    4
 10
4080.753537735849
 20
3235.7920597484271
 11
4365.753537735849
 21
3235.7920597484271
  0
LINE
  8
_0-0_
  6
CONTINUOUS
 62
    4
 10
3602.003537735849
 20
3235.7920597484271
 11
3588.4155378679665
 21
3286.5031656286032
  0
LINE
  8
_0-0_
  6
CONTINUOUS
 62
    4
 10
3602.003537735849
 20
3235.7920597484271
 11
3615.5915376037314
 21
3286.5031656286032
  0
LINE
  8
_0-0_
  6
CONTINUOUS
 62
    4
 10
4330.753537735849
 20
3235.7920597484271
 11
4330.753537735849
 21
2735.8920597484275
  0
LINE
  8
_0-0_
  6
CONTINUOUS
 62
    2
 10
3608.2525377358497
 20
2735.8920597484275
 11
3558.253537735849
 21
2735.8920597484275
  0
LINE
  8
_0-0_
  6
CONTINUOUS
 62
    2
 10
3608.2525377358497
 20
3235.7920597484271
 11
3608.2525377358497
 21
2735.8920597484275
  0
LINE
  8
_0-0_
  6
CONTINUOUS
 62
    4
 10
4330.753537735849
 20
2735.8920597484275
 11
4317.165537867967
 21
2786.6031656286031
  0
LINE
  8
_0-0_
  6
CONTINUOUS
 62
    4
 10
4330.753537735849
 20
2735.8920597484275
 11
4344.341537603731
 21
2786.6031656286031
  0
LINE
  8
_0-0_
  6
CONTINUOUS
 62
    2
 10
3558.253537735849
 20
3235.7920597484271
 11
3602.003537735849
 21
3235.7920597484271
  0
LINE
  8
_0-0_
  6
CONTINUOUS
 62
    2
 10
3558.253537735849
 20
3214.9628930817607
 11
3608.2525377358497
 21
3173.3045597484269
  0
LINE
  8
_0-0_
  6
CONTINUOUS
 62
    2
 10
3608.2525377358497
 20
3173.3045597484269
 11
3558.253537735849
 21
3131.6462264150941
  0
LINE
  8
_0-0_
  6
CONTINUOUS
 62
    2
 10
3558.253537735849
 20
3131.6462264150941
 11
3608.2525377358497
 21
3089.9878930817603
  0
LINE
  8
_0-0_
  6
CONTINUOUS
 62
    2
 10
3608.2525377358497
 20
3089.9878930817603
 11
3558.253537735849
 21
3048.329559748427
  0
LINE
  8
_0-0_
  6
CONTINUOUS
 62
    2
 10
3558.253537735849
 20
3048.329559748427
 11
3608.2525377358497
 21
3006.6712264150937
  0
LINE
  8
_0-0_
  6
CONTINUOUS
 62
    2
 10
3608.2525377358497
 20
3006.6712264150937
 11
3558.253537735849
 21
2965.0128930817609
  0
LINE
  8
_0-0_
  6
CONTINUOUS
 62
    2
 10
3558.253537735849
 20
2965.0128930817609
 11
3608.2525377358497
 21
2923.3545597484271
  0
LINE
  8
_0-0_
  6
CONTINUOUS
 62
    2
 10
3608.2525377358497
 20
2923.3545597484271
 11
3558.253537735849
 21
2881.6962264150938
  0
LINE
  8
_0-0_
  6
CONTINUOUS
 62
    2
 10
3558.253537735849
 20
2881.6962264150938
 11
3608.2525377358497
 21
2840.0378930817605
  0
LINE
  8
_0-0_
  6
CONTINUOUS
 62
    2
 10
3608.2525377358497
 20
2840.0378930817605
 11
3558.253537735849
 21
2798.3795597484277
  0
LINE
  8
_0-0_
  6
CONTINUOUS
 62
    2
 10
3558.253537735849
 20
2798.3795597484277
 11
3608.2525377358497
 21
2756.7212264150934
  0
LINE
  8
_0-0_
  6
CONTINUOUS
 62
    2
 10
3583.2530377358493
 20
3235.7920597484271
 11
3558.253537735849
 21
3214.9628930817607
  0
LINE
  8
_0-0_
  6
CONTINUOUS
 62
    2
 10
3608.2525377358497
 20
2756.7212264150934
 11
3583.2530377358493
 21
2735.8920597484275
  0
LINE
  8
_0-0_
  6
CONTINUOUS
 62
    2
 10
3558.253537735849
 20
2735.8920597484275
 11
3558.253537735849
 21
2535.892059748427
  0
TEXT
  8
_0-0_
 62
    7
 10
4324.2416414501012
 20
2941.4061721253115
 40
105
 41
0.8333333333333333
 50
90
  1
50
  0
TEXT
  8
_0-0_
 62
    7
 10
7188.2028639841928
 20
2941.2068779455844
 40
105
 41
0.8333333333333333
 50
90
  1
40
  0
LINE
  8
_0-0_
  6
CONTINUOUS
 62
    4
 10
3608.2525377358497
 20
2700.8920597484275
 11
3608.2525377358497
 21
2520.8920597484275
  0
TEXT
  8
_0-0_
 62
    7
 10
3270.3122209490334
 20
3529.4639722869569
 40
105
 41
0.6666666666666666
 50
0
  1
シール材
  0
TEXT
  8
_0-0_
 62
    7
 10
3277.2415782232701
 20
3400.3121626048218
 40
105
 41
0.8333333333333333
 50
0
  1
(t=17)
  0
LINE
  8
_0-0_
  6
CONTINUOUS
 62
    4
 10
3602.003537735849
 20
3235.7920597484271
 11
3602.003537735849
 21
3520.7920597484271
  0
LINE
  8
_0-0_
  6
CENTER1
 62
    4
 10
3158.253537735849
 20
3285.7920597484271
 11
3158.253537735849
 21
2485.892059748427
  0
LINE
  8
_0-0_
  6
CENTER1
 62
    4
 10
4045.7535377358485
 20
3285.7920597484271
 11
4045.7535377358485
 21
2485.892059748427
  0
LINE
  8
_0-0_
  6
CENTER1
 62
    4
 10
5249.3040944780668
 20
3230.7920597484271
 11
6604.906446540881
 21
3230.7920597484271
  0
LINE
  8
_0-0_
  6
CENTER1
 62
    4
 10
5294.906446540881
 20
2690.7920597484271
 11
5294.906446540881
 21
3280.7920597484276
  0
LINE
  8
_0-0_
  6
CENTER1
 62
    4
 10
6569.906446540881
 20
2690.7920597484271
 11
6569.906446540881
 21
3280.7920597484276
  0
LINE
  8
_0-0_
  6
CONTINUOUS
 62
    2
 10
3158.253537735849
 20
3235.7920597484271
 11
4045.7535377358485
 21
3235.7920597484271
  0
LINE
  8
_0-0_
  6
CONTINUOUS
 62
    2
 10
5294.906446540881
 20
2740.7920597484271
 11
6569.906446540881
 21
2740.7920597484271
  0
LINE
  8
_0-0_
  6
CONTINUOUS
 62
    4
 10
3643.2525377358497
 20
2735.8920597484275
 11
4365.753537735849
 21
2735.8920597484275
  0
LINE
  8
_0-0_
  6
CONTINUOUS
 62
    4
 10
5494.90644654088
 20
2225.7920597484276
 11
6369.90644654088
 21
2225.7920597484276
  0
LINE
  8
_0-0_
  6
CONTINUOUS
 62
    4
 10
5494.90644654088
 20
2225.7920597484276
 11
5545.6175524210566
 21
2239.3800596163096
  0
LINE
  8
_0-0_
  6
CONTINUOUS
 62
    4
 10
5494.90644654088
 20
2225.7920597484276
 11
5545.6175524210566
 21
2212.2040598805447
  0
LINE
  8
_0-0_
  6
CONTINUOUS
 62
    4
 10
6369.90644654088
 20
2225.7920597484276
 11
6319.1953406607053
 21
2212.2040598805447
  0
LINE
  8
_0-0_
  6
CONTINUOUS
 62
    4
 10
6369.90644654088
 20
2225.7920597484276
 11
6319.1953406607053
 21
2239.3800596163096
  0
LINE
  8
_0-0_
  6
CONTINUOUS
 62
    4
 10
5494.90644654088
 20
2190.7920597484276
 11
5494.90644654088
 21
2880.7920597484271
  0
LINE
  8
_0-0_
  6
CONTINUOUS
 62
    4
 10
6369.90644654088
 20
2190.7920597484276
 11
6369.90644654088
 21
2880.7920597484271
  0
LINE
  8
_0-0_
  6
CONTINUOUS
 62
    4
 10
3558.2535377358499
 20
2225.7920597484276
 11
3507.5424781655378
 21
2239.3800571849506
  0
LINE
  8
_0-0_
  6
CONTINUOUS
 62
    4
 10
3558.2535377358499
 20
2225.7920597484276
 11
3507.5424781655378
 21
2212.2040623119041
  0
TEXT
  8
_0-0_
 62
    7
 10
3446.6513648842878
 20
2229.8317478587782
 40
105
 41
0.8333333333333333
 50
0
  1
5
  0
LINE
  8
_0-0_
  6
CONTINUOUS
 62
    4
 10
3428.2535377358499
 20
2225.7920597484276
 11
3558.2535377358499
 21
2225.7920597484276
  0
LINE
  8
_0-0_
  6
CONTINUOUS
 62
    4
 10
3608.2525377358497
 20
2225.7920597484276
 11
3658.9636436160249
 21
2239.3800596163096
  0
LINE
  8
_0-0_
  6
CONTINUOUS
 62
    4
 10
3608.2525377358497
 20
2225.7920597484276
 11
3699.2525377358492
 21
2225.7920597484276
  0
LINE
  8
_0-0_
  6
CONTINUOUS
 62
    4
 10
3558.253537735849
 20
2500.892059748427
 11
3558.253537735849
 21
2190.7920597484276
  0
LINE
  8
_0-0_
  6
CONTINUOUS
 62
    4
 10
3608.2525377358497
 20
2520.8920597484275
 11
3608.2525377358497
 21
2190.7920597484276
  0
LINE
  8
_0-0_
  6
CONTINUOUS
 62
    2
 10
5932.40644654088
 20
2740.7920597484271
 11
5932.40644654088
 21
3230.7920597484271
  0
TEXT
  8
_0-0_
 62
    7
 10
5865.0357783544404
 20
2234.032372585666
 40
105
 41
0.8333333333333333
 50
0
  1
250
  0
LINE
  8
_0-0_
  6
CONTINUOUS
 62
    4
 10
3602.003537735849
 20
3520.7920597484271
 11
3245.0740374394335
 21
3520.7920597484271
  0
LINE
  8
_0-0_
  6
CONTINUOUS
 62
    3
 10
5574.9297327129552
 20
3848.7748151288587
 11
6359.8831603688058
 21
3848.7748151288587
  0
TEXT
  8
_0-0_
 62
    7
 10
5618.258221403963
 20
3846.2748151288587
 40
112
 41
1
 50
0
  1
連結部詳細図
  0
LINE
  8
_0-0_
  6
CONTINUOUS
 62
    3
 10
3209.5268239079232
 20
3848.7748151288587
 11
3994.4802515637748
 21
3848.7748151288587
  0
TEXT
  8
_0-0_
 62
    7
 10
3252.8553125989315
 20
3846.2748151288587
 40
112
 41
1
 50
0
  1
接合部詳細図
  0
LINE
  8
_0-0_
  6
CONTINUOUS
 62
    2
 10
8305.5880503144653
 20
5493.1616163522003
 11
8305.5880503144653
 21
5653.1616163522012
  0
LINE
  8
_0-0_
  6
CONTINUOUS
 62
    2
 10
8515.5880503144653
 20
5493.1616163522003
 11
8515.5880503144653
 21
5653.1616163522012
  0
LINE
  8
_0-0_
  6
CONTINUOUS
 62
    2
 10
8538.9180503144652
 20
5493.1616163522003
 11
8538.9180503144652
 21
5653.1616163522012
  0
LINE
  8
_0-0_
  6
CONTINUOUS
 62
    4
 10
8812.7877545149895
 20
5493.1616163522003
 11
8799.1997418196751
 21
5442.4505567818887
  0
LINE
  8
_0-0_
  6
CONTINUOUS
 62
    4
 10
8812.7877545149895
 20
5493.1616163522003
 11
8826.3757672103001
 21
5442.4505567818887
  0
LINE
  8
_0-0_
  6
CONTINUOUS
 62
    4
 10
8812.7877545149895
 20
5493.1616163522003
 11
8812.7877545149895
 21
5260.3349561959503
  0
TEXT
  8
_0-0_
 62
    7
 10
8842.064550310939
 20
5266.1020301707403
 40
87.5
 41
0.7199999999999999
 50
0
  1
シール溝
  0
LINE
  8
_0-0_
  6
CONTINUOUS
 62
    4
 10
8812.7877545149895
 20
5260.3349561959503
 11
9106.6975386528829
 21
5260.3349561959503
  0
LINE
  8
_0-0_
  6
CONTINUOUS
 62
    4
 10
1426.6907455472562
 20
4620.555228755159
 11
1477.4018508939361
 21
4634.1432414504715
  0
LINE
  8
_0-0_
  6
CONTINUOUS
 62
    4
 10
1426.6907455472562
 20
4620.555228755159
 11
1477.4018508939361
 21
4606.9672160598465
  0
LINE
  8
_0-0_
  6
CONTINUOUS
 62
    4
 10
1426.6907455472562
 20
5220.555228755159
 11
1426.6907455472562
 21
4990.555228755159
  0
LINE
  8
_0-0_
  6
CONTINUOUS
 62
    4
 10
1426.6907455472562
 20
4860.555228755159
 11
1426.6907455472562
 21
4585.555228755159
  0
LINE
  8
_0-0_
  6
CONTINUOUS
 62
    4
 10
1391.6907455472562
 20
5269.1432414504715
 11
956.69074554725614
 21
5269.1432414504715
  0
LINE
  8
_0-0_
  6
CONTINUOUS
 62
    4
 10
1814.396006777725
 20
5425.7608638259598
 11
1982.3960067777247
 21
5435.8408656570145
  0
LINE
  8
_0-0_
  6
CONTINUOUS
 62
    4
 10
1814.396006777725
 20
5425.7608638259598
 11
1864.2022506742096
 21
5442.3616786452948
  0
LINE
  8
_0-0_
  6
CONTINUOUS
 62
    4
 10
1814.396006777725
 20
5425.7608638259598
 11
1865.8298751859281
 21
5415.2344661208817
  0
LINE
  8
_0-0_
  6
CONTINUOUS
 62
    4
 10
1391.6907455472562
 20
5539.1432414504715
 11
956.69074554725614
 21
5539.1432414504715
  0
LINE
  8
_0-0_
  6
CONTINUOUS
 62
    4
 10
2101.690745547256
 20
5220.555228755159
 11
2101.690745547256
 21
4585.555228755159
  0
LINE
  8
_0-0_
  6
CONTINUOUS
 62
    4
 10
2101.690745547256
 20
4620.555228755159
 11
1426.6907455472562
 21
4620.555228755159
  0
LINE
  8
_0-0_
  6
CONTINUOUS
 62
    4
 10
2101.690745547256
 20
4620.555228755159
 11
2050.9796249417877
 21
4606.9672160598465
  0
LINE
  8
_0-0_
  6
CONTINUOUS
 62
    4
 10
2101.690745547256
 20
4620.555228755159
 11
2050.9796249417877
 21
4634.1432414504715
  0
LINE
  8
_0-0_
  6
CONTINUOUS
 62
    2
 10
1426.6907455472562
 20
5269.1432414504715
 11
1426.6907455472562
 21
5539.1432414504715
  0
LINE
  8
_0-0_
  6
CONTINUOUS
 62
    4
 10
1591.690745547256
 20
5909.1432414504724
 11
1591.690745547256
 21
5574.1432414504715
  0
LINE
  8
_0-0_
  6
CONTINUOUS
 62
    4
 10
1576.6907455472564
 20
5909.1432414504724
 11
1576.6907455472564
 21
5574.1432414504715
  0
LINE
  8
_0-0_
  6
CONTINUOUS
 62
    4
 10
1426.6907455472562
 20
5909.1432414504724
 11
1426.6907455472562
 21
5574.1432414504715
  0
LINE
  8
_0-0_
  6
CONTINUOUS
 62
    2
 10
2101.690745547256
 20
5269.1432414504715
 11
1426.6907455472562
 21
5269.1432414504715
  0
LINE
  8
_0-0_
  6
CONTINUOUS
 62
    2
 10
2091.6907455472564
 20
5419.1432414504724
 11
2101.690745547256
 21
5269.1432414504715
  0
LINE
  8
_0-0_
  6
CONTINUOUS
 62
    4
 10
2091.6907455472564
 20
5909.1432414504724
 11
2091.6907455472564
 21
5454.1432414504724
  0
LINE
  8
_0-0_
  6
CONTINUOUS
 62
    4
 10
2101.690745547256
 20
5454.1432414504724
 11
2101.690745547256
 21
5909.1432414504724
  0
LINE
  8
_0-0_
  6
CONTINUOUS
 62
    2
 10
1558.5909988431549
 20
5539.1432414504715
 11
1426.6907455472562
 21
5539.1432414504715
  0
LINE
  8
_0-0_
  6
CONTINUOUS
 62
    2
 10
1589.7782241849515
 20
5408.2684245559412
 11
1578.4917404203031
 21
5521.1333156081864
  0
LINE
  8
_0-0_
  6
CONTINUOUS
 62
    2
 10
1610.8768112210843
 20
5390.2944102737137
 11
2091.6907455472564
 21
5419.1432414504724
  0
LINE
  8
_0-0_
  6
CONTINUOUS
 62
    4
 10
1598.7682601956935
 20
5393.4236064407059
 11
1612.3562576322174
 21
5444.1347117873856
  0
LINE
  8
_0-0_
  6
CONTINUOUS
 62
    4
 10
1598.7682601956935
 20
5393.4236064407059
 11
1635.8913528470609
 21
5430.5467143508622
  0
LINE
  8
_0-0_
  6
CONTINUOUS
 62
    4
 10
1598.7682601956935
 20
5393.4236064407059
 11
1747.383799746475
 21
5650.833274409455
  0
LINE
  8
_0-0_
  6
CONTINUOUS
 62
    4
 10
1747.383799746475
 20
5650.833274409455
 11
1576.1620895413968
 21
5532.9935098144251
  0
LINE
  8
_0-0_
  6
CONTINUOUS
 62
    4
 10
1576.1620895413968
 20
5532.9935098144251
 11
1610.2324020413971
 21
5572.9367633315741
  0
LINE
  8
_0-0_
  6
CONTINUOUS
 62
    4
 10
1576.1620895413968
 20
5532.9935098144251
 11
1625.6394760160062
 21
5550.5502219649979
  0
LINE
  8
_0-0_
  6
CONTINUOUS
 62
    4
 10
2136.6132308988189
 20
5271.4713969680497
 11
2571.6132308988185
 21
5271.4713969680497
  0
LINE
  8
_0-0_
  6
CONTINUOUS
 62
    4
 10
2126.6909286527252
 20
5421.4714045974442
 11
2571.6132308988185
 21
5421.4714045974442
  0
ARC
  8
_0-0_
  6
CONTINUOUS
 62
    2
 10
1558.5909988431549
 20
5519.1432414504715
 40
20
 50
5.7105865478515625
 51
90
  0
ARC
  8
_0-0_
  6
CONTINUOUS
 62
    2
 10
1609.6789657620997
 20
5410.2585063430497
 40
20
 50
185.71058654785156
 51
273.43362426757812
  0
LINE
  8
_0-0_
  6
CONTINUOUS
 62
    4
 10
1426.6907455472562
 20
5874.1432414504724
 11
1477.4018508939361
 21
5887.731254145784
  0
LINE
  8
_0-0_
  6
CONTINUOUS
 62
    4
 10
1426.6907455472562
 20
5874.1432414504724
 11
1477.4018508939361
 21
5860.5552287551581
  0
LINE
  8
_0-0_
  6
CONTINUOUS
 62
    4
 10
1426.6907455472562
 20
5874.1432414504724
 11
1576.6907455472564
 21
5874.1432414504724
  0
LINE
  8
_0-0_
  6
CONTINUOUS
 62
    4
 10
1576.6907455472564
 20
5874.1432414504724
 11
1525.9796402005765
 21
5860.5552287551581
  0
LINE
  8
_0-0_
  6
CONTINUOUS
 62
    4
 10
1576.6907455472564
 20
5874.1432414504724
 11
1525.9796402005765
 21
5887.731254145784
  0
LINE
  8
_0-0_
  6
CONTINUOUS
 62
    4
 10
2091.6907455472564
 20
5874.1432414504724
 11
2040.9796249417872
 21
5860.5552287551581
  0
LINE
  8
_0-0_
  6
CONTINUOUS
 62
    4
 10
2091.6907455472564
 20
5874.1432414504724
 11
2040.9796249417872
 21
5887.731254145784
  0
LINE
  8
_0-0_
  6
CONTINUOUS
 62
    4
 10
2101.690745547256
 20
5874.1432414504724
 11
2152.4018661527247
 21
5887.731254145784
  0
LINE
  8
_0-0_
  6
CONTINUOUS
 62
    4
 10
2101.690745547256
 20
5874.1432414504724
 11
2152.4018661527247
 21
5860.5552287551581
  0
LINE
  8
_0-0_
  6
CONTINUOUS
 62
    4
 10
2101.690745547256
 20
5874.1432414504724
 11
2271.690745547256
 21
5874.1432414504724
  0
LINE
  8
_0-0_
  6
CONTINUOUS
 62
    4
 10
1591.690745547256
 20
5874.1432414504724
 11
2091.6907455472564
 21
5874.1432414504724
  0
LINE
  8
_0-0_
  6
CONTINUOUS
 62
    4
 10
1591.690745547256
 20
5874.1432414504724
 11
1642.4018508939359
 21
5887.731254145784
  0
LINE
  8
_0-0_
  6
CONTINUOUS
 62
    4
 10
1591.690745547256
 20
5874.1432414504724
 11
1642.4018508939359
 21
5860.5552287551581
  0
LINE
  8
_0-0_
  6
CONTINUOUS
 62
    4
 10
991.69074554725614
 20
5269.1432414504715
 11
978.10273285194375
 21
5319.8543467971512
  0
LINE
  8
_0-0_
  6
CONTINUOUS
 62
    4
 10
991.69074554725614
 20
5269.1432414504715
 11
1005.2787582425686
 21
5319.8543467971512
  0
LINE
  8
_0-0_
  6
CONTINUOUS
 62
    4
 10
1191.6907455472564
 20
5389.1432414504715
 11
1191.6907455472564
 21
5269.1432414504715
  0
LINE
  8
_0-0_
  6
CONTINUOUS
 62
    4
 10
1191.6907455472564
 20
5389.1432414504715
 11
1178.1027481107325
 21
5439.8543467971503
  0
LINE
  8
_0-0_
  6
CONTINUOUS
 62
    4
 10
1191.6907455472564
 20
5389.1432414504715
 11
1205.2787429837796
 21
5439.8543467971503
  0
LINE
  8
_0-0_
  6
CONTINUOUS
 62
    4
 10
1191.6907455472564
 20
5389.1432414504715
 11
1205.2787429837796
 21
5338.4321361037918
  0
LINE
  8
_0-0_
  6
CONTINUOUS
 62
    4
 10
1191.6907455472564
 20
5389.1432414504715
 11
1178.1027481107325
 21
5338.4321361037918
  0
LINE
  8
_0-0_
  6
CONTINUOUS
 62
    4
 10
1191.6907455472564
 20
5269.1432414504715
 11
1178.1027481107325
 21
5319.8543467971512
  0
LINE
  8
_0-0_
  6
CONTINUOUS
 62
    4
 10
1191.6907455472564
 20
5269.1432414504715
 11
1205.2787429837796
 21
5319.8543467971512
  0
LINE
  8
_0-0_
  6
CONTINUOUS
 62
    4
 10
991.69074554725614
 20
5539.1432414504715
 11
991.69074554725614
 21
5269.1432414504715
  0
LINE
  8
_0-0_
  6
CONTINUOUS
 62
    4
 10
991.69074554725614
 20
5539.1432414504715
 11
1005.2787582425686
 21
5488.4321361037918
  0
LINE
  8
_0-0_
  6
CONTINUOUS
 62
    4
 10
991.69074554725614
 20
5539.1432414504715
 11
978.10273285194375
 21
5488.4321361037918
  0
LINE
  8
_0-0_
  6
CONTINUOUS
 62
    4
 10
1191.6907455472564
 20
5539.1432414504715
 11
1191.6907455472564
 21
5389.1432414504715
  0
LINE
  8
_0-0_
  6
CONTINUOUS
 62
    4
 10
1191.6907455472564
 20
5539.1432414504715
 11
1205.2787429837796
 21
5488.4321361037918
  0
LINE
  8
_0-0_
  6
CONTINUOUS
 62
    4
 10
1191.6907455472564
 20
5539.1432414504715
 11
1178.1027481107325
 21
5488.4321361037918
  0
TEXT
  8
_0-0_
 62
    7
 10
992.82203216835023
 20
5339.6517711135575
 40
105
 41
0.8333333333333333
 50
90
  1
270
  0
TEXT
  8
_0-0_
 62
    7
 10
1549.0858261136627
 20
5969.1765971633622
 40
105
 41
0.8333333333333333
 50
0
  1
15
  0
TEXT
  8
_0-0_
 62
    7
 10
1776.0657455472564
 20
5872.8932414504715
 40
105
 41
0.8333333333333333
 50
0
  1
500
  0
TEXT
  8
_0-0_
 62
    7
 10
2161.6907455472564
 20
5872.8932414504715
 40
105
 41
0.8333333333333333
 50
0
  1
10
  0
TEXT
  8
_0-0_
 62
    7
 10
1698.455577090225
 20
4620.6039348098474
 40
105
 41
0.8333333333333333
 50
0
  1
675
  0
LINE
  8
_0-0_
  6
CONTINUOUS
 62
    4
 10
2536.6132308988185
 20
5421.4714045974442
 11
2536.6132308988185
 21
5271.4713969680497
  0
LINE
  8
_0-0_
  6
CONTINUOUS
 62
    4
 10
2536.6132308988185
 20
5421.4714045974442
 11
2550.201243594131
 21
5370.7603068801581
  0
LINE
  8
_0-0_
  6
CONTINUOUS
 62
    4
 10
2536.6132308988185
 20
5421.4714045974442
 11
2523.025218203506
 21
5370.7603068801581
  0
LINE
  8
_0-0_
  6
CONTINUOUS
 62
    4
 10
2536.6132308988185
 20
5271.4713969680497
 11
2523.025218203506
 21
5322.1825175735184
  0
LINE
  8
_0-0_
  6
CONTINUOUS
 62
    4
 10
2536.6132308988185
 20
5271.4713969680497
 11
2550.201243594131
 21
5322.1825175735184
  0
LINE
  8
_0-0_
  6
CONTINUOUS
 62
    4
 10
2134.6909286527252
 20
5301.4714122268387
 11
2371.6132308988189
 21
5301.4714122268387
  0
LINE
  8
_0-0_
  6
CONTINUOUS
 62
    4
 10
2336.6132308988189
 20
5301.4714122268387
 11
2323.0252182035064
 21
5352.1825175735184
  0
LINE
  8
_0-0_
  6
CONTINUOUS
 62
    4
 10
2336.6132308988189
 20
5301.4714122268387
 11
2350.201243594131
 21
5352.1825175735184
  0
LINE
  8
_0-0_
  6
CONTINUOUS
 62
    4
 10
2336.6132308988189
 20
5301.4714122268387
 11
2323.0252182035064
 21
5352.1825175735184
  0
LINE
  8
_0-0_
  6
CONTINUOUS
 62
    4
 10
2336.6132308988189
 20
5301.4714122268387
 11
2350.201243594131
 21
5352.1825175735184
  0
LINE
  8
_0-0_
  6
CONTINUOUS
 62
    4
 10
2336.6132308988189
 20
5271.4713969680497
 11
2350.201243594131
 21
5220.760306880159
  0
LINE
  8
_0-0_
  6
CONTINUOUS
 62
    4
 10
2336.6132308988189
 20
5271.4713969680497
 11
2323.0252182035064
 21
5220.760306880159
  0
LINE
  8
_0-0_
  6
CONTINUOUS
 62
    4
 10
2336.6132308988189
 20
5301.4714122268387
 11
2336.6132308988189
 21
5401.4714122268387
  0
TEXT
  8
_0-0_
 62
    7
 10
2329.1132308988185
 20
5151.4713969680497
 40
105
 41
0.8333333333333333
 50
90
  1
30
  0
TEXT
  8
_0-0_
 62
    7
 10
2529.1132308988189
 20
5280.8463969680497
 40
105
 41
0.8333333333333333
 50
90
  1
150
  0
LINE
  8
_0-0_
  6
CONTINUOUS
 62
    4
 10
1787.4676925687408
 20
5650.833274409455
 11
1752.181468203506
 21
5650.833274409455
  0
LINE
  8
_0-0_
  6
CONTINUOUS
 62
    4
 10
1752.181468203506
 20
5650.833274409455
 11
1754.9731857328031
 21
5650.833274409455
  0
LINE
  8
_0-0_
  6
CONTINUOUS
 62
    4
 10
1747.383799746475
 20
5650.833274409455
 11
1937.0078537015529
 21
5650.833274409455
  0
TEXT
  8
_0-0_
 62
    7
 10
1762.8640548734279
 20
5649.4914546462714
 40
87.5
 41
1
 50
0
  1
R=20
  0
TEXT
  8
_0-0_
 62
    7
 10
1877.728099062881
 20
5437.8352275344559
 40
87.5
 41
1
 50
0
  1
6%
  0
LINE
  8
_0-0_
  6
CENTER1
 62
    4
 10
4045.7535377358485
 20
2535.892059748427
 11
3108.253537735849
 21
2535.892059748427
  0
LINE
  8
_0-0_
  6
CONTINUOUS
 62
    4
 10
1688.8754864479278
 20
1146.3492880566525
 11
1982.7852705858229
 21
1146.3492880566525
  0
TEXT
  8
_0-0_
 62
    7
 10
1710.65482803711
 20
1151.8695501997312
 40
87.5
 41
0.7199999999999999
 50
0
  1
シール溝
  0
LINE
  8
_0-0_
  6
CONTINUOUS
 62
    4
 10
1982.7852705858229
 20
1379.1759390000486
 11
1996.3732704537053
 21
1328.4648331198725
  0
LINE
  8
_0-0_
  6
CONTINUOUS
 62
    4
 10
1982.7852705858229
 20
1379.1759390000486
 11
1982.7852705858229
 21
1146.3492880566525
  0
LINE
  8
_0-0_
  6
CONTINUOUS
 62
    4
 10
1982.7852705858229
 20
1379.1759390000486
 11
1969.1972707179404
 21
1328.4648331198725
  0
LINE
  8
_0-0_
  6
CONTINUOUS
 62
    4
 10
2339.6907455472564
 20
1379.1759390000486
 11
2326.102745679374
 21
1328.4648331198725
  0
LINE
  8
_0-0_
  6
CONTINUOUS
 62
    4
 10
2339.6907455472564
 20
1379.1759390000486
 11
2353.2787454151389
 21
1328.4648331198725
  0
LINE
  8
_0-0_
  6
CONTINUOUS
 62
    4
 10
2136.6907455472569
 20
1379.1759390000486
 11
2374.6907455472564
 21
1379.1759390000486
  0
LINE
  8
_0-0_
  6
CONTINUOUS
 62
    4
 10
2339.6907455472564
 20
1379.1759390000486
 11
2339.6907455472564
 21
1288.1759390000486
  0
LINE
  8
_0-0_
  6
CONTINUOUS
 62
    2
 10
8305.5880503144653
 20
4824.2425911949685
 11
8305.5880503144653
 21
4509.2425911949685
  0
LINE
  8
_0-0_
  6
CONTINUOUS
 62
    2
 10
8305.5880503144653
 20
4509.2425911949685
 11
9093.0879892793091
 21
4509.2425911949685
  0
LINE
  8
_0-0_
  6
CONTINUOUS
 62
    2
 10
8459.4719614472778
 20
4824.2425911949685
 11
8305.5880503144653
 21
4824.2425911949685
  0
LINE
  8
_0-0_
  6
CONTINUOUS
 62
    2
 10
8495.8567270722778
 20
4671.5550911949676
 11
8482.6891245332171
 21
4803.2313607262185
  0
LINE
  8
_0-0_
  6
CONTINUOUS
 62
    2
 10
8406.7110971894653
 20
4765.9426644371551
 11
8305.5880503144653
 21
4765.9426644371551
  0
LINE
  8
_0-0_
  6
CONTINUOUS
 62
    2
 10
8443.4210581269653
 20
4610.0040658043435
 11
8429.9283823457153
 21
4744.9313118980935
  0
LINE
  8
_0-0_
  6
CONTINUOUS
 62
    2
 10
8468.0358042207153
 20
4589.034705452781
 11
9084.9137339082153
 21
4626.0472786949685
  0
ARC
  8
_0-0_
  6
CONTINUOUS
 62
    2
 10
8459.4719614472778
 20
4800.9095833824685
 40
23.333000183105468
 50
5.7105865478515625
 51
90
  0
ARC
  8
_0-0_
  6
CONTINUOUS
 62
    2
 10
8406.7110971894653
 20
4742.6096566246551
 40
23.333000183105468
 50
5.7105865478515625
 51
90
  0
ARC
  8
_0-0_
  6
CONTINUOUS
 62
    2
 10
8466.6383432832153
 20
4612.325721077781
 40
23.333000183105468
 50
185.71058654785156
 51
273.43362426757812
  0
TEXT
  8
_0-0_
 62
    7
 10
9324.0483164277484
 20
5381.5594435006387
 40
105
 41
0.8333333333333333
 50
90
  1
5
  0
LINE
  8
_0-0_
  6
CONTINUOUS
 62
    4
 10
9328.0880045380999
 20
5363.1616163522003
 11
9328.0880045380999
 21
5493.1616163522003
  0
LINE
  8
_0-0_
  6
CONTINUOUS
 62
    4
 10
9128.0879892793091
 20
5493.1616163522003
 11
9363.0880045380999
 21
5493.1616163522003
  0
LINE
  8
_0-0_
  6
CONTINUOUS
 62
    4
 10
9128.0879892793091
 20
5498.9946163522008
 11
9363.0880045380999
 21
5498.9946163522008
  0
LINE
  8
_0-0_
  6
CONTINUOUS
 62
    2
 10
9093.0879892793091
 20
5493.1616163522003
 11
9093.0879892793091
 21
5653.1616163522012
  0
LINE
  8
_0-0_
  6
CONTINUOUS
 62
    4
 10
9328.0880045380999
 20
5499.4946163521999
 11
9314.500004670217
 21
5550.2057222323765
  0
LINE
  8
_0-0_
  6
CONTINUOUS
 62
    4
 10
9328.0880045380999
 20
5499.4946163521999
 11
9341.676004405981
 21
5550.2057222323765
  0
LINE
  8
_0-0_
  6
CONTINUOUS
 62
    4
 10
9328.0880045380999
 20
5493.1616163522003
 11
9341.676004405981
 21
5442.4505104720246
  0
LINE
  8
_0-0_
  6
CONTINUOUS
 62
    4
 10
9328.0880045380999
 20
5493.1616163522003
 11
9314.500004670217
 21
5442.4505104720246
  0
LINE
  8
_0-0_
  6
CONTINUOUS
 62
    4
 10
9328.0880045380999
 20
5499.4946163521999
 11
9328.0880045380999
 21
5589.9946163522008
  0
LINE
  8
_0-0_
  6
CONTINUOUS
 62
    2
 10
8305.5880503144653
 20
5493.1616163522003
 11
9093.0879892793091
 21
5493.1616163522003
  0
LINE
  8
_0-0_
  6
CONTINUOUS
 62
    2
 10
8305.5880503144653
 20
5498.9946163522008
 11
9093.0879892793091
 21
5498.9946163522008
  0
LINE
  8
_0-0_
  6
CENTER1
 62
    4
 10
8255.5880503144653
 20
5653.1616163522012
 11
9143.0879892793109
 21
5653.1616163522012
  0
LINE
  8
_0-0_
  6
CONTINUOUS
 62
    2
 10
8305.5880503144653
 20
3737.7664994825254
 11
9093.0879892793091
 21
3737.7664994825254
  0
LINE
  8
_0-0_
  6
CONTINUOUS
 62
    2
 10
9081.4219892793098
 20
3912.7664994825254
 11
9093.0879892793091
 21
3737.7664994825254
  0
LINE
  8
_0-0_
  6
CONTINUOUS
 62
    4
 10
2116.6907455472564
 20
3479.2286778417915
 11
2116.6907455472564
 21
2985.6406779739099
  0
LINE
  8
_0-0_
  6
CONTINUOUS
 62
    4
 10
2116.6907455472564
 20
3020.6406779739099
 11
1426.6907455472562
 21
3020.6406779739099
  0
LINE
  8
_0-0_
  6
CONTINUOUS
 62
    4
 10
2116.6907455472564
 20
3020.6406779739099
 11
2065.9796396670803
 21
3007.0526781060275
  0
LINE
  8
_0-0_
  6
CONTINUOUS
 62
    4
 10
2116.6907455472564
 20
3020.6406779739099
 11
2065.9796396670803
 21
3034.2286778417915
  0
TEXT
  8
_0-0_
 62
    7
 10
1706.0985019215393
 20
3020.9337515205461
 40
105
 41
0.8333333333333333
 50
0
  1
690
  0
LINE
  8
_0-0_
  6
CONTINUOUS
 62
    2
 10
2106.690745547256
 20
2379.1759390000484
 11
2106.690745547256
 21
1379.1759390000479
  0
LINE
  8
_0-0_
  6
CONTINUOUS
 62
    2
 10
2116.6907455472564
 20
2379.1759390000484
 11
1426.6907455472567
 21
2379.1759390000484
  0
LINE
  8
_0-0_
  6
CONTINUOUS
 62
    2
 10
2116.6907455472564
 20
1379.1759390000486
 11
1426.6907455472567
 21
1379.1759390000486
  0
LINE
  8
_0-0_
  6
CONTINUOUS
 62
    2
 10
2116.6907455472564
 20
2379.1759390000484
 11
2116.6907455472564
 21
1379.1759390000486
  0
LINE
  8
_0-0_
  6
CONTINUOUS
 62
    2
 10
2116.6907455472564
 20
1384.1759390000488
 11
1426.6907455472567
 21
1384.1759390000488
  0
LINE
  8
_0-0_
  6
CONTINUOUS
 62
    4
 10
2116.6907455472564
 20
914.17593900004783
 11
2167.4018514274321
 21
927.76393886793027
  0
LINE
  8
_0-0_
  6
CONTINUOUS
 62
    4
 10
2116.6907455472564
 20
914.17593900004783
 11
2167.4018514274321
 21
900.58793913216538
  0
LINE
  8
_0-0_
  6
CONTINUOUS
 62
    4
 10
2081.6907455472564
 20
914.17593900004783
 11
2030.9796396670801
 21
900.58793913216538
  0
LINE
  8
_0-0_
  6
CONTINUOUS
 62
    4
 10
2081.6907455472564
 20
1344.1759390000486
 11
2081.6907455472564
 21
879.17593900004783
  0
LINE
  8
_0-0_
  6
CONTINUOUS
 62
    4
 10
2116.6907455472564
 20
1344.1759390000486
 11
2116.6907455472564
 21
879.17593900004783
  0
TEXT
  8
_0-0_
 62
    7
 10
2179.7380741340862
 20
922.28785907365067
 40
105
 41
0.8333333333333333
 50
0
  1
35
  0
LINE
  8
_0-0_
  6
CONTINUOUS
 62
    4
 10
2286.6907455472564
 20
914.17593900004783
 11
2116.6907455472564
 21
914.17593900004783
  0
LINE
  8
_0-0_
  6
CONTINUOUS
 62
    4
 10
2081.6907455472564
 20
914.17593900004783
 11
1981.6907455472564
 21
914.17593900004783
  0
LINE
  8
_0-0_
  6
CONTINUOUS
 62
    4
 10
2081.6907455472564
 20
914.17593900004783
 11
2030.9796396670801
 21
927.76393886793027
  0
LINE
  8
_0-0_
  6
CONTINUOUS
 62
    2
 10
1576.6907455472569
 20
2379.1759390000484
 11
1576.6907455472569
 21
1379.1759390000486
  0
LINE
  8
_0-0_
  6
CONTINUOUS
 62
    2
 10
1591.6907455472569
 20
2379.1759390000484
 11
1591.6907455472569
 21
1379.1759390000486
  0
LINE
  8
_0-0_
  6
CONTINUOUS
 62
    2
 10
8305.5880503144653
 20
3912.7664994825254
 11
8340.5880503144653
 21
3912.7664994825254
  0
LINE
  8
_0-0_
  6
CONTINUOUS
 62
    2
 10
8340.5880503144653
 20
3912.7664994825254
 11
8515.5880503144653
 21
3877.7664994825254
  0
LINE
  8
_0-0_
  6
CONTINUOUS
 62
    2
 10
8515.5880503144653
 20
3877.7664994825254
 11
9081.4219892793098
 21
3912.7664994825254
  0
LINE
  8
_0-0_
  6
CONTINUOUS
 62
    2
 10
8511.6021390841251
 20
3819.0754606713117
 11
9085.0233292272041
 21
3854.5447746748586
  0
LINE
  8
_0-0_
  6
CONTINUOUS
 62
    2
 10
8305.5880503144653
 20
3854.4334994825253
 11
8334.8119450280573
 21
3854.4334994825253
  0
LINE
  8
_0-0_
  6
CONTINUOUS
 62
    2
 10
8334.8119450280573
 20
3854.4334994825253
 11
8511.6021390841251
 21
3819.0754606713117
  0
TEXT
  8
_0-0_
 62
    7
 10
2058.1605331449122
 20
5297.9786448928543
 40
17.5
 41
1
 50
0
  1
●
  0
TEXT
  8
_0-0_
 62
    7
 10
1762.8191940335841
 20
5297.9992824050614
 40
17.5
 41
1
 50
0
  1
●
  0
LINE
  8
_0-0_
  6
CONTINUOUS
 62
    4
 10
2336.6132308988189
 20
5140.7503276321122
 11
2336.6132308988189
 21
5271.4713969680497
  0
TEXT
  8
_0-0_
 62
    7
 10
3831.6369072526076
 20
1260.2823371944909
 40
105
 41
1
 50
0
  1
0.103
  0
TEXT
  8
_0-0_
 62
    7
 10
1185.7113416579445
 20
5268.7682414504715
 40
105
 41
0.8333333333333333
 50
90
  1
120
  0
TEXT
  8
_0-0_
 62
    7
 10
1185.6541059401711
 20
5402.8899302932459
 40
105
 41
0.8333333333333333
 50
90
  1
150
  0
LINE
  8
_0-0_
  6
CONTINUOUS
 62
    4
 10
1391.6907455472562
 20
5389.1432414504715
 11
1171.0431542710414
 21
5389.1432414504715
  0
TEXT
  8
_0-0_
 62
    7
 10
3831.6369072526076
 20
1115.2823371944921
 40
105
 41
1
 50
0
  1
　247
  0
LINE
  8
_0-0_
  6
CONTINUOUS
 62
    4
 10
6965.9790145902288
 20
5234.1432414504715
 11
6965.9790145902288
 21
4599.143119380159
  0
LINE
  8
_0-0_
  6
CONTINUOUS
 62
    4
 10
6965.9790145902288
 20
4884.1432414504715
 11
6915.267832949602
 21
4897.7311320754715
  0
LINE
  8
_0-0_
  6
CONTINUOUS
 62
    4
 10
6965.9790145902288
 20
4884.1432414504715
 11
6915.267832949602
 21
4870.555228755159
  0
LINE
  8
_0-0_
  6
CONTINUOUS
 62
    4
 10
6965.9790145902288
 20
4634.143119380159
 11
6915.267832949602
 21
4647.731254145784
  0
LINE
  8
_0-0_
  6
CONTINUOUS
 62
    4
 10
6965.9790145902288
 20
4634.143119380159
 11
6915.267832949602
 21
4620.555228755159
  0
LINE
  8
_0-0_
  6
CONTINUOUS
 62
    4
 10
6725.9790145902297
 20
5234.1432414504715
 11
6725.9790145902297
 21
4849.143119380159
  0
LINE
  8
_0-0_
  6
CONTINUOUS
 62
    4
 10
6965.9790145902288
 20
4884.1432414504715
 11
6725.9790145902297
 21
4884.1432414504715
  0
LINE
  8
_0-0_
  6
CONTINUOUS
 62
    4
 10
6725.9790145902297
 20
4884.1432414504715
 11
6776.6901204704045
 21
4870.5552415825886
  0
LINE
  8
_0-0_
  6
CONTINUOUS
 62
    4
 10
6725.9790145902297
 20
4884.1432414504715
 11
6776.6901204704045
 21
4897.7312413183535
  0
TEXT
  8
_0-0_
 62
    7
 10
6775.591727272098
 20
4892.5438671679066
 40
105
 41
0.8333333333333333
 50
0
  1
240
  0
LINE
  8
_0-0_
  6
CONTINUOUS
 62
    4
 10
5965.9790145902288
 20
5234.1432414504715
 11
5965.9790145902288
 21
4599.143119380159
  0
LINE
  8
_0-0_
  6
CONTINUOUS
 62
    4
 10
6965.9790145902288
 20
4634.143119380159
 11
5965.9790145902288
 21
4634.143119380159
  0
TEXT
  8
_0-0_
 62
    7
 10
6367.9790145902306
 20
4641.6431193801581
 40
105
 41
0.8333333333333333
 50
0
  1
1000
  0
LINE
  8
_0-0_
  6
CONTINUOUS
 62
    4
 10
5965.9790145902288
 20
4634.143119380159
 11
6016.6901204704045
 21
4620.555119512277
  0
LINE
  8
_0-0_
  6
CONTINUOUS
 62
    4
 10
5965.9790145902288
 20
4634.143119380159
 11
6016.6901204704045
 21
4647.7311192480419
  0
LINE
  8
_0-0_
  6
CONTINUOUS
 62
    4
 10
5965.9790145902288
 20
4884.1432414504715
 11
6016.6901204704045
 21
4870.5552415825886
  0
LINE
  8
_0-0_
  6
CONTINUOUS
 62
    4
 10
5965.9790145902288
 20
4884.1432414504715
 11
6016.6901204704045
 21
4897.7312413183535
  0
LINE
  8
_0-0_
  6
CONTINUOUS
 62
    4
 10
6725.9790145902297
 20
4884.1432414504715
 11
6675.2679087100523
 21
4897.7312413183535
  0
LINE
  8
_0-0_
  6
CONTINUOUS
 62
    4
 10
6725.9790145902297
 20
4884.1432414504715
 11
6675.2679087100523
 21
4870.5552415825886
  0
LINE
  8
_0-0_
  6
CONTINUOUS
 62
    2
 10
6965.9790145902288
 20
5269.1432414504715
 11
5965.9790145902288
 21
5269.1432414504715
  0
CIRCLE
  8
_0-0_
  6
CONTINUOUS
 62
    2
 10
6725.9790145902279
 20
5339.1432414504715
 40
12
  0
CIRCLE
  8
_0-0_
  6
CONTINUOUS
 62
    2
 10
6205.9790145902279
 20
5339.1432414504715
 40
12
  0
LINE
  8
_0-0_
  6
CONTINUOUS
 62
    4
 10
6040.9790145902297
 20
5069.1432414504724
 11
6070.9790145902288
 21
5077.181693598909
  0
LINE
  8
_0-0_
  6
CONTINUOUS
 62
    4
 10
6040.9790145902297
 20
5069.1432414504724
 11
6070.9790145902288
 21
5061.1046672317215
  0
LINE
  8
_0-0_
  6
CONTINUOUS
 62
    4
 10
6040.9790145902297
 20
5317.9747844192215
 11
6040.9790145902297
 21
5034.1432414504724
  0
TEXT
  8
_0-0_
 62
    7
 10
6078.0766708402297
 20
5076.7531047317215
 40
105
 41
0.8333333333333333
 50
0
  1
75
  0
LINE
  8
_0-0_
  6
CONTINUOUS
 62
    4
 10
6180.6938583402279
 20
5069.1432414504724
 11
6040.9790145902297
 21
5069.1432414504724
  0
LINE
  8
_0-0_
  6
CONTINUOUS
 62
    4
 10
5965.9790145902288
 20
5069.1432414504724
 11
5885.9790145902297
 21
5069.1432414504724
  0
LINE
  8
_0-0_
  6
CONTINUOUS
 62
    4
 10
5965.9790145902288
 20
5069.1432414504724
 11
5935.9790145902297
 21
5061.1046672317215
  0
LINE
  8
_0-0_
  6
CONTINUOUS
 62
    4
 10
5965.9790145902288
 20
5069.1432414504724
 11
5935.9790145902297
 21
5077.181693598909
  0
LINE
  8
_0-0_
  6
DASHED1
 62
    2
 10
6965.9790145902288
 20
5389.1432414504715
 11
5965.9790145902288
 21
5389.1432414504715
  0
LINE
  8
_0-0_
  6
CONTINUOUS
 62
    2
 10
6965.9790145902288
 20
5389.1432414504715
 11
6961.4790145902288
 21
5393.6432414504706
  0
LINE
  8
_0-0_
  6
DASHED1
 62
    2
 10
6961.4790145902288
 20
5419.1432414504724
 11
5965.9790145902288
 21
5419.1432414504724
  0
LINE
  8
_0-0_
  6
CONTINUOUS
 62
    4
 10
6734.3575223736361
 20
5347.7339694361198
 11
6743.4740517011496
 21
5399.4363764692607
  0
LINE
  8
_0-0_
  6
CONTINUOUS
 62
    4
 10
6734.3575223736361
 20
5347.7339694361198
 11
6768.1038718821791
 21
5387.9513026998665
  0
LINE
  8
_0-0_
  6
CONTINUOUS
 62
    4
 10
5730.9790145902288
 20
5269.1432414504715
 11
5739.0175888089788
 21
5239.1432414504715
  0
LINE
  8
_0-0_
  6
CONTINUOUS
 62
    4
 10
5730.9790145902288
 20
5269.1432414504715
 11
5722.9409286527279
 21
5239.1432414504715
  0
LINE
  8
_0-0_
  6
CONTINUOUS
 62
    4
 10
5730.9790145902288
 20
5138.422172114534
 11
5730.9790145902288
 21
5269.1432414504715
  0
LINE
  8
_0-0_
  6
CONTINUOUS
 62
    4
 10
5730.9790145902288
 20
5339.1432414504715
 11
5722.9409286527279
 21
5369.1432414504715
  0
LINE
  8
_0-0_
  6
CONTINUOUS
 62
    4
 10
5730.9790145902288
 20
5339.1432414504715
 11
5739.0175888089788
 21
5369.1432414504715
  0
LINE
  8
_0-0_
  6
CONTINUOUS
 62
    4
 10
5730.9790145902288
 20
5339.1432414504715
 11
5730.9790145902288
 21
5410.0050578567215
  0
LINE
  8
_0-0_
  6
CONTINUOUS
 62
    4
 10
5545.9790145902288
 20
5269.1432414504715
 11
5559.5670144581108
 21
5319.8543473306481
  0
LINE
  8
_0-0_
  6
CONTINUOUS
 62
    4
 10
5545.9790145902288
 20
5269.1432414504715
 11
5532.3910147223477
 21
5319.8543473306481
  0
TEXT
  8
_0-0_
 62
    7
 10
5726.5390731839779
 20
5137.5468059035974
 40
105
 41
0.8333333333333333
 50
90
  1
70
  0
LINE
  8
_0-0_
  6
CONTINUOUS
 62
    4
 10
6014.8359481839788
 20
5339.1432414504715
 11
5695.9790145902288
 21
5339.1432414504715
  0
LINE
  8
_0-0_
  6
CONTINUOUS
 62
    4
 10
5930.9790145902288
 20
5269.1432414504715
 11
5510.9790145902288
 21
5269.1432414504715
  0
LINE
  8
_0-0_
  6
CONTINUOUS
 62
    4
 10
3481.9802352933543
 20
5234.1432414504715
 11
3481.9802352933543
 21
4599.143119380159
  0
LINE
  8
_0-0_
  6
CONTINUOUS
 62
    4
 10
3481.9802352933543
 20
4884.1432414504715
 11
3532.6914169339797
 21
4897.7311320754715
  0
LINE
  8
_0-0_
  6
CONTINUOUS
 62
    4
 10
3481.9802352933543
 20
4884.1432414504715
 11
3532.6914169339797
 21
4870.555228755159
  0
LINE
  8
_0-0_
  6
CONTINUOUS
 62
    4
 10
3481.9802352933543
 20
4634.143119380159
 11
3532.6914169339797
 21
4647.731254145784
  0
LINE
  8
_0-0_
  6
CONTINUOUS
 62
    4
 10
3481.9802352933543
 20
4634.143119380159
 11
3532.6914169339797
 21
4620.555228755159
  0
LINE
  8
_0-0_
  6
CONTINUOUS
 62
    4
 10
3721.9802352933547
 20
5234.1432414504715
 11
3721.9802352933547
 21
4849.143119380159
  0
LINE
  8
_0-0_
  6
CONTINUOUS
 62
    4
 10
3481.9802352933543
 20
4884.1432414504715
 11
3721.9802352933547
 21
4884.1432414504715
  0
LINE
  8
_0-0_
  6
CONTINUOUS
 62
    4
 10
3721.9802352933547
 20
4884.1432414504715
 11
3671.2691294131782
 21
4870.5552415825886
  0
LINE
  8
_0-0_
  6
CONTINUOUS
 62
    4
 10
3721.9802352933547
 20
4884.1432414504715
 11
3671.2691294131782
 21
4897.7312413183535
  0
TEXT
  8
_0-0_
 62
    7
 10
3530.6175226114837
 20
4892.5438671679066
 40
105
 41
0.8333333333333333
 50
0
  1
240
  0
LINE
  8
_0-0_
  6
CONTINUOUS
 62
    4
 10
4481.9802352933538
 20
5234.1432414504715
 11
4481.9802352933538
 21
4599.143119380159
  0
LINE
  8
_0-0_
  6
CONTINUOUS
 62
    4
 10
3481.9802352933543
 20
4634.143119380159
 11
4481.9802352933538
 21
4634.143119380159
  0
TEXT
  8
_0-0_
 62
    7
 10
3889.2302352933529
 20
4641.6431193801581
 40
105
 41
0.8333333333333333
 50
0
  1
1000
  0
LINE
  8
_0-0_
  6
CONTINUOUS
 62
    4
 10
4481.9802352933538
 20
4634.143119380159
 11
4431.2691294131782
 21
4620.555119512277
  0
LINE
  8
_0-0_
  6
CONTINUOUS
 62
    4
 10
4481.9802352933538
 20
4634.143119380159
 11
4431.2691294131782
 21
4647.7311192480419
  0
LINE
  8
_0-0_
  6
CONTINUOUS
 62
    4
 10
4481.9802352933538
 20
4884.1432414504715
 11
4431.2691294131782
 21
4870.5552415825886
  0
LINE
  8
_0-0_
  6
CONTINUOUS
 62
    4
 10
4481.9802352933538
 20
4884.1432414504715
 11
4431.2691294131782
 21
4897.7312413183535
  0
LINE
  8
_0-0_
  6
CONTINUOUS
 62
    4
 10
3721.9802352933547
 20
4884.1432414504715
 11
3772.6913411735308
 21
4897.7312413183535
  0
LINE
  8
_0-0_
  6
CONTINUOUS
 62
    4
 10
3721.9802352933547
 20
4884.1432414504715
 11
3772.6913411735308
 21
4870.5552415825886
  0
LINE
  8
_0-0_
  6
CONTINUOUS
 62
    2
 10
3481.9802352933543
 20
5269.1432414504715
 11
4481.9802352933538
 21
5269.1432414504715
  0
LINE
  8
_0-0_
  6
CONTINUOUS
 62
    4
 10
4406.9802352933529
 20
5069.1432414504724
 11
4376.9802352933538
 21
5077.181693598909
  0
LINE
  8
_0-0_
  6
CONTINUOUS
 62
    4
 10
4406.9802352933529
 20
5069.1432414504724
 11
4376.9802352933538
 21
5061.1046672317215
  0
LINE
  8
_0-0_
  6
CONTINUOUS
 62
    4
 10
4406.9802352933529
 20
5317.9747844192215
 11
4406.9802352933529
 21
5034.1432414504724
  0
TEXT
  8
_0-0_
 62
    7
 10
4282.3825790433538
 20
5076.7531047317215
 40
105
 41
0.8333333333333333
 50
0
  1
75
  0
LINE
  8
_0-0_
  6
CONTINUOUS
 62
    4
 10
4267.2653915433547
 20
5069.1432414504724
 11
4406.9802352933529
 21
5069.1432414504724
  0
LINE
  8
_0-0_
  6
CONTINUOUS
 62
    4
 10
4481.9802352933538
 20
5069.1432414504724
 11
4561.9802352933538
 21
5069.1432414504724
  0
LINE
  8
_0-0_
  6
CONTINUOUS
 62
    4
 10
4481.9802352933538
 20
5069.1432414504724
 11
4511.9802352933529
 21
5061.1046672317215
  0
LINE
  8
_0-0_
  6
CONTINUOUS
 62
    4
 10
4481.9802352933538
 20
5069.1432414504724
 11
4511.9802352933529
 21
5077.181693598909
  0
LINE
  8
_0-0_
  6
CONTINUOUS
 62
    4
 10
4751.9802352933538
 20
5269.1432414504715
 11
4743.9416610746047
 21
5239.1432414504715
  0
LINE
  8
_0-0_
  6
CONTINUOUS
 62
    4
 10
4751.9802352933538
 20
5269.1432414504715
 11
4760.0183212308547
 21
5239.1432414504715
  0
LINE
  8
_0-0_
  6
CONTINUOUS
 62
    4
 10
4751.9802352933538
 20
5138.422172114534
 11
4751.9802352933538
 21
5269.1432414504715
  0
TEXT
  8
_0-0_
 62
    7
 10
4747.5402938871029
 20
5137.5468059035974
 40
105
 41
0.8333333333333333
 50
90
  1
70
  0
LINE
  8
_0-0_
  6
CONTINUOUS
 62
    4
 10
4751.9802352933538
 20
5339.1432414504715
 11
4760.0183212308547
 21
5369.1432414504715
  0
LINE
  8
_0-0_
  6
CONTINUOUS
 62
    4
 10
4751.9802352933538
 20
5339.1432414504715
 11
4743.9416610746047
 21
5369.1432414504715
  0
LINE
  8
_0-0_
  6
CONTINUOUS
 62
    4
 10
4751.9802352933538
 20
5339.1432414504715
 11
4751.9802352933538
 21
5410.0050578567215
  0
LINE
  8
_0-0_
  6
CONTINUOUS
 62
    4
 10
4936.9802352933538
 20
5269.1432414504715
 11
4923.3922354254727
 21
5319.8543473306481
  0
LINE
  8
_0-0_
  6
CONTINUOUS
 62
    4
 10
4936.9802352933538
 20
5269.1432414504715
 11
4950.5682351612349
 21
5319.8543473306481
  0
LINE
  8
_0-0_
  6
CONTINUOUS
 62
    4
 10
4433.1233016996047
 20
5339.1432414504715
 11
4786.9802352933538
 21
5339.1432414504715
  0
LINE
  8
_0-0_
  6
CONTINUOUS
 62
    4
 10
4516.9802352933538
 20
5269.1432414504715
 11
4971.9802352933538
 21
5269.1432414504715
  0
LINE
  8
_0-0_
  6
CONTINUOUS
 62
    4
 10
3296.9802352933543
 20
5269.1432414504715
 11
3283.3922354254727
 21
5319.8543473306481
  0
LINE
  8
_0-0_
  6
CONTINUOUS
 62
    4
 10
3296.9802352933543
 20
5269.1432414504715
 11
3310.5682351612376
 21
5319.8543473306481
  0
LINE
  8
_0-0_
  6
CONTINUOUS
 62
    4
 10
3446.9802352933543
 20
5269.1432414504715
 11
3261.9802352933543
 21
5269.1432414504715
  0
LINE
  8
_0-0_
  6
CONTINUOUS
 62
    4
 10
3446.9802352933543
 20
5539.1432414504715
 11
3261.9802352933543
 21
5539.1432414504715
  0
LINE
  8
_0-0_
  6
CONTINUOUS
 62
    4
 10
3296.9802352933543
 20
5539.1432414504715
 11
3296.9802352933543
 21
5269.1432414504715
  0
LINE
  8
_0-0_
  6
CONTINUOUS
 62
    4
 10
3296.9802352933543
 20
5539.1432414504715
 11
3310.5682351612367
 21
5488.432135570295
  0
LINE
  8
_0-0_
  6
CONTINUOUS
 62
    4
 10
3296.9802352933543
 20
5539.1432414504715
 11
3283.3922354254718
 21
5488.432135570295
  0
TEXT
  8
_0-0_
 62
    7
 10
3298.1115219144485
 20
5339.6517711135575
 40
105
 41
0.8333333333333333
 50
90
  1
270
  0
LINE
  8
_0-0_
  6
CONTINUOUS
 62
    4
 10
7185.9790145902279
 20
5269.1432414504715
 11
7172.3910171537054
 21
5319.8543467971512
  0
LINE
  8
_0-0_
  6
CONTINUOUS
 62
    4
 10
7185.9790145902279
 20
5269.1432414504715
 11
7199.5670120267513
 21
5319.8543467971512
  0
LINE
  8
_0-0_
  6
CONTINUOUS
 62
    4
 10
7000.9790145902288
 20
5269.1432414504715
 11
7220.9790145902279
 21
5269.1432414504715
  0
TEXT
  8
_0-0_
 62
    7
 10
6987.9633690964474
 20
5830.8545214826408
 40
105
 41
1
 50
0
  1
吊ｲﾝｻｰﾄ 4箇所
  0
LINE
  8
_0-0_
  6
CONTINUOUS
 62
    4
 10
6955.5965563774325
 20
5822.182608944111
 11
7730.5230029772528
 21
5822.182608944111
  0
LINE
  8
_0-0_
  6
CONTINUOUS
 62
    4
 10
6734.3575223736361
 20
5347.7339694361198
 11
6955.5965563774325
 21
5822.182608944111
  0
LINE
  8
_0-0_
  6
CONTINUOUS
 62
    4
 10
4516.9802352933538
 20
5419.1432414504724
 11
4971.9802352933538
 21
5419.1432414504724
  0
LINE
  8
_0-0_
  6
CONTINUOUS
 62
    4
 10
4936.9802352933538
 20
5269.1432414504715
 11
4936.9802352933538
 21
5419.1432414504724
  0
LINE
  8
_0-0_
  6
CONTINUOUS
 62
    4
 10
4936.9802352933538
 20
5419.1432414504724
 11
4950.5682351612358
 21
5368.4321355702959
  0
LINE
  8
_0-0_
  6
CONTINUOUS
 62
    4
 10
4936.9802352933538
 20
5419.1432414504724
 11
4923.3922354254718
 21
5368.4321355702959
  0
LINE
  8
_0-0_
  6
CONTINUOUS
 62
    4
 10
5930.9790145902288
 20
5419.1432414504724
 11
5510.9790145902288
 21
5419.1432414504724
  0
LINE
  8
_0-0_
  6
CONTINUOUS
 62
    4
 10
5545.9790145902288
 20
5269.1432414504715
 11
5545.9790145902288
 21
5419.1432414504724
  0
LINE
  8
_0-0_
  6
CONTINUOUS
 62
    4
 10
5545.9790145902288
 20
5419.1432414504724
 11
5559.5670144581117
 21
5368.4321355702959
  0
LINE
  8
_0-0_
  6
CONTINUOUS
 62
    4
 10
5545.9790145902288
 20
5419.1432414504724
 11
5532.3910147223468
 21
5368.4321355702959
  0
LINE
  8
_0-0_
  6
CONTINUOUS
 62
    2
 10
5965.9790145902288
 20
5269.1432414504715
 11
5965.9790145902288
 21
5419.1432414504724
  0
LINE
  8
_0-0_
  6
CONTINUOUS
 62
    4
 10
7185.9790145902279
 20
5539.1432414504715
 11
7185.9790145902279
 21
5269.1432414504715
  0
LINE
  8
_0-0_
  6
CONTINUOUS
 62
    4
 10
7185.9790145902279
 20
5539.1432414504715
 11
7199.5670144581108
 21
5488.432135570295
  0
LINE
  8
_0-0_
  6
CONTINUOUS
 62
    4
 10
7185.9790145902279
 20
5539.1432414504715
 11
7172.3910147223459
 21
5488.432135570295
  0
TEXT
  8
_0-0_
 62
    7
 10
7187.1103012113226
 20
5339.6517711135575
 40
105
 41
0.8333333333333333
 50
90
  1
270
  0
LINE
  8
_0-0_
  6
CONTINUOUS
 62
    2
 10
6961.4790145902288
 20
5393.6432414504706
 11
6961.4790145902288
 21
5539.1432414504715
  0
LINE
  8
_0-0_
  6
CONTINUOUS
 62
    4
 10
6996.4790145902288
 20
5539.1432414504715
 11
7220.9790145902279
 21
5539.1432414504715
  0
TEXT
  8
_0-0_
 62
    7
 10
4426.2295628806086
 20
5730.8545214826399
 40
105
 41
1
 50
0
  1
吊ｲﾝｻｰﾄ 4箇所
  0
LINE
  8
_0-0_
  6
CONTINUOUS
 62
    4
 10
4404.9670112650564
 20
5722.182608944111
 11
5168.7891967614141
 21
5722.182608944111
  0
LINE
  8
_0-0_
  6
CONTINUOUS
 62
    4
 10
3721.9802352933547
 20
4884.1432414504715
 11
4221.9802352933538
 21
4884.1432414504715
  0
LINE
  8
_0-0_
  6
CONTINUOUS
 62
    4
 10
4221.9802352933538
 20
4884.1432414504715
 11
4171.2691294131782
 21
4870.5552415825886
  0
LINE
  8
_0-0_
  6
CONTINUOUS
 62
    4
 10
4221.9802352933538
 20
4884.1432414504715
 11
4171.2691294131782
 21
4897.7312413183535
  0
LINE
  8
_0-0_
  6
CONTINUOUS
 62
    4
 10
4221.9802352933538
 20
5234.1432414504715
 11
4221.9802352933538
 21
4849.1432414504715
  0
LINE
  8
_0-0_
  6
CONTINUOUS
 62
    4
 10
4221.9802352933538
 20
4884.1432414504715
 11
4481.9802352933538
 21
4884.1432414504715
  0
LINE
  8
_0-0_
  6
CONTINUOUS
 62
    4
 10
4221.9802352933538
 20
4884.1432414504715
 11
4272.6913411735295
 21
4897.7312413183535
  0
LINE
  8
_0-0_
  6
CONTINUOUS
 62
    4
 10
4221.9802352933538
 20
4884.1432414504715
 11
4272.6913411735295
 21
4870.5552415825886
  0
TEXT
  8
_0-0_
 62
    7
 10
4280.8839476341227
 20
4892.5604394698539
 40
105
 41
0.8333333333333333
 50
0
  1
260
  0
TEXT
  8
_0-0_
 62
    7
 10
3900.9711306091644
 20
4890.7220563418595
 40
105
 41
0.8333333333333333
 50
0
  1
500
  0
LINE
  8
_0-0_
  6
CONTINUOUS
 62
    4
 10
6725.9790145902297
 20
4884.1432414504715
 11
6225.9790145902297
 21
4884.1432414504715
  0
LINE
  8
_0-0_
  6
CONTINUOUS
 62
    4
 10
6225.9790145902297
 20
4884.1432414504715
 11
6276.6901204704054
 21
4897.7312413183535
  0
LINE
  8
_0-0_
  6
CONTINUOUS
 62
    4
 10
6225.9790145902297
 20
4884.1432414504715
 11
6276.6901204704054
 21
4870.5552415825886
  0
LINE
  8
_0-0_
  6
CONTINUOUS
 62
    4
 10
6225.9790145902297
 20
5239.5022252990947
 11
6225.9790145902297
 21
4885.2985265621591
  0
LINE
  8
_0-0_
  6
CONTINUOUS
 62
    4
 10
6225.9790145902297
 20
4885.2985265621591
 11
6225.9790145902297
 21
4854.5021032287813
  0
LINE
  8
_0-0_
  6
CONTINUOUS
 62
    4
 10
6225.9790145902297
 20
4884.1432414504715
 11
5965.9790145902288
 21
4884.1432414504715
  0
LINE
  8
_0-0_
  6
CONTINUOUS
 62
    4
 10
6225.9790145902297
 20
4884.1432414504715
 11
6175.2679087100532
 21
4870.5552415825886
  0
LINE
  8
_0-0_
  6
CONTINUOUS
 62
    4
 10
6225.9790145902297
 20
4884.1432414504715
 11
6175.2679087100532
 21
4897.7312413183535
  0
TEXT
  8
_0-0_
 62
    7
 10
6024.8827269309977
 20
4892.5604394698539
 40
105
 41
0.8333333333333333
 50
0
  1
260
  0
TEXT
  8
_0-0_
 62
    7
 10
6404.9699099060408
 20
4890.7220563418595
 40
105
 41
0.8333333333333333
 50
0
  1
500
  0
TEXT
  8
_0-0_
 62
    7
 10
5538.6705083482011
 20
5280.4373618844938
 40
105
 41
0.8333333333333333
 50
90
  1
150
  0
TEXT
  8
_0-0_
 62
    7
 10
4931.731727158949
 20
5278.2634902896807
 40
105
 41
0.8333333333333333
 50
90
  1
150
  0
CIRCLE
  8
_0-0_
  6
CONTINUOUS
 62
    2
 10
3556.9802352933543
 20
5339.1432414504715
 40
7.5
  0
CIRCLE
  8
_0-0_
  6
CONTINUOUS
 62
    2
 10
4406.9802352933538
 20
5339.1432414504715
 40
7.5
  0
CIRCLE
  8
_0-0_
  6
CONTINUOUS
 62
    2
 10
6040.9790145902288
 20
5339.1432414504715
 40
7.5
  0
CIRCLE
  8
_0-0_
  6
CONTINUOUS
 62
    2
 10
6890.9790145902288
 20
5339.1432414504715
 40
7.5
  0
LINE
  8
_0-0_
  6
CONTINUOUS
 62
    4
 10
3562.2835361522534
 20
5344.4465423093706
 11
3571.4000654797669
 21
5396.1489493425115
  0
LINE
  8
_0-0_
  6
CONTINUOUS
 62
    4
 10
3562.2835361522534
 20
5344.4465423093706
 11
3596.0298856607969
 21
5384.6638755731164
  0
LINE
  8
_0-0_
  6
CONTINUOUS
 62
    4
 10
3562.2835361522534
 20
5344.4465423093706
 11
3830.2275048376304
 21
5919.0542374639571
  0
TEXT
  8
_0-0_
 62
    7
 10
3851.4900564531831
 20
5927.7261500024878
 40
105
 41
1
 50
0
  1
ｲﾝｻｰﾄ M12
  0
LINE
  8
_0-0_
  6
CONTINUOUS
 62
    4
 10
3830.2275048376304
 20
5919.0542374639571
 11
4377.7612984738625
 21
5919.0542374639571
  0
TEXT
  8
_0-0_
 62
    7
 10
6470.0868829021374
 20
6027.7261500024878
 40
105
 41
1
 50
0
  1
ｲﾝｻｰﾄ M12
  0
LINE
  8
_0-0_
  6
CONTINUOUS
 62
    4
 10
6435.7672498440224
 20
6019.0542374639571
 11
6996.3581249228154
 21
6019.0542374639571
  0
LINE
  8
_0-0_
  6
CONTINUOUS
 62
    4
 10
6046.282315449127
 20
5344.4465423093706
 11
6435.7672498440224
 21
6019.0542374639571
  0
LINE
  8
_0-0_
  6
CONTINUOUS
 62
    4
 10
6046.282315449127
 20
5344.4465423093706
 11
6059.8703153170108
 21
5395.1576481895463
  0
LINE
  8
_0-0_
  6
CONTINUOUS
 62
    4
 10
6046.282315449127
 20
5344.4465423093706
 11
6083.4054214614234
 21
5381.5696483216643
  0
LINE
  8
_0-0_
  6
CONTINUOUS
 62
    5
 10
6940.9790145902279
 20
5305.8414968065271
 11
5990.9790145902297
 21
5305.8414968065271
  0
LINE
  8
_0-0_
  6
CONTINUOUS
 62
    5
 10
3506.9802352933547
 20
5305.8414968065271
 11
4456.9802352933538
 21
5305.8414968065271
  0
CIRCLE
  8
_0-0_
  6
CONTINUOUS
 62
    2
 10
3721.9802352933547
 20
5339.1432414504715
 40
10
  0
CIRCLE
  8
_0-0_
  6
CONTINUOUS
 62
    2
 10
4221.9802352933538
 20
5339.1432414504715
 40
10
  0
LINE
  8
_0-0_
  6
CONTINUOUS
 62
    4
 10
4229.4520140183449
 20
5345.7894826953224
 11
4404.9670112650564
 21
5722.182608944111
  0
LINE
  8
_0-0_
  6
CONTINUOUS
 62
    4
 10
4229.4520140183449
 20
5345.7894826953224
 11
4238.5685433458593
 21
5397.4918897284633
  0
LINE
  8
_0-0_
  6
CONTINUOUS
 62
    4
 10
4229.4520140183449
 20
5345.7894826953224
 11
4263.1983635268888
 21
5386.0068159590691
  0
LINE
  8
_0-0_
  6
CONTINUOUS
 62
    3
 10
8253.5628586871061
 20
6036.0012128906246
 11
9118.5162863429595
 21
6036.0012128906246
  0
TEXT
  8
_0-0_
 62
    7
 10
8290.8725383254713
 20
6032.8682783018866
 40
112
 41
1
 50
0
  1
ｼﾞｮｲﾝﾄ部詳細図
  0
LINE
  8
_0-0_
  6
CONTINUOUS
 62
    2
 10
1451.6907455472564
 20
5333.2486262771317
 11
1451.6907455472564
 21
5345.2486262771326
  0
LINE
  8
_0-0_
  6
CONTINUOUS
 62
    2
 10
1451.6907455472564
 20
5333.2486262771317
 11
1426.6907455472562
 21
5333.2486262771317
  0
LINE
  8
_0-0_
  6
CONTINUOUS
 62
    2
 10
1451.6907455472564
 20
5345.2486262771326
 11
1426.6907455472562
 21
5345.2486262771326
  0
TEXT
  8
_0-0_
 62
    7
 10
1435.5713089651599
 20
5873.1594318887973
 40
105
 41
0.8333333333333333
 50
0
  1
150
  0
LINE
  8
_0-0_
  6
CONTINUOUS
 62
    2
 10
1451.6907455472569
 20
2298.1759390000484
 11
1451.6907455472569
 21
2310.1759390000484
  0
LINE
  8
_0-0_
  6
CONTINUOUS
 62
    2
 10
1451.6907455472569
 20
2298.1759390000484
 11
1426.6907455472567
 21
2298.1759390000484
  0
LINE
  8
_0-0_
  6
CONTINUOUS
 62
    2
 10
1451.6907455472569
 20
2310.1759390000484
 11
1426.6907455472567
 21
2310.1759390000484
  0
LINE
  8
_0-0_
  6
CONTINUOUS
 62
    2
 10
1451.6907455472569
 20
1448.1759390000486
 11
1451.6907455472569
 21
1460.1759390000486
  0
LINE
  8
_0-0_
  6
CONTINUOUS
 62
    2
 10
1451.6907455472569
 20
1448.1759390000486
 11
1426.6907455472567
 21
1448.1759390000486
  0
LINE
  8
_0-0_
  6
CONTINUOUS
 62
    2
 10
1451.6907455472569
 20
1460.1759390000486
 11
1426.6907455472567
 21
1460.1759390000486
  0
LINE
  8
_0-0_
  6
CONTINUOUS
 62
    2
 10
4481.9802352933538
 20
5369.1432414504715
 11
4476.9802352933538
 21
5374.1432414504715
  0
LINE
  8
_0-0_
  6
CONTINUOUS
 62
    2
 10
4476.9802352933538
 20
5419.1432414504724
 11
4476.9802352933538
 21
5374.1432414504715
  0
LINE
  8
_0-0_
  6
DASHED1
 62
    2
 10
3481.9802352933543
 20
5419.1432414504724
 11
4476.9802352933538
 21
5419.1432414504724
  0
LINE
  8
_0-0_
  6
DASHED1
 62
    2
 10
3481.9802352933543
 20
5389.1432414504715
 11
4476.9802352933538
 21
5389.1432414504715
  0
LINE
  8
_0-0_
  6
CONTINUOUS
 62
    4
 10
4544.7184399239913
 20
5540.3344668729196
 11
4828.7014568917647
 21
5540.3344668729196
  0
TEXT
  8
_0-0_
 62
    7
 10
4564.068476545086
 20
5546.1015567166696
 40
87.5
 41
0.7199999999999999
 50
0
  1
シール溝
  0
TEXT
  8
_0-0_
 62
    7
 10
4967.4120321903637
 20
733.6108789109146
 40
87.5
 41
0.9199999999999999
 50
0
  1
連結プレート､ボルト､ワッシャー､インサートの仕様
  0
TEXT
  8
_0-0_
 62
    7
 10
5080.3103542017333
 20
569.42350065855839
 40
87.5
 41
1
 50
0
  1
1. 材質SS400または同等以上のもの
  0
TEXT
  8
_0-0_
 62
    7
 10
5080.3103542017333
 20
439.42350065855856
 40
87.5
 41
1
 50
0
  1
2. 電気亜鉛ﾒｯｷ(JIS H 8610)2種3級または同等以上のもの
  0
TEXT
  8
_0-0_
 62
    7
 10
8610.77345051068
 20
2136.8280310521427
 40
38.5
 41
1.1818181818181816
 50
0
  1
2
  0
TEXT
  8
_0-0_
 62
    7
 10
8610.77345051068
 20
2436.8280310521427
 40
38.5
 41
1.1818181818181816
 50
0
  1
2
  0
LINE
  8
_0-0_
  6
CONTINUOUS
 62
    4
 10
5147.9897313510891
 20
2440.7920597484276
 11
5355.2505498325344
 21
2440.7920597484276
  0
TEXT
  8
_0-0_
 62
    7
 10
5147.241653958511
 20
2445.5482881953876
 40
105
 41
0.8333333333333333
 50
0
  1
φ
  0
TEXT
  8
_0-0_
 62
    7
 10
5233.5500798618322
 20
2444.706155150191
 40
105
 41
0.8333333333333333
 50
0
  1
15
  0
LINE
  8
_0-0_
  6
CONTINUOUS
 62
    4
 10
1461.6907455472567
 20
1344.1759390000486
 11
1461.6907455472567
 21
879.17593900004783
  0
LINE
  8
_0-0_
  6
CONTINUOUS
 62
    4
 10
1461.6907455472567
 20
914.17593900004783
 11
1512.4018514274321
 21
927.76393886793027
  0
LINE
  8
_0-0_
  6
CONTINUOUS
 62
    4
 10
1461.6907455472567
 20
914.17593900004783
 11
1512.4018514274321
 21
900.58793913216538
  0
LINE
  8
_0-0_
  6
CONTINUOUS
 62
    4
 10
1561.6907455472569
 20
914.17593900004783
 11
1461.6907455472567
 21
914.17593900004783
  0
TEXT
  8
_0-0_
 62
    7
 10
1278.6654403941038
 20
919.8016128326551
 40
105
 41
0.8333333333333333
 50
0
  1
35
  0
LINE
  8
_0-0_
  6
CONTINUOUS
 62
    5
 10
1451.6907455472564
 20
2344.1759390000484
 11
2091.6907455472564
 21
2344.1759390000484
  0
LINE
  8
_0-0_
  6
CONTINUOUS
 62
    5
 10
1451.6907455472564
 20
1414.1759390000486
 11
2091.6907455472564
 21
1414.1759390000486
  0
LINE
  8
_0-0_
  6
CONTINUOUS
 62
    5
 10
1461.6907455472567
 20
2354.1759390000479
 11
1461.6907455472567
 21
1404.1759390000484
  0
LINE
  8
_0-0_
  6
CONTINUOUS
 62
    5
 10
1616.6907455472569
 20
2354.1759390000479
 11
1616.6907455472569
 21
1404.1759390000484
  0
LINE
  8
_0-0_
  6
CONTINUOUS
 62
    5
 10
1771.6907455472564
 20
2354.1759390000479
 11
1771.6907455472564
 21
1404.1759390000484
  0
LINE
  8
_0-0_
  6
CONTINUOUS
 62
    5
 10
1926.690745547256
 20
2354.1759390000479
 11
1926.690745547256
 21
1404.1759390000484
  0
LINE
  8
_0-0_
  6
CONTINUOUS
 62
    5
 10
2081.690745547256
 20
2354.1759390000479
 11
2081.690745547256
 21
1404.1759390000484
  0
LINE
  8
_0-0_
  6
CONTINUOUS
 62
    5
 10
2076.690745547256
 20
5299.1432414504715
 11
1451.6907455472564
 21
5299.1432414504715
  0
TEXT
  8
_0-0_
 62
    7
 10
1452.9980282307164
 20
5297.415805491847
 40
17.5
 41
1
 50
0
  1
●
  0
TEXT
  8
_0-0_
 62
    7
 10
1607.8879427561253
 20
5297.7165368646346
 40
17.5
 41
1
 50
0
  1
●
  0
TEXT
  8
_0-0_
 62
    7
 10
1918.1028929096216
 20
5297.6511856333572
 40
17.5
 41
1
 50
0
  1
●
  0
LINE
  8
_0-0_
  6
CONTINUOUS
 62
    4
 10
1623.5696332087159
 20
5307.4692482471482
 11
1651.1749492924122
 21
5262.8128206703786
  0
LINE
  8
_0-0_
  6
CONTINUOUS
 62
    4
 10
1623.5696332087159
 20
5307.4692482471482
 11
1625.1483244283115
 21
5254.9929894815577
  0
LINE
  8
_0-0_
  6
CONTINUOUS
 62
    4
 10
1538.8743863340907
 20
5299.1432414504715
 11
1552.4623837706144
 21
5248.4321208450028
  0
LINE
  8
_0-0_
  6
CONTINUOUS
 62
    4
 10
1538.8743863340907
 20
5299.1432414504715
 11
1525.2863812681728
 21
5248.4321208450028
  0
LINE
  8
_0-0_
  6
CONTINUOUS
 62
    4
 10
1538.8743863340907
 20
5299.1432414504715
 11
1538.8743863340907
 21
4870.555228755159
  0
LINE
  8
_0-0_
  6
CONTINUOUS
 62
    4
 10
2003.0979110745995
 20
4870.555228755159
 11
1724.842662051162
 21
4870.555228755159
  0
LINE
  8
_0-0_
  6
CONTINUOUS
 62
    4
 10
1623.5696332087159
 20
5307.4692482471482
 11
1724.842662051162
 21
4870.555228755159
  0
LINE
  8
_0-0_
  6
CONTINUOUS
 62
    4
 10
1724.842662051162
 20
4870.555228755159
 11
1764.5485791527073
 21
5308.2193671005661
  0
LINE
  8
_0-0_
  6
CONTINUOUS
 62
    4
 10
1764.5485791527073
 20
5308.2193671005661
 11
1773.4991898441496
 21
5256.4879784834965
  0
LINE
  8
_0-0_
  6
CONTINUOUS
 62
    4
 10
1764.5485791527073
 20
5308.2193671005661
 11
1746.4343410823466
 21
5258.9433650394184
  0
LINE
  8
_0-0_
  6
CONTINUOUS
 62
    4
 10
1538.8743863340907
 20
3544.228677841791
 11
1538.8743863340907
 21
3225.6406779739099
  0
LINE
  8
_0-0_
  6
CONTINUOUS
 62
    4
 10
1724.842662051162
 20
3225.6406779739099
 11
1623.7777750619725
 21
3553.3152461148015
  0
LINE
  8
_0-0_
  6
CONTINUOUS
 62
    4
 10
1724.842662051162
 20
3225.6406779739099
 11
1764.1815630095507
 21
3552.8647361984626
  0
LINE
  8
_0-0_
  6
CONTINUOUS
 62
    2
 10
9081.4219736543091
 20
4684.2425911949685
 11
9093.0879892793091
 21
4509.2425911949685
  0
LINE
  8
_0-0_
  6
CONTINUOUS
 62
    2
 10
8520.4714731660278
 20
4650.5856087730935
 11
9081.4219736543091
 21
4684.2425911949685
  0
ARC
  8
_0-0_
  6
CONTINUOUS
 62
    2
 10
8519.0740122285278
 20
4673.876746468406
 40
23.333000183105468
 50
185.71058654785156
 51
273.43362426757812
  0
LINE
  8
_0-0_
  6
CONTINUOUS
 62
    4
 10
8978.5850214448382
 20
4678.0726182983926
 11
8966.8782953706177
 21
4712.4329693840554
  0
LINE
  8
_0-0_
  6
CONTINUOUS
 62
    4
 10
8978.5850214448382
 20
4678.0726182983926
 11
8985.6019281831177
 21
4713.5565045403054
  0
LINE
  8
_0-0_
  6
CONTINUOUS
 62
    4
 10
8982.4651407685669
 20
4619.8674996422341
 11
8975.4481729951294
 21
4584.3833687828582
  0
LINE
  8
_0-0_
  6
CONTINUOUS
 62
    4
 10
8982.4651407685669
 20
4619.8674996422341
 11
8994.1718668427856
 21
4585.5069039391091
  0
LINE
  8
_0-0_
  6
CONTINUOUS
 62
    4
 10
8982.4651407685669
 20
4619.8674996422341
 11
8986.1237711396606
 21
4564.9881051109841
  0
LINE
  8
_0-0_
  6
CONTINUOUS
 62
    4
 10
8717.0205149140747
 20
4866.6277688072732
 11
8626.6674265351684
 21
4632.2813370750955
  0
LINE
  8
_0-0_
  6
CONTINUOUS
 62
    4
 10
8626.6674265351684
 20
4632.2813370750955
 11
8632.2320017304828
 21
4684.4856833742669
  0
LINE
  8
_0-0_
  6
CONTINUOUS
 62
    4
 10
8626.6674265351684
 20
4632.2813370750955
 11
8657.5886301484497
 21
4674.7093165443948
  0
LINE
  8
_0-0_
  6
CONTINUOUS
 62
    4
 10
8717.0205149140747
 20
4866.6277688072732
 11
9010.9302820649536
 21
4866.6277688072732
  0
TEXT
  8
_0-0_
 62
    7
 10
8746.2973093476684
 20
4872.3948433922341
 40
87.5
 41
0.7199999999999999
 50
0
  1
シール溝
  0
TEXT
  8
_0-0_
 62
    7
 10
8970.489593772032
 20
4710.8971773261664
 40
105
 41
0.8333333333333333
 50
93.999999890000097
  1
50
  0
LINE
  8
_0-0_
  6
CONTINUOUS
 62
    4
 10
8970.5482702936569
 20
4798.6236837083051
 11
8978.5850214448382
 21
4678.0726182983926
  0
LINE
  8
_0-0_
  6
CONTINUOUS
 62
    4
 10
8978.5976803447465
 20
3906.4068776732401
 11
8966.8909542705277
 21
3940.767228758903
  0
LINE
  8
_0-0_
  6
CONTINUOUS
 62
    4
 10
8978.5976803447465
 20
3906.4068776732401
 11
8985.6145870830277
 21
3941.890763915153
  0
LINE
  8
_0-0_
  6
CONTINUOUS
 62
    4
 10
8982.477799668477
 20
3848.2017590170817
 11
8975.4608318950395
 21
3812.7176281577067
  0
LINE
  8
_0-0_
  6
CONTINUOUS
 62
    4
 10
8982.477799668477
 20
3848.2017590170817
 11
8994.1845257426957
 21
3813.8411633139567
  0
LINE
  8
_0-0_
  6
CONTINUOUS
 62
    4
 10
8982.477799668477
 20
3848.2017590170817
 11
8986.1364300395707
 21
3793.3223644858317
  0
LINE
  8
_0-0_
  6
CONTINUOUS
 62
    4
 10
8717.0331738139848
 20
4094.9620281821207
 11
8626.6800854350785
 21
3860.6155964499425
  0
LINE
  8
_0-0_
  6
CONTINUOUS
 62
    4
 10
8626.6800854350785
 20
3860.6155964499425
 11
8632.244660630391
 21
3912.8199427491144
  0
LINE
  8
_0-0_
  6
CONTINUOUS
 62
    4
 10
8626.6800854350785
 20
3860.6155964499425
 11
8657.6012890483598
 21
3903.0435759192423
  0
LINE
  8
_0-0_
  6
CONTINUOUS
 62
    4
 10
8717.0331738139848
 20
4094.9620281821207
 11
9010.9429409648637
 21
4094.9620281821207
  0
TEXT
  8
_0-0_
 62
    7
 10
8746.3099682475767
 20
4100.7291027670817
 40
87.5
 41
0.7199999999999999
 50
0
  1
シール溝
  0
TEXT
  8
_0-0_
 62
    7
 10
8970.5022526719421
 20
3939.2314367010139
 40
105
 41
0.8333333333333333
 50
93.999999890000097
  1
50
  0
LINE
  8
_0-0_
  6
CONTINUOUS
 62
    4
 10
8970.5609291935652
 20
4026.9579430831527
 11
8978.5976803447465
 21
3906.4068776732401
  0
LINE
  8
_0-0_
  6
CONTINUOUS
 62
    4
 10
2136.6907455472569
 20
1384.1759390000488
 11
2374.6907455472564
 21
1384.1759390000488
  0
LINE
  8
_0-0_
  6
CONTINUOUS
 62
    4
 10
2339.6907455472564
 20
1384.1759390000454
 11
2326.102745679374
 21
1434.8870448802213
  0
LINE
  8
_0-0_
  6
CONTINUOUS
 62
    4
 10
2339.6907455472564
 20
1384.1759390000454
 11
2353.2787454151389
 21
1434.8870448802213
  0
TEXT
  8
_0-0_
 62
    7
 10
2337.1963374102815
 20
1446.756297440374
 40
105
 41
0.8333333333333333
 50
90
  1
5
  0
LINE
  8
_0-0_
  6
CONTINUOUS
 62
    4
 10
2339.6907455472573
 20
1514.1759390000454
 11
2339.6907455472573
 21
1384.1759390000459
  0
TEXT
  8
_0-0_
 62
    7
 10
3508.2218082409058
 20
5289.7240055585052
 40
17.5
 41
1
 50
0
  1
●
  0
TEXT
  8
_0-0_
 62
    7
 10
4438.2218082409053
 20
5289.7240055585052
 40
17.5
 41
1
 50
0
  1
●
  0
TEXT
  8
_0-0_
 62
    7
 10
5992.2397642787336
 20
5289.6227945845303
 40
17.5
 41
1
 50
0
  1
●
  0
TEXT
  8
_0-0_
 62
    7
 10
6922.2397642787336
 20
5289.6227945845303
 40
17.5
 41
1
 50
0
  1
●
  0
LINE
  8
_0-0_
  6
CONTINUOUS
 62
    4
 10
1391.6907455472562
 20
3514.2286778417915
 11
956.69074554725568
 21
3514.2286778417915
  0
LINE
  8
_0-0_
  6
CONTINUOUS
 62
    4
 10
1391.6907455472562
 20
3684.2285557714785
 11
956.69074554725568
 21
3684.2285557714785
  0
LINE
  8
_0-0_
  6
CONTINUOUS
 62
    4
 10
1391.6907455472562
 20
3654.2285557714785
 11
1156.690745547256
 21
3654.2285557714785
  0
LINE
  8
_0-0_
  6
CONTINUOUS
 62
    2
 10
1426.6907455472562
 20
3684.2285557714785
 11
1456.6907455472564
 21
3684.2285557714785
  0
LINE
  8
_0-0_
  6
CONTINUOUS
 62
    2
 10
1426.6907455472562
 20
3514.2286778417915
 11
1426.6907455472562
 21
3684.2285557714785
  0
LINE
  8
_0-0_
  6
CONTINUOUS
 62
    2
 10
1456.6907455472564
 20
3684.2285557714785
 11
1606.690745547256
 21
3654.2285557714785
  0
LINE
  8
_0-0_
  6
CONTINUOUS
 62
    2
 10
2116.6906234769435
 20
3514.2286778417915
 11
1426.6907455472562
 21
3514.2286778417915
  0
LINE
  8
_0-0_
  6
CONTINUOUS
 62
    4
 10
1426.6907455472562
 20
4054.228555771479
 11
1426.6907455472562
 21
3719.2285557714785
  0
LINE
  8
_0-0_
  6
CONTINUOUS
 62
    4
 10
1456.6907455472564
 20
4054.228555771479
 11
1456.6907455472564
 21
3719.2285557714785
  0
LINE
  8
_0-0_
  6
CONTINUOUS
 62
    4
 10
1606.690745547256
 20
4054.228555771479
 11
1606.690745547256
 21
3689.2392979589785
  0
LINE
  8
_0-0_
  6
CONTINUOUS
 62
    4
 10
2106.6906234769435
 20
4054.228555771479
 11
2106.6906234769435
 21
3701.5674229589785
  0
LINE
  8
_0-0_
  6
CONTINUOUS
 62
    4
 10
2116.6906234769435
 20
4054.228555771479
 11
2116.6906234769435
 21
3701.8140049902285
  0
LINE
  8
_0-0_
  6
CONTINUOUS
 62
    5
 10
2091.690623476943
 20
3544.2286778417915
 11
1451.6907455472564
 21
3544.2286778417915
  0
LINE
  8
_0-0_
  6
CONTINUOUS
 62
    4
 10
1814.3959457425689
 20
3694.3605137792915
 11
1864.7566635160062
 21
3709.1943760839785
  0
LINE
  8
_0-0_
  6
CONTINUOUS
 62
    4
 10
1814.3959457425689
 20
3694.3605137792915
 11
1865.4265853910064
 21
3682.0266514746035
  0
LINE
  8
_0-0_
  6
CONTINUOUS
 62
    4
 10
1990.355662539443
 20
3698.699014755854
 11
1814.3959457425689
 21
3694.3605137792915
  0
LINE
  8
_0-0_
  6
CONTINUOUS
 62
    2
 10
1451.6907455472564
 20
3590.334024521479
 11
1426.6907455472562
 21
3590.334024521479
  0
LINE
  8
_0-0_
  6
CONTINUOUS
 62
    2
 10
1451.6907455472564
 20
3578.3339024511665
 11
1426.6907455472562
 21
3578.3339024511665
  0
LINE
  8
_0-0_
  6
CONTINUOUS
 62
    2
 10
1451.6907455472564
 20
3578.3339024511665
 11
1451.6907455472564
 21
3590.334024521479
  0
TEXT
  8
_0-0_
 62
    7
 10
2072.8874008206935
 20
3543.0204258886665
 40
17.5
 41
1
 50
0
  1
●
  0
TEXT
  8
_0-0_
 62
    7
 10
1917.9693100003814
 20
3543.0204258886665
 40
17.5
 41
1
 50
0
  1
●
  0
TEXT
  8
_0-0_
 62
    7
 10
1762.7333480863189
 20
3543.338296982416
 40
17.5
 41
1
 50
0
  1
●
  0
TEXT
  8
_0-0_
 62
    7
 10
1607.9210922269439
 20
3543.1263829199165
 40
17.5
 41
1
 50
0
  1
●
  0
TEXT
  8
_0-0_
 62
    7
 10
1453.0091049222562
 20
3542.976236435541
 40
17.5
 41
1
 50
0
  1
●
  0
LINE
  8
_0-0_
  6
CONTINUOUS
 62
    4
 10
1606.690745547256
 20
4019.228555771479
 11
1555.9795639066305
 21
4005.6405430761665
  0
LINE
  8
_0-0_
  6
CONTINUOUS
 62
    4
 10
1606.690745547256
 20
4019.228555771479
 11
1555.9795639066305
 21
4032.816568466791
  0
LINE
  8
_0-0_
  6
CONTINUOUS
 62
    4
 10
1456.6907455472564
 20
4019.228555771479
 11
1507.4018051175687
 21
4032.816568466791
  0
LINE
  8
_0-0_
  6
CONTINUOUS
 62
    4
 10
1456.6907455472564
 20
4019.228555771479
 11
1507.4018051175687
 21
4005.6405430761665
  0
LINE
  8
_0-0_
  6
CONTINUOUS
 62
    4
 10
1456.6907455472564
 20
4019.228555771479
 11
1606.690745547256
 21
4019.228555771479
  0
LINE
  8
_0-0_
  6
CONTINUOUS
 62
    4
 10
1426.6907455472562
 20
4019.228555771479
 11
1256.690745547256
 21
4019.228555771479
  0
LINE
  8
_0-0_
  6
CONTINUOUS
 62
    4
 10
1426.6907455472562
 20
4019.228555771479
 11
1375.9795639066317
 21
4005.6405430761665
  0
LINE
  8
_0-0_
  6
CONTINUOUS
 62
    4
 10
1426.6907455472562
 20
4019.228555771479
 11
1375.9795639066317
 21
4032.816568466791
  0
LINE
  8
_0-0_
  6
CONTINUOUS
 62
    4
 10
2106.6906234769435
 20
4019.228555771479
 11
2055.9796859769435
 21
4005.6405430761665
  0
LINE
  8
_0-0_
  6
CONTINUOUS
 62
    4
 10
2106.6906234769435
 20
4019.228555771479
 11
2055.9796859769435
 21
4032.816568466791
  0
LINE
  8
_0-0_
  6
CONTINUOUS
 62
    4
 10
2116.6906234769435
 20
4019.228555771479
 11
2167.4018051175689
 21
4032.816568466791
  0
LINE
  8
_0-0_
  6
CONTINUOUS
 62
    4
 10
2116.6906234769435
 20
4019.228555771479
 11
2167.4018051175689
 21
4005.6405430761665
  0
LINE
  8
_0-0_
  6
CONTINUOUS
 62
    4
 10
1606.690745547256
 20
4019.228555771479
 11
2106.6906234769435
 21
4019.228555771479
  0
LINE
  8
_0-0_
  6
CONTINUOUS
 62
    4
 10
1606.690745547256
 20
4019.228555771479
 11
1657.4018051175685
 21
4032.816568466791
  0
LINE
  8
_0-0_
  6
CONTINUOUS
 62
    4
 10
1606.690745547256
 20
4019.228555771479
 11
1657.4018051175685
 21
4005.6405430761665
  0
TEXT
  8
_0-0_
 62
    7
 10
1466.5659896878812
 20
4027.097452255854
 40
105
 41
0.8333333333333333
 50
0
  1
150
  0
TEXT
  8
_0-0_
 62
    7
 10
1275.6907455472562
 20
4026.728555771479
 40
105
 41
0.8333333333333333
 50
0
  1
30
  0
TEXT
  8
_0-0_
 62
    7
 10
1785.8157455472558
 20
4026.728555771479
 40
105
 41
0.8333333333333333
 50
0
  1
500
  0
LINE
  8
_0-0_
  6
CONTINUOUS
 62
    4
 10
1191.690745547256
 20
3514.2286778417915
 11
1178.1027328519435
 21
3564.9396153417915
  0
LINE
  8
_0-0_
  6
CONTINUOUS
 62
    4
 10
1191.690745547256
 20
3514.2286778417915
 11
1205.2786361722562
 21
3564.9396153417915
  0
LINE
  8
_0-0_
  6
CONTINUOUS
 62
    4
 10
1191.690745547256
 20
3654.2285557714785
 11
1205.2786361722562
 21
3603.517496201166
  0
LINE
  8
_0-0_
  6
CONTINUOUS
 62
    4
 10
1191.690745547256
 20
3654.2285557714785
 11
1178.1027328519435
 21
3603.517496201166
  0
LINE
  8
_0-0_
  6
CONTINUOUS
 62
    4
 10
1191.690745547256
 20
3654.2285557714785
 11
1191.690745547256
 21
3514.2286778417915
  0
LINE
  8
_0-0_
  6
CONTINUOUS
 62
    4
 10
1191.690745547256
 20
3844.228555771479
 11
1191.690745547256
 21
3684.2285557714785
  0
LINE
  8
_0-0_
  6
CONTINUOUS
 62
    4
 10
1191.690745547256
 20
3684.2285557714785
 11
1178.1027328519435
 21
3734.939737412104
  0
LINE
  8
_0-0_
  6
CONTINUOUS
 62
    4
 10
1191.690745547256
 20
3684.2285557714785
 11
1205.2786361722562
 21
3734.939737412104
  0
LINE
  8
_0-0_
  6
CONTINUOUS
 62
    4
 10
991.69074554725568
 20
3514.2286778417915
 11
978.1027328519433
 21
3564.9396153417915
  0
LINE
  8
_0-0_
  6
CONTINUOUS
 62
    4
 10
991.69074554725568
 20
3514.2286778417915
 11
1005.278758242569
 21
3564.9396153417915
  0
LINE
  8
_0-0_
  6
CONTINUOUS
 62
    4
 10
991.69074554725568
 20
3684.2285557714785
 11
991.69074554725568
 21
3514.2286778417915
  0
LINE
  8
_0-0_
  6
CONTINUOUS
 62
    4
 10
991.69074554725568
 20
3684.2285557714785
 11
1005.278758242569
 21
3633.517496201166
  0
LINE
  8
_0-0_
  6
CONTINUOUS
 62
    4
 10
991.69074554725568
 20
3684.2285557714785
 11
978.1027328519433
 21
3633.517496201166
  0
TEXT
  8
_0-0_
 62
    7
 10
983.91205902381841
 20
3533.435464951166
 40
87.5
 41
1
 50
90
  1
170
  0
TEXT
  8
_0-0_
 62
    7
 10
1180.1905014066308
 20
3519.776041123041
 40
87.5
 41
1
 50
90
  1
140
  0
TEXT
  8
_0-0_
 62
    7
 10
1183.5788070706937
 20
3743.775919052729
 40
87.5
 41
1
 50
90
  1
30
  0
TEXT
  8
_0-0_
 62
    7
 10
1888.4724838285058
 20
3702.6594639746035
 40
87.5
 41
1
 50
0
  1
2%
  0
LINE
  8
_0-0_
  6
CONTINUOUS
 62
    4
 10
1538.8743863340907
 20
3544.228677841791
 11
1552.4623862019732
 21
3493.5175719616149
  0
LINE
  8
_0-0_
  6
CONTINUOUS
 62
    4
 10
1538.8743863340907
 20
3544.228677841791
 11
1525.2863864662083
 21
3493.5175719616149
  0
LINE
  8
_0-0_
  6
CONTINUOUS
 62
    4
 10
1623.7777750619725
 20
3553.3152461148015
 11
1651.7083031235963
 21
3508.8614993413425
  0
LINE
  8
_0-0_
  6
CONTINUOUS
 62
    4
 10
1623.7777750619725
 20
3553.3152461148015
 11
1625.7394485177233
 21
3500.8519080847736
  0
LINE
  8
_0-0_
  6
CONTINUOUS
 62
    4
 10
1764.1815630095507
 20
3552.8647361984626
 11
1771.619512874591
 21
3500.8942936199628
  0
LINE
  8
_0-0_
  6
CONTINUOUS
 62
    4
 10
1764.1815630095507
 20
3552.8647361984626
 11
1744.6377952555008
 21
3504.1380377470413
  0
LINE
  8
_0-0_
  6
CONTINUOUS
 62
    4
 10
2136.6132260722374
 20
3664.228677841791
 11
2574.535589353487
 21
3664.228677841791
  0
LINE
  8
_0-0_
  6
CONTINUOUS
 62
    2
 10
2106.8434596652705
 20
3664.228677841791
 11
2116.6906234769435
 21
3514.2286778417915
  0
LINE
  8
_0-0_
  6
CONTINUOUS
 62
    2
 10
2106.8434596652705
 20
3664.228677841791
 11
1606.690745547256
 21
3654.2285557714785
  0
LINE
  8
_0-0_
  6
CONTINUOUS
 62
    5
 10
733.5625
 20
6490
 11
3503.4785711720769
 21
6490
  0
TEXT
  8
_0-0_
 62
    7
 10
1782.2694138379888
 20
4871.3113318238902
 40
105
 41
0.8333333333333333
 50
0
  1
5-D6
  0
LINE
  8
_0-0_
  6
CONTINUOUS
 62
    5
 10
1451.6907455472564
 20
1972.1759390000484
 11
2091.6907455472564
 21
1972.1759390000484
  0
LINE
  8
_0-0_
  6
CONTINUOUS
 62
    5
 10
1451.6907455472564
 20
1786.1759390000481
 11
2091.6907455472564
 21
1786.1759390000481
  0
LINE
  8
_0-0_
  6
CONTINUOUS
 62
    5
 10
1451.6907455472564
 20
1600.1759390000481
 11
2091.6907455472564
 21
1600.1759390000481
  0
LINE
  8
_0-0_
  6
CONTINUOUS
 62
    4
 10
1538.8743863340907
 20
3225.6406779739099
 11
1276.4250455137787
 21
3225.6406779739099
  0
LINE
  8
_0-0_
  6
CONTINUOUS
 62
    4
 10
2003.0979110745995
 20
3225.6406779739099
 11
1724.842662051162
 21
3225.6406779739099
  0
TEXT
  8
_0-0_
 62
    7
 10
1782.2694138379888
 20
3226.3967810426406
 40
105
 41
0.8333333333333333
 50
0
  1
5-D6
  0
LINE
  8
_0-0_
  6
CONTINUOUS
 62
    4
 10
1723.0657455472571
 20
1972.1759390000484
 11
1736.6537454151396
 21
1921.464833119872
  0
LINE
  8
_0-0_
  6
CONTINUOUS
 62
    4
 10
1723.0657455472571
 20
1972.1759390000484
 11
1709.4777456793747
 21
1921.464833119872
  0
ARC
  8
_0-0_
  6
CONTINUOUS
 62
    4
 10
1693.0657455472571
 20
1849.1759390000484
 40
30
 50
0
 51
90.000000000000014
  0
ARC
  8
_0-0_
  6
CONTINUOUS
 62
    4
 10
1693.0657455472571
 20
1909.1759390000481
 40
30
 50
270
 51
0
  0
LINE
  8
_0-0_
  6
CONTINUOUS
 62
    4
 10
1723.0657455472571
 20
1909.1759390000481
 11
1723.0657455472571
 21
1972.1759390000484
  0
LINE
  8
_0-0_
  6
CONTINUOUS
 62
    4
 10
1723.0657455472571
 20
1786.1759390000481
 11
1736.6537454151396
 21
1836.8870448802244
  0
LINE
  8
_0-0_
  6
CONTINUOUS
 62
    4
 10
1723.0657455472571
 20
1786.1759390000481
 11
1709.4777456793747
 21
1836.8870448802244
  0
LINE
  8
_0-0_
  6
CONTINUOUS
 62
    4
 10
1723.0657455472571
 20
1786.1759390000481
 11
1723.0657455472571
 21
1849.1759390000484
  0
LINE
  8
_0-0_
  6
CONTINUOUS
 62
    4
 10
1241.6907455472569
 20
2095.6912654343614
 11
1241.6907455472569
 21
1879.1759390000481
  0
LINE
  8
_0-0_
  6
CONTINUOUS
 62
    4
 10
1693.0657455472571
 20
1879.1759390000481
 11
1241.6907455472569
 21
1879.1759390000481
  0
LINE
  8
_0-0_
  6
CONTINUOUS
 62
    4
 10
1461.6907455472567
 20
2065.1759390000484
 11
1616.6907455472569
 21
2065.1759390000484
  0
LINE
  8
_0-0_
  6
CONTINUOUS
 62
    4
 10
1616.6907455472569
 20
2065.1759390000484
 11
1667.4018514274328
 21
2078.7639388679308
  0
LINE
  8
_0-0_
  6
CONTINUOUS
 62
    4
 10
1461.6907455472567
 20
2065.1759390000484
 11
1512.4018514274328
 21
2078.7639388679308
  0
LINE
  8
_0-0_
  6
CONTINUOUS
 62
    4
 10
1616.6907455472569
 20
2065.1759390000484
 11
1771.6907455472564
 21
2065.1759390000484
  0
LINE
  8
_0-0_
  6
CONTINUOUS
 62
    4
 10
1771.6907455472564
 20
2065.1759390000484
 11
1822.4018514274323
 21
2078.7639388679308
  0
LINE
  8
_0-0_
  6
CONTINUOUS
 62
    4
 10
1771.6907455472564
 20
2065.1759390000484
 11
1926.690745547256
 21
2065.1759390000484
  0
LINE
  8
_0-0_
  6
CONTINUOUS
 62
    4
 10
1930.4407455472567
 20
2065.1759390000484
 11
1981.1518514274325
 21
2078.7639388679308
  0
LINE
  8
_0-0_
  6
CONTINUOUS
 62
    4
 10
1926.690745547256
 20
2065.1759390000484
 11
2081.690745547256
 21
2065.1759390000484
  0
LINE
  8
_0-0_
  6
CONTINUOUS
 62
    4
 10
2081.690745547256
 20
2065.1759390000484
 11
2132.4018514274321
 21
2078.7639388679308
  0
LINE
  8
_0-0_
  6
CONTINUOUS
 62
    4
 10
2081.690745547256
 20
2065.1759390000484
 11
2374.6907455472569
 21
2065.1759390000484
  0
LINE
  8
_0-0_
  6
CONTINUOUS
 62
    4
 10
2081.690745547256
 20
2065.1759390000484
 11
2132.4018514274321
 21
2051.5879391321659
  0
LINE
  8
_0-0_
  6
CONTINUOUS
 62
    4
 10
1930.4407455472567
 20
2065.1759390000484
 11
1981.1518514274325
 21
2051.5879391321659
  0
LINE
  8
_0-0_
  6
CONTINUOUS
 62
    4
 10
1771.6907455472564
 20
2065.1759390000484
 11
1822.4018514274323
 21
2051.5879391321659
  0
LINE
  8
_0-0_
  6
CONTINUOUS
 62
    4
 10
1616.6907455472569
 20
2065.1759390000484
 11
1667.4018514274328
 21
2051.5879391321659
  0
LINE
  8
_0-0_
  6
CONTINUOUS
 62
    4
 10
1461.6907455472567
 20
2065.1759390000484
 11
1512.4018514274328
 21
2051.5879391321659
  0
TEXT
  8
_0-0_
 62
    7
 10
2366.8976916790397
 20
2099.2197199926258
 40
105
 41
0.8333333333333333
 50
90
  1
5-D6
  0
LINE
  8
_0-0_
  6
CONTINUOUS
 62
    4
 10
2374.6907455472569
 20
2295.8536322886393
 11
2374.6907455472569
 21
2065.1759390000484
  0
LINE
  8
_0-0_
  6
CONTINUOUS
 62
    4
 10
1723.0657455472571
 20
2344.1759390000484
 11
1723.0657455472571
 21
2161.6908446847128
  0
LINE
  8
_0-0_
  6
CONTINUOUS
 62
    5
 10
1451.6907455472564
 20
2158.1759390000484
 11
1719.3782604660334
 21
2158.1759390000484
  0
LINE
  8
_0-0_
  6
CONTINUOUS
 62
    5
 10
1719.3782604660334
 20
2158.1759390000484
 11
2091.6907455472564
 21
2158.1759390000484
  0
LINE
  8
_0-0_
  6
CONTINUOUS
 62
    4
 10
1723.0657455472571
 20
2161.6908446847128
 11
1723.0657455472571
 21
2158.1759390000484
  0
LINE
  8
_0-0_
  6
CONTINUOUS
 62
    4
 10
1723.0657455472571
 20
2158.1759390000484
 11
1709.4777456793747
 21
2107.4648331198723
  0
LINE
  8
_0-0_
  6
CONTINUOUS
 62
    4
 10
1723.0657455472571
 20
2158.1759390000484
 11
1736.6537454151396
 21
2107.4648331198723
  0
LINE
  8
_0-0_
  6
CONTINUOUS
 62
    4
 10
1723.0657455472571
 20
2158.1759390000484
 11
1723.0657455472571
 21
1972.1759390000484
  0
LINE
  8
_0-0_
  6
CONTINUOUS
 62
    4
 10
1723.0657455472571
 20
1600.1759390000481
 11
1723.0657455472571
 21
1414.1759390000486
  0
LINE
  8
_0-0_
  6
CONTINUOUS
 62
    4
 10
1723.0657455472571
 20
1786.1759390000481
 11
1723.0657455472571
 21
1600.1759390000481
  0
LINE
  8
_0-0_
  6
CONTINUOUS
 62
    4
 10
1723.0657455472571
 20
1600.1759390000481
 11
1709.4777456793747
 21
1650.887044880224
  0
LINE
  8
_0-0_
  6
CONTINUOUS
 62
    4
 10
1723.0657455472571
 20
1600.1759390000481
 11
1736.6537454151396
 21
1650.887044880224
  0
TEXT
  8
_0-0_
 62
    7
 10
3694.2218082409058
 20
5289.7240055585052
 40
17.5
 41
1
 50
0
  1
●
  0
TEXT
  8
_0-0_
 62
    7
 10
3880.2218082409062
 20
5289.7240055585052
 40
17.5
 41
1
 50
0
  1
●
  0
TEXT
  8
_0-0_
 62
    7
 10
4066.2218082409058
 20
5289.7240055585052
 40
17.5
 41
1
 50
0
  1
●
  0
TEXT
  8
_0-0_
 62
    7
 10
4252.2218082409053
 20
5289.7240055585052
 40
17.5
 41
1
 50
0
  1
●
  0
TEXT
  8
_0-0_
 62
    7
 10
6178.2397642787336
 20
5289.6227945845303
 40
17.5
 41
1
 50
0
  1
●
  0
TEXT
  8
_0-0_
 62
    7
 10
6364.2397642787345
 20
5289.6227945845303
 40
17.5
 41
1
 50
0
  1
●
  0
TEXT
  8
_0-0_
 62
    7
 10
6550.2397642787327
 20
5289.6227945845303
 40
17.5
 41
1
 50
0
  1
●
  0
TEXT
  8
_0-0_
 62
    7
 10
6736.2397642787336
 20
5289.6227945845303
 40
17.5
 41
1
 50
0
  1
●
  0
TEXT
  8
_0-0_
 62
    7
 10
1300.9940650556848
 20
3225.8612194630095
 40
105
 41
0.8333333333333333
 50
0
  1
6-D6
  0
TEXT
  8
_0-0_
 62
    7
 10
1301.4873873833307
 20
4871.7561726523172
 40
105
 41
0.8333333333333333
 50
0
  1
6-D6
  0
TEXT
  8
_0-0_
 62
    7
 10
1235.7934152079171
 20
1899.7949848798925
 40
105
 41
0.8333333333333333
 50
90
  1
6-D6
  0
TEXT
  8
_0-0_
 62
    7
 10
788.56249999999943
 20
6496.25
 40
157.5
 41
1
 50
0
  1
Ｌ型街渠－Ａ(横断歩道２％切り下げ)
  0
LINE
  8
_0-0_
  6
CONTINUOUS
 62
    2
 10
3481.9802352933543
 20
5539.1432414504715
 11
4481.9802352933538
 21
5418.5402263750947
  0
LINE
  8
_0-0_
  6
CONTINUOUS
 62
    2
 10
4481.9802352933538
 20
5269.1432414504715
 11
4481.9802352933538
 21
5418.5402263750947
  0
LINE
  8
_0-0_
  6
CONTINUOUS
 62
    4
 10
4480.0767786990236
 20
5401.7099757634196
 11
4544.7184399239913
 21
5540.3344668729196
  0
LINE
  8
_0-0_
  6
CONTINUOUS
 62
    4
 10
4480.0767786990236
 20
5401.7099757634196
 11
4489.1933078466381
 21
5453.4123828282827
  0
LINE
  8
_0-0_
  6
CONTINUOUS
 62
    4
 10
4480.0767786990236
 20
5401.7099757634196
 11
4513.82312806763
 21
5441.9273091445884
  0
LINE
  8
_0-0_
  6
CONTINUOUS
 62
    2
 10
6965.9790145902288
 20
5539.6856824349015
 11
5965.9790145902288
 21
5419.1432414504724
  0
LINE
  8
_0-0_
  6
CONTINUOUS
 62
    2
 10
6965.9790145902288
 20
5539.6856824349015
 11
6965.9790145902288
 21
5269.1432414504715
  0
LINE
  8
_0-0_
  6
CONTINUOUS
 62
    4
 10
7081.9968352204996
 20
5634.2712926880103
 11
7374.3749251252847
 21
5634.2712926880094
  0
TEXT
  8
_0-0_
 62
    7
 10
7109.741929519816
 20
5640.0383825317594
 40
87.5
 41
0.7199999999999999
 50
-0.0000000000000542
  1
シール溝
  0
LINE
  8
_0-0_
  6
CONTINUOUS
 62
    4
 10
6963.7180743104654
 20
5515.9925451294157
 11
7009.1844076997476
 21
5542.2425451294157
  0
LINE
  8
_0-0_
  6
CONTINUOUS
 62
    4
 10
6963.7180743104654
 20
5515.9925451294157
 11
7081.9968352204996
 21
5634.2712926880094
  0
LINE
  8
_0-0_
  6
CONTINUOUS
 62
    4
 10
6963.7180743104654
 20
5515.9925451294157
 11
6989.9680743104654
 21
5561.4588537231657
  0
ENDSEC
  0
EOF
