  0
SECTION
  2
HEADER
  9
$ACADVER
  1
AC1009
  9
$INSBASE
 10
0
 20
0
 30
0
  9
$EXTMIN
 10
0
 20
0
  9
$EXTMAX
 10
10395
 20
7350
  9
$LIMMIN
 10
0
 20
0
  9
$LIMMAX
 10
10395
 20
7350
  9
$LTSCALE
 40
35
  0
ENDSEC
  0
SECTION
  2
TABLES
  0
TABLE
  2
LTYPE
 70
     9
  0
LTYPE
  2
CONTINUOUS
 70
    64
  3
実線
 72
    65
 73
     0
 40
0.0
  0
LTYPE
  2
DASHED1
 70
    64
  3
--  --  --  --  --  --  --  --  
 72
    65
 73
     2
 40
2.5
 49
1.25
 49
-1.25
  0
LTYPE
  2
DASHED2
 70
    64
  3
----    ----    ----    ----    
 72
    65
 73
     2
 40
5.0
 49
2.5
 49
-2.5
  0
LTYPE
  2
DASHED3
 70
    64
  3
------  ------  ------  ------  
 72
    65
 73
     2
 40
5.0
 49
3.75
 49
-1.25
  0
LTYPE
  2
CENTER1
 70
    64
  3
----- - ----- - ----- - ----- - 
 72
    65
 73
     4
 40
10.0
 49
6.25
 49
-1.25
 49
1.25
 49
-1.25
  0
LTYPE
  2
CENTER2
 70
    64
  3
----------  --  ----------  --  
 72
    65
 73
     4
 40
20.0
 49
12.5
 49
-2.5
 49
2.5
 49
-2.5
  0
LTYPE
  2
PHANTOM1
 70
    64
  3
--- - - --- - - --- - - --- - - 
 72
    65
 73
     6
 40
10.0
 49
3.25
 49
-1.25
 49
1.25
 49
-1.25
 49
1.25
 49
-1.25
  0
LTYPE
  2
PHANTOM2
 70
    64
  3
--------  -  -  --------  -  -  
 72
    65
 73
     6
 40
20.0
 49
10.0
 49
-2.5
 49
1.25
 49
-2.5
 49
1.25
 49
-2.5
  0
LTYPE
  2
DOT
 70
    64
  3
-   -   -   -   -   -   -   -   
 72
    65
 73
     2
 40
2.5
 49
0.625
 49
-1.875
  0
LTYPE
  2
DUMMY
 70
    64
  3
ダミー
 72
    65
 73
     0
 40
0.0
  0
LTYPE
  2
RAND1
 70
    64
  3
ランダム線1
 72
    65
 73
     4
 40
10.0
 49
1.0
 49
-2.0
 49
3.0
 49
-4.0
  0
LTYPE
  2
RAND2
 70
    64
  3
ランダム線2
 72
    65
 73
     4
 40
14.0
 49
2.0
 49
-3.0
 49
4.0
 49
-5.0
  0
LTYPE
  2
RAND3
 70
    64
  3
ランダム線3
 72
    65
 73
     4
 40
18.0
 49
3.0
 49
-4.0
 49
5.0
 49
-6.0
  0
LTYPE
  2
RAND4
 70
    64
  3
ランダム線4
 72
    65
 73
     4
 40
22.0
 49
4.0
 49
-5.0
 49
6.0
 49
-7.0
  0
LTYPE
  2
RAND5
 70
    64
  3
ランダム線5
 72
    65
 73
     4
 40
26.0
 49
5.0
 49
-6.0
 49
7.0
 49
-8.0
  0
LTYPE
  2
LONG1
 70
    64
  3
----------  --  ----------  --  
 72
    65
 73
     4
 40
40.0
 49
32.5
 49
-2.5
 49
2.5
 49
-2.5
  0
LTYPE
  2
LONG2
 70
    64
  3
--------  -  -  --------  -  -  
 72
    65
 73
     6
 40
40.0
 49
30.0
 49
-2.5
 49
1.25
 49
-2.5
 49
1.25
 49
-2.5
  0
LTYPE
  2
LONG3
 70
    64
  3
+++++++++++++++..+++++++++++++++
 72
    65
 73
     2
 40
40.0
 49
37.5
 49
-2.5
  0
LTYPE
  2
LONG4
 70
    64
  3
+++++++++++++++..+++++++++++++++
 72
    65
 73
     2
 40
80.0
 49
75.0
 49
-5.0
  0
LTYPE
  2
LONG5
 70
    64
  3
----------  --  ----------  --  
 72
    65
 73
     4
 40
60.0
 49
37.5
 49
-7.5
 49
7.5
 49
-7.5
  0
LTYPE
  2
dashed
 70
   64
  3
-------   -------------   ------
 72
   65
 73
    2
 40
7.5
 49
6
 49
-1.5
  0
LTYPE
  2
dashed_spaced
 70
   64
  3
----        --------        ----
 72
   65
 73
    2
 40
12
 49
6
 49
-6
  0
LTYPE
  2
long_dashed_dotted
 70
   64
  3
------------- --- --------------
 72
   65
 73
    4
 40
15.25
 49
12
 49
-1.5
 49
0.25
 49
-1.5
  0
LTYPE
  2
long_dashed_double-dotted
 70
   64
  3
----------- --- --- ------------
 72
   65
 73
    6
 40
17
 49
12
 49
-1.5
 49
0.25
 49
-1.5
 49
0.25
 49
-1.5
  0
LTYPE
  2
long_dashed_triplicate-dotted
 70
   64
  3
--------- --- --- --- ----------
 72
   65
 73
    8
 40
18.75
 49
12
 49
-1.5
 49
0.25
 49
-1.5
 49
0.25
 49
-1.5
 49
0.25
 49
-1.5
  0
LTYPE
  2
dotted
 70
   64
  3
   -       -       -       -    
 72
   65
 73
    2
 40
1.75
 49
0.25
 49
-1.5
  0
LTYPE
  2
chain
 70
   64
  3
-------------- -- --------------
 72
   65
 73
    4
 40
18.5
 49
12
 49
-1.5
 49
3.5
 49
-1.5
  0
LTYPE
  2
chain_double_dash
 70
   64
  3
------------ -- -- -------------
 72
   65
 73
    6
 40
23.5
 49
12
 49
-1.5
 49
3.5
 49
-1.5
 49
3.5
 49
-1.5
  0
LTYPE
  2
dashed_dotted
 70
   64
  3
-----------     -     ----------
 72
   65
 73
    4
 40
9.25
 49
6
 49
-1.5
 49
0.25
 49
-1.5
  0
LTYPE
  2
double-dashed_dotted
 70
   64
  3
------   -----------   -   -----
 72
   65
 73
    6
 40
16.75
 49
6
 49
-1.5
 49
6
 49
-1.5
 49
0.25
 49
-1.5
  0
LTYPE
  2
dashed_double-dotted
 70
   64
  3
---------    -    -    ---------
 72
   65
 73
    6
 40
11
 49
6
 49
-1.5
 49
0.25
 49
-1.5
 49
0.25
 49
-1.5
  0
LTYPE
  2
double-dashed_double-dotted
 70
   64
  3
-----   ---------   -   -   ----
 72
   65
 73
    8
 40
18.5
 49
6
 49
-1.5
 49
6
 49
-1.5
 49
0.25
 49
-1.5
 49
0.25
 49
-1.5
  0
LTYPE
  2
dashed_triplicate-dotted
 70
   64
  3
-------    -    -    -    ------
 72
   65
 73
    8
 40
12.75
 49
6
 49
-1.5
 49
0.25
 49
-1.5
 49
0.25
 49
-1.5
 49
0.25
 49
-1.5
  0
LTYPE
  2
double-dashed_triplicate-dotted
 70
   64
  3
-----  ---------  -  -  -  -----
 72
   65
 73
   10
 40
20.25
 49
6
 49
-1.5
 49
6
 49
-1.5
 49
0.25
 49
-1.5
 49
0.25
 49
-1.5
 49
0.25
 49
-1.5
  0
LTYPE
  2
undefined
 70
   64
  3
--------------------------------
 72
   65
 73
    0
 40
0
  0
LTYPE
  2
_
 70
   64
  3
                                
 72
   65
 73
    0
 40
0
  0
LTYPE
  2
__18
 70
   64
  3
                                
 72
   65
 73
    0
 40
0
  0
LTYPE
  2
__19
 70
   64
  3
                                
 72
   65
 73
    0
 40
0
  0
LTYPE
  2
__20
 70
   64
  3
                                
 72
   65
 73
    0
 40
0
  0
LTYPE
  2
__21
 70
   64
  3
                                
 72
   65
 73
    0
 40
0
  0
LTYPE
  2
__22
 70
   64
  3
                                
 72
   65
 73
    0
 40
0
  0
LTYPE
  2
__23
 70
   64
  3
                                
 72
   65
 73
    0
 40
0
  0
LTYPE
  2
__24
 70
   64
  3
                                
 72
   65
 73
    0
 40
0
  0
LTYPE
  2
__25
 70
   64
  3
                                
 72
   65
 73
    0
 40
0
  0
LTYPE
  2
__26
 70
   64
  3
                                
 72
   65
 73
    0
 40
0
  0
LTYPE
  2
__27
 70
   64
  3
                                
 72
   65
 73
    0
 40
0
  0
LTYPE
  2
__28
 70
   64
  3
                                
 72
   65
 73
    0
 40
0
  0
LTYPE
  2
__29
 70
   64
  3
                                
 72
   65
 73
    0
 40
0
  0
LTYPE
  2
__30
 70
   64
  3
                                
 72
   65
 73
    0
 40
0
  0
LTYPE
  2
__31
 70
   64
  3
                                
 72
   65
 73
    0
 40
0
  0
LTYPE
  2
__32
 70
   64
  3
                                
 72
   65
 73
    0
 40
0
  0
ENDTAB
  0
TABLE
  2
STYLE
  5
3
100
AcDbSymbolTable
 70
     1
  0
STYLE
  5
10
100
AcDbSymbolTableRecord
100
AcDbTextStyleTableRecord
  2
STANDARD
 70
     0
 40
0.0
 41
1.0
 50
0.0
 71
     0
 42
0.2
  3
txt
  4
bigfont.shx
  0
STYLE
  5
26
100
AcDbSymbolTableRecord
100
AcDbTextStyleTableRecord
  2
TATEGAKI
 70
    68
 40
0.0
 41
1.0
 50
0.0
 71
     0
 42
1.0
  3
txt
  4
bigfont.shx
  0
ENDTAB
  0
TABLE
  2
LAYER
 70
    2
  0
LAYER
  2
_0-0_
 70
   64
 62
    7
  6
CONTINUOUS
  0
LAYER
  2
ADD_LINE
 70
   64
 62
    7
  6
CONTINUOUS
  0
ENDTAB
  0
ENDSEC
  0
SECTION
  2
BLOCKS
  0
ENDSEC
  0
SECTION
  2
ENTITIES
  0
TEXT
  8
_0-0_
 62
    7
 10
8307.141347378114
 20
5887.668212890624
 40
112
 41
1
 50
0
  1
ｼﾞｮｲﾝﾄ部詳細図
  0
TEXT
  8
_0-0_
 62
    7
 10
8142.1360759493672
 20
3646.2943037974687
 40
112
 41
1
 50
0
  1
シール材の品質及び性能
  0
LINE
  8
_0-0_
  6
CONTINUOUS
 62
    4
 10
1461.6907455472567
 20
5372.7311320754715
 11
1226.6907455472564
 21
5372.7311320754715
  0
LINE
  8
_0-0_
  6
CONTINUOUS
 62
  136
 10
10002.5
 20
6925
 11
392.50000000000028
 21
6925
  0
LINE
  8
_0-0_
  6
CONTINUOUS
 62
  136
 10
392.50000000000028
 20
6925
 11
392.50000000000028
 21
255.00000000000022
  0
LINE
  8
_0-0_
  6
CONTINUOUS
 62
  136
 10
392.50000000000028
 20
255.00000000000022
 11
10002.5
 21
255.00000000000022
  0
LINE
  8
_0-0_
  6
CONTINUOUS
 62
  136
 10
10002.5
 20
255.00000000000022
 11
10002.5
 21
6925
  0
LINE
  8
_0-0_
  6
CONTINUOUS
 62
    2
 10
8305.5880503144653
 20
5347.3286163522016
 11
8305.5880503144653
 21
5507.3286163522016
  0
LINE
  8
_0-0_
  6
CONTINUOUS
 62
    4
 10
8812.7877545149895
 20
5347.3286163522016
 11
8799.1997418196751
 21
5296.6175567818881
  0
LINE
  8
_0-0_
  6
CONTINUOUS
 62
    4
 10
8812.7877545149895
 20
5347.3286163522016
 11
8826.3757672103001
 21
5296.6175567818881
  0
LINE
  8
_0-0_
  6
CONTINUOUS
 62
    4
 10
8812.7877545149895
 20
5347.3286163522016
 11
8812.7877545149895
 21
5114.5019561959525
  0
TEXT
  8
_0-0_
 62
    7
 10
7854.6360759493663
 20
2230.4367088607596
 40
98
 41
1
 50
0
  1
試験項目
  0
TEXT
  8
_0-0_
 62
    7
 10
8504.6360759493672
 20
2230.4367088607596
 40
98
 41
1
 50
0
  1
規格値・
  0
TEXT
  8
_0-0_
 62
    7
 10
7854.6360759493663
 20
3149.0443037974687
 40
98
 41
1
 50
0
  1
試験項目
  0
TEXT
  8
_0-0_
 62
    7
 10
9206.8860759493672
 20
2991.7943037974682
 40
87.5
 41
1
 50
0
  1
JIS K 6767
  0
TEXT
  8
_0-0_
 62
    7
 10
9206.8860759493672
 20
2691.7943037974687
 40
87.5
 41
1
 50
0
  1
JIS K 6767
  0
TEXT
  8
_0-0_
 62
    7
 10
9206.8860759493672
 20
2841.7943037974682
 40
87.5
 41
1
 50
0
  1
JIS K 6767
  0
TEXT
  8
_0-0_
 62
    7
 10
7875.6360759493672
 20
2991.7943037974682
 40
87.5
 41
1
 50
0
  1
引張強さ
  0
TEXT
  8
_0-0_
 62
    7
 10
7919.3860759493672
 20
2841.7943037974682
 40
87.5
 41
1
 50
0
  1
伸び率
  0
TEXT
  8
_0-0_
 62
    7
 10
7985.6360759493682
 20
2691.7943037974687
 40
87.5
 41
0.8
 50
0
  1
圧縮硬さ
  0
TEXT
  8
_0-0_
 62
    7
 10
7835.6360759493663
 20
2691.7943037974687
 40
87.5
 41
1
 50
0
  1
50%
  0
TEXT
  8
_0-0_
 62
    7
 10
8344.3860759493672
 20
2991.7943037974682
 40
87.5
 41
1
 50
0
  1
kgf/cm
  0
TEXT
  8
_0-0_
 62
    7
 10
8344.3860759493672
 20
2691.7943037974687
 40
87.5
 41
1
 50
0
  1
kgf/cm
  0
TEXT
  8
_0-0_
 62
    7
 10
8431.8860759493672
 20
2841.7943037974682
 40
87.5
 41
1
 50
0
  1
％
  0
TEXT
  8
_0-0_
 62
    7
 10
8744.3860759493672
 20
2691.7943037974687
 40
87.5
 41
1
 50
0
  1
0.5
  0
TEXT
  8
_0-0_
 62
    7
 10
8744.3860759493672
 20
2841.7943037974682
 40
87.5
 41
1
 50
0
  1
100
  0
TEXT
  8
_0-0_
 62
    7
 10
8744.3860759493672
 20
2991.7943037974682
 40
87.5
 41
1
 50
0
  1
0.5
  0
TEXT
  8
_0-0_
 62
    7
 10
8895.6360759493672
 20
2691.7943037974687
 40
87.5
 41
0.8
 50
0
  1
以下
  0
TEXT
  8
_0-0_
 62
    7
 10
8895.6360759493672
 20
2841.7943037974682
 40
87.5
 41
0.8
 50
0
  1
以上
  0
TEXT
  8
_0-0_
 62
    7
 10
8895.6360759493672
 20
2991.7943037974682
 40
87.5
 41
0.8
 50
0
  1
以上
  0
TEXT
  8
_0-0_
 62
    7
 10
7842.7616033755284
 20
3316.0189873417721
 40
105
 41
1
 50
0
  1
一般物性
  0
LINE
  8
_0-0_
  6
CONTINUOUS
 62
    3
 10
7800.6360759493663
 20
3285.5443037974682
 11
9750.6360759493672
 21
3285.5443037974682
  0
LINE
  8
_0-0_
  6
CONTINUOUS
 62
    3
 10
8300.6360759493672
 20
2660.5443037974687
 11
8300.6360759493672
 21
3285.5443037974682
  0
LINE
  8
_0-0_
  6
CONTINUOUS
 62
    3
 10
7800.6360759493663
 20
3110.5443037974682
 11
9750.6360759493672
 21
3110.5443037974682
  0
LINE
  8
_0-0_
  6
CONTINUOUS
 62
    3
 10
7800.6360759493663
 20
2960.5443037974682
 11
9750.6360759493672
 21
2960.5443037974682
  0
LINE
  8
_0-0_
  6
CONTINUOUS
 62
    3
 10
7800.6360759493663
 20
2810.5443037974682
 11
9750.6360759493672
 21
2810.5443037974682
  0
LINE
  8
_0-0_
  6
CONTINUOUS
 62
    3
 10
7800.6360759493663
 20
2660.5443037974687
 11
9750.6360759493672
 21
2660.5443037974687
  0
LINE
  8
_0-0_
  6
CONTINUOUS
 62
    3
 10
7800.6360759493663
 20
2660.5443037974687
 11
7800.6360759493663
 21
3285.5443037974682
  0
LINE
  8
_0-0_
  6
CONTINUOUS
 62
    3
 10
8660.6360759493672
 20
2660.5443037974687
 11
8660.6360759493672
 21
3285.5443037974682
  0
LINE
  8
_0-0_
  6
CONTINUOUS
 62
    3
 10
9100.6360759493672
 20
2660.5443037974687
 11
9100.6360759493672
 21
3285.5443037974682
  0
LINE
  8
_0-0_
  6
CONTINUOUS
 62
    3
 10
9750.6360759493672
 20
2660.5443037974687
 11
9750.6360759493672
 21
3285.5443037974682
  0
LINE
  8
_0-0_
  6
CONTINUOUS
 62
    3
 10
7800.6360759493663
 20
2191.9367088607591
 11
9750.6360759493672
 21
2191.9367088607591
  0
LINE
  8
_0-0_
  6
CONTINUOUS
 62
    3
 10
7800.6360759493663
 20
2366.9367088607596
 11
9750.6360759493672
 21
2366.9367088607596
  0
TEXT
  8
_0-0_
 62
    7
 10
9131.6360759493672
 20
1953.1867088607591
 40
87.5
 41
1.1199999999999998
 50
0
  1
ｻﾝｼｬｲﾝｶｰﾎﾞﾝ･
  0
TEXT
  8
_0-0_
 62
    7
 10
9543.6360759493527
 20
2069.8533755274261
 40
87.5
 41
0.7199999999999999
 50
0
  1
による
  0
TEXT
  8
_0-0_
 62
    7
 10
9130.8860759493582
 20
2069.8533755274261
 40
87.5
 41
0.9199999999999999
 50
0
  1
JIS K 6266
  0
TEXT
  8
_0-0_
 62
    7
 10
7919.3860759493672
 20
2069.8533755274261
 40
87.5
 41
1
 50
0
  1
耐候性
  0
TEXT
  8
_0-0_
 62
    7
 10
8338.3860759493672
 20
1953.1867088607591
 40
87.5
 41
0.7199999999999999
 50
0
  1
亀裂､削れ等異常なきこと
  0
TEXT
  8
_0-0_
 62
    7
 10
9316.2610759493672
 20
1831.5200421940926
 40
87.5
 41
1
 50
0
  1
1000H
  0
LINE
  8
_0-0_
  6
CONTINUOUS
 62
    3
 10
7800.6360759493663
 20
1801.9367088607593
 11
9750.6360759493672
 21
1801.9367088607593
  0
TEXT
  8
_0-0_
 62
    7
 10
7831.8860759493672
 20
1679.8533755274256
 40
87.5
 41
1
 50
0
  1
耐ｱｽﾌｧﾙﾄ性
  0
TEXT
  8
_0-0_
 62
    7
 10
8338.3860759493672
 20
1563.1867088607591
 40
87.5
 41
0.7199999999999999
 50
0
  1
亀裂､破れ､溶け等　　　 
  0
TEXT
  8
_0-0_
 62
    7
 10
8354.1360759493672
 20
1441.5200421940928
 40
87.5
 41
0.7199999999999999
 50
0
  1
　　　　　異常なきこと
  0
TEXT
  8
_0-0_
 62
    7
 10
9141.2610759493672
 20
1679.8533755274256
 40
87.5
 41
1
 50
0
  1
185℃熱板で　
  0
TEXT
  8
_0-0_
 62
    7
 10
9163.1360759493672
 20
1563.1867088607591
 40
87.5
 41
1
 50
0
  1
   1分間放置
  0
LINE
  8
_0-0_
  6
CONTINUOUS
 62
    3
 10
7800.6360759493663
 20
2366.9367088607596
 11
7800.6360759493663
 21
1411.9367088607591
  0
LINE
  8
_0-0_
  6
CONTINUOUS
 62
    3
 10
8300.6360759493672
 20
2366.9367088607596
 11
8300.6360759493672
 21
1411.9367088607591
  0
LINE
  8
_0-0_
  6
CONTINUOUS
 62
    3
 10
9100.6360759493672
 20
2366.9367088607596
 11
9100.6360759493672
 21
1411.9367088607591
  0
LINE
  8
_0-0_
  6
CONTINUOUS
 62
    3
 10
9750.6360759493672
 20
2366.9367088607596
 11
9750.6360759493672
 21
1411.9367088607591
  0
LINE
  8
_0-0_
  6
CONTINUOUS
 62
    3
 10
7800.6360759493663
 20
1411.9367088607591
 11
9750.6360759493672
 21
1411.9367088607591
  0
TEXT
  8
_0-0_
 62
    7
 10
7842.7616033755284
 20
2397.4113924050634
 40
105
 41
1
 50
0
  1
製品性能試験
  0
TEXT
  8
_0-0_
 62
    7
 10
9219.1360759493672
 20
3149.0443037974687
 40
98
 41
1
 50
0
  1
試験方法
  0
TEXT
  8
_0-0_
 62
    7
 10
8377.6360759493672
 20
3149.0443037974682
 40
98
 41
1
 50
0
  1
単位
  0
TEXT
  8
_0-0_
 62
    7
 10
8733.6360759493672
 20
3149.0443037974682
 40
98
 41
1
 50
0
  1
規格値
  0
TEXT
  8
_0-0_
 62
    7
 10
9219.1360759493672
 20
2230.4367088607596
 40
98
 41
1
 50
0
  1
試験方法
  0
TEXT
  8
_0-0_
 62
    7
 10
8509.8860759493672
 20
1679.8533755274256
 40
87.5
 41
1
 50
0
  1
外観表面
  0
TEXT
  8
_0-0_
 62
    7
 10
8509.8860759493672
 20
2069.8533755274261
 40
87.5
 41
1
 50
0
  1
外観表面
  0
TEXT
  8
_0-0_
 62
    7
 10
8842.064550310939
 20
5120.2690301707416
 40
87.5
 41
0.7199999999999999
 50
0
  1
シール溝
  0
LINE
  8
_0-0_
  6
CONTINUOUS
 62
    4
 10
8812.7877545149895
 20
5114.5019561959525
 11
9106.6975386528829
 21
5114.5019561959525
  0
LINE
  8
_0-0_
  6
CONTINUOUS
 62
    4
 10
3608.2525377358497
 20
2260.7920597484276
 11
3658.9636436160249
 21
2247.2040598805451
  0
LINE
  8
_0-0_
  6
CONTINUOUS
 62
    4
 10
5669.90644654088
 20
2475.7920597484276
 11
5932.40644654088
 21
2475.7920597484276
  0
LINE
  8
_0-0_
  6
CONTINUOUS
 62
    4
 10
5932.40644654088
 20
2475.7920597484276
 11
6194.90644654088
 21
2475.7920597484276
  0
LINE
  8
_0-0_
  6
CONTINUOUS
 62
    4
 10
5669.90644654088
 20
2475.7920597484276
 11
5720.6175524210566
 21
2489.3800596163096
  0
LINE
  8
_0-0_
  6
CONTINUOUS
 62
    4
 10
5669.90644654088
 20
2475.7920597484276
 11
5720.6175524210566
 21
2462.2040598805451
  0
LINE
  8
_0-0_
  6
CONTINUOUS
 62
    4
 10
5932.40644654088
 20
2475.7920597484276
 11
5881.6953406607053
 21
2462.2040598805451
  0
LINE
  8
_0-0_
  6
CONTINUOUS
 62
    4
 10
5932.40644654088
 20
2475.7920597484276
 11
5881.6953406607053
 21
2489.3800596163096
  0
LINE
  8
_0-0_
  6
CONTINUOUS
 62
    4
 10
5932.40644654088
 20
2475.7920597484276
 11
5983.1175524210566
 21
2489.3800596163096
  0
LINE
  8
_0-0_
  6
CONTINUOUS
 62
    4
 10
5932.40644654088
 20
2475.7920597484276
 11
5983.1175524210566
 21
2462.2040598805451
  0
LINE
  8
_0-0_
  6
CONTINUOUS
 62
    4
 10
6194.90644654088
 20
2475.7920597484276
 11
6144.1953406607053
 21
2462.2040598805451
  0
LINE
  8
_0-0_
  6
CONTINUOUS
 62
    4
 10
6194.90644654088
 20
2475.7920597484276
 11
6144.1953406607053
 21
2489.3800596163096
  0
LINE
  8
_0-0_
  6
CONTINUOUS
 62
    4
 10
5059.906446540881
 20
2775.7920597484271
 11
5059.906446540881
 21
3020.7920597484271
  0
LINE
  8
_0-0_
  6
CONTINUOUS
 62
    4
 10
5259.906446540881
 20
2775.7920597484271
 11
5024.906446540881
 21
2775.7920597484271
  0
LINE
  8
_0-0_
  6
CONTINUOUS
 62
    4
 10
5059.906446540881
 20
3020.7920597484271
 11
5073.4944464087629
 21
2970.0809538682515
  0
LINE
  8
_0-0_
  6
CONTINUOUS
 62
    4
 10
5059.906446540881
 20
3020.7920597484271
 11
5046.3184466729981
 21
2970.0809538682515
  0
LINE
  8
_0-0_
  6
CONTINUOUS
 62
    4
 10
5059.906446540881
 20
2775.7920597484271
 11
5046.3184466729981
 21
2826.5031656286032
  0
LINE
  8
_0-0_
  6
CONTINUOUS
 62
    4
 10
5059.906446540881
 20
2775.7920597484271
 11
5073.4944464087629
 21
2826.5031656286032
  0
LINE
  8
_0-0_
  6
CONTINUOUS
 62
    4
 10
5459.90644654088
 20
3020.7920597484271
 11
5024.906446540881
 21
3020.7920597484271
  0
LINE
  8
_0-0_
  6
CONTINUOUS
 62
    4
 10
7204.906446540881
 20
2950.7920597484271
 11
7204.906446540881
 21
3090.7920597484271
  0
LINE
  8
_0-0_
  6
CONTINUOUS
 62
    4
 10
6404.90644654088
 20
3090.7920597484271
 11
7239.906446540881
 21
3090.7920597484271
  0
LINE
  8
_0-0_
  6
CONTINUOUS
 62
    4
 10
6404.90644654088
 20
2950.7920597484271
 11
7239.906446540881
 21
2950.7920597484271
  0
LINE
  8
_0-0_
  6
CONTINUOUS
 62
    4
 10
7204.906446540881
 20
3090.7920597484271
 11
7218.4944464087629
 21
3040.0809538682515
  0
LINE
  8
_0-0_
  6
CONTINUOUS
 62
    4
 10
7204.906446540881
 20
3090.7920597484271
 11
7191.3184466729981
 21
3040.0809538682515
  0
LINE
  8
_0-0_
  6
CONTINUOUS
 62
    4
 10
7204.906446540881
 20
2950.7920597484271
 11
7191.3184466729981
 21
3001.5031656286032
  0
LINE
  8
_0-0_
  6
CONTINUOUS
 62
    4
 10
7204.906446540881
 20
2950.7920597484271
 11
7218.4944464087629
 21
3001.5031656286032
  0
LINE
  8
_0-0_
  6
CONTINUOUS
 62
    4
 10
6904.906446540881
 20
3047.0420597484271
 11
6891.318446672999
 21
3097.7531656286032
  0
LINE
  8
_0-0_
  6
CONTINUOUS
 62
    4
 10
6904.906446540881
 20
3047.0420597484271
 11
6918.4944464087639
 21
3097.7531656286032
  0
LINE
  8
_0-0_
  6
CONTINUOUS
 62
    4
 10
6904.906446540881
 20
2994.5420597484271
 11
6918.4944464087639
 21
2943.8309538682515
  0
LINE
  8
_0-0_
  6
CONTINUOUS
 62
    4
 10
6904.906446540881
 20
2994.5420597484271
 11
6891.318446672999
 21
2943.8309538682515
  0
LINE
  8
_0-0_
  6
CONTINUOUS
 62
    4
 10
6904.906446540881
 20
2994.5420597484271
 11
6904.906446540881
 21
2834.5420597484271
  0
LINE
  8
_0-0_
  6
CONTINUOUS
 62
    4
 10
6904.906446540881
 20
3047.0420597484271
 11
6904.906446540881
 21
3147.0420597484271
  0
TEXT
  8
_0-0_
 62
    7
 10
6897.5887629577055
 20
2841.1660393156012
 40
105
 41
0.8333333333333333
 50
90
  1
15
  0
ARC
  8
_0-0_
  6
CONTINUOUS
 62
    2
 10
6168.65644654088
 20
3020.7920597484271
 40
26.25
 50
90
 51
270
  0
ARC
  8
_0-0_
  6
CONTINUOUS
 62
    2
 10
6221.15644654088
 20
3020.7920597484271
 40
26.25
 50
270
 51
90
  0
LINE
  8
_0-0_
  6
CONTINUOUS
 62
    2
 10
6168.65644654088
 20
3047.0420597484271
 11
6221.15644654088
 21
3047.0420597484271
  0
LINE
  8
_0-0_
  6
CONTINUOUS
 62
    2
 10
6168.65644654088
 20
2994.5420597484271
 11
6221.15644654088
 21
2994.5420597484271
  0
CIRCLE
  8
_0-0_
  6
CONTINUOUS
 62
    2
 10
5669.90644654088
 20
3020.7920597484271
 40
26.25
  0
LINE
  8
_0-0_
  6
CONTINUOUS
 62
    4
 10
5669.90644654088
 20
2440.7920597484276
 11
5669.90644654088
 21
2915.7920597484271
  0
LINE
  8
_0-0_
  6
CONTINUOUS
 62
    4
 10
6194.90644654088
 20
2440.7920597484276
 11
6194.90644654088
 21
2915.7920597484271
  0
TEXT
  8
_0-0_
 62
    7
 10
5757.4107783544404
 20
2484.0323725856655
 40
105
 41
0.8333333333333333
 50
0
  1
75
  0
TEXT
  8
_0-0_
 62
    7
 10
6019.9107783544404
 20
2484.0323725856655
 40
105
 41
0.8333333333333333
 50
0
  1
75
  0
TEXT
  8
_0-0_
 62
    7
 10
5053.8315505365399
 20
2855.5765341447518
 40
105
 41
0.8333333333333333
 50
90
  1
70
  0
LINE
  8
_0-0_
  6
CONTINUOUS
 62
    4
 10
5656.78144654088
 20
2998.058892899086
 11
5355.2505498325344
 21
2475.7920597484276
  0
LINE
  8
_0-0_
  6
CONTINUOUS
 62
    4
 10
5656.78144654088
 20
2998.058892899086
 11
5643.193446672999
 21
2947.3477870189094
  0
LINE
  8
_0-0_
  6
CONTINUOUS
 62
    4
 10
5656.78144654088
 20
2998.058892899086
 11
5619.6583405285873
 21
2960.9357868867919
  0
LINE
  8
_0-0_
  6
CONTINUOUS
 62
    2
 10
5494.90644654088
 20
3090.7920597484271
 11
6369.90644654088
 21
3090.7920597484271
  0
LINE
  8
_0-0_
  6
CONTINUOUS
 62
    2
 10
5494.90644654088
 20
2950.7920597484271
 11
6369.90644654088
 21
2950.7920597484271
  0
LINE
  8
_0-0_
  6
CONTINUOUS
 62
    2
 10
5494.90644654088
 20
2950.7920597484271
 11
5494.90644654088
 21
3090.7920597484271
  0
LINE
  8
_0-0_
  6
CONTINUOUS
 62
    2
 10
6369.90644654088
 20
2950.7920597484271
 11
6369.90644654088
 21
3090.7920597484271
  0
LINE
  8
_0-0_
  6
CONTINUOUS
 62
    4
 10
6282.40644654088
 20
2994.5420597484271
 11
6939.906446540881
 21
2994.5420597484271
  0
LINE
  8
_0-0_
  6
CONTINUOUS
 62
    4
 10
6282.40644654088
 20
3047.0420597484271
 11
6939.906446540881
 21
3047.0420597484271
  0
LINE
  8
_0-0_
  6
CONTINUOUS
 62
    4
 10
5801.15644654088
 20
3090.7920597484271
 11
5787.5684466729981
 21
3141.5031656286032
  0
LINE
  8
_0-0_
  6
CONTINUOUS
 62
    4
 10
5801.15644654088
 20
3090.7920597484271
 11
5814.7444464087629
 21
3141.5031656286032
  0
LINE
  8
_0-0_
  6
CONTINUOUS
 62
    4
 10
5932.40644654088
 20
2440.7920597484276
 11
5932.40644654088
 21
2740.7920597484271
  0
LINE
  8
_0-0_
  6
CONTINUOUS
 62
    4
 10
6142.40644654088
 20
3555.7920597484271
 11
6247.40644654088
 21
3555.7920597484271
  0
LINE
  8
_0-0_
  6
CONTINUOUS
 62
    4
 10
6142.40644654088
 20
3555.7920597484271
 11
6177.40644654088
 21
3565.1702814835161
  0
LINE
  8
_0-0_
  6
CONTINUOUS
 62
    4
 10
6142.40644654088
 20
3555.7920597484271
 11
6177.40644654088
 21
3546.4138380133381
  0
LINE
  8
_0-0_
  6
CONTINUOUS
 62
    4
 10
6247.40644654088
 20
3555.7920597484271
 11
6212.40644654088
 21
3546.4138380133381
  0
LINE
  8
_0-0_
  6
CONTINUOUS
 62
    4
 10
6247.40644654088
 20
3555.7920597484271
 11
6212.40644654088
 21
3565.1702814835161
  0
TEXT
  8
_0-0_
 62
    7
 10
6151.1607783544404
 20
3564.0323725856655
 40
105
 41
0.8333333333333333
 50
0
  1
30
  0
TEXT
  8
_0-0_
 62
    7
 10
5107.9877712634988
 20
3564.4639722869569
 40
105
 41
0.5999999999999999
 50
0
  1
連結プレート(メッキ)
  0
TEXT
  8
_0-0_
 62
    7
 10
5166.3971932149315
 20
3441.1917337069303
 40
105
 41
0.8333333333333333
 50
0
  1
250×40×4.5
  0
LINE
  8
_0-0_
  6
CONTINUOUS
 62
    4
 10
5075.8799528301897
 20
3555.7920597484271
 11
5801.15644654088
 21
3555.7920597484271
  0
LINE
  8
_0-0_
  6
CONTINUOUS
 62
    4
 10
5801.15644654088
 20
3090.7920597484271
 11
5801.15644654088
 21
3555.7920597484271
  0
LINE
  8
_0-0_
  6
CONTINUOUS
 62
    4
 10
6142.40644654088
 20
3125.7920597484271
 11
6142.40644654088
 21
3590.7920597484271
  0
LINE
  8
_0-0_
  6
CONTINUOUS
 62
    4
 10
6247.40644654088
 20
3125.7920597484271
 11
6247.40644654088
 21
3590.7920597484271
  0
LINE
  8
_0-0_
  6
CONTINUOUS
 62
    2
 10
3558.253537735849
 20
3270.7920597484271
 11
3558.253537735849
 21
2770.8920597484275
  0
LINE
  8
_0-0_
  6
CONTINUOUS
 62
    4
 10
4330.753537735849
 20
3270.7920597484271
 11
4317.165537867967
 21
3220.0809538682506
  0
LINE
  8
_0-0_
  6
CONTINUOUS
 62
    4
 10
4330.753537735849
 20
3270.7920597484271
 11
4344.341537603731
 21
3220.0809538682506
  0
LINE
  8
_0-0_
  6
CONTINUOUS
 62
    4
 10
4080.753537735849
 20
3270.7920597484271
 11
4365.753537735849
 21
3270.7920597484271
  0
LINE
  8
_0-0_
  6
CONTINUOUS
 62
    4
 10
3602.003537735849
 20
3270.7920597484271
 11
3588.4155378679665
 21
3321.5031656286032
  0
LINE
  8
_0-0_
  6
CONTINUOUS
 62
    4
 10
3602.003537735849
 20
3270.7920597484271
 11
3615.5915376037314
 21
3321.5031656286032
  0
LINE
  8
_0-0_
  6
CONTINUOUS
 62
    4
 10
4330.753537735849
 20
3270.7920597484271
 11
4330.753537735849
 21
2770.8920597484275
  0
LINE
  8
_0-0_
  6
CONTINUOUS
 62
    2
 10
3608.2525377358497
 20
2770.8920597484275
 11
3558.253537735849
 21
2770.8920597484275
  0
LINE
  8
_0-0_
  6
CONTINUOUS
 62
    2
 10
3608.2525377358497
 20
3270.7920597484271
 11
3608.2525377358497
 21
2770.8920597484275
  0
LINE
  8
_0-0_
  6
CONTINUOUS
 62
    4
 10
4330.753537735849
 20
2770.8920597484275
 11
4317.165537867967
 21
2821.6031656286031
  0
LINE
  8
_0-0_
  6
CONTINUOUS
 62
    4
 10
4330.753537735849
 20
2770.8920597484275
 11
4344.341537603731
 21
2821.6031656286031
  0
LINE
  8
_0-0_
  6
CONTINUOUS
 62
    2
 10
3558.253537735849
 20
3270.7920597484271
 11
3602.003537735849
 21
3270.7920597484271
  0
LINE
  8
_0-0_
  6
CONTINUOUS
 62
    2
 10
3558.253537735849
 20
3249.9628930817607
 11
3608.2525377358497
 21
3208.3045597484269
  0
LINE
  8
_0-0_
  6
CONTINUOUS
 62
    2
 10
3608.2525377358497
 20
3208.3045597484269
 11
3558.253537735849
 21
3166.6462264150941
  0
LINE
  8
_0-0_
  6
CONTINUOUS
 62
    2
 10
3558.253537735849
 20
3166.6462264150941
 11
3608.2525377358497
 21
3124.9878930817603
  0
LINE
  8
_0-0_
  6
CONTINUOUS
 62
    2
 10
3608.2525377358497
 20
3124.9878930817603
 11
3558.253537735849
 21
3083.329559748427
  0
LINE
  8
_0-0_
  6
CONTINUOUS
 62
    2
 10
3558.253537735849
 20
3083.329559748427
 11
3608.2525377358497
 21
3041.6712264150937
  0
LINE
  8
_0-0_
  6
CONTINUOUS
 62
    2
 10
3608.2525377358497
 20
3041.6712264150937
 11
3558.253537735849
 21
3000.0128930817609
  0
LINE
  8
_0-0_
  6
CONTINUOUS
 62
    2
 10
3558.253537735849
 20
3000.0128930817609
 11
3608.2525377358497
 21
2958.3545597484271
  0
LINE
  8
_0-0_
  6
CONTINUOUS
 62
    2
 10
3608.2525377358497
 20
2958.3545597484271
 11
3558.253537735849
 21
2916.6962264150938
  0
LINE
  8
_0-0_
  6
CONTINUOUS
 62
    2
 10
3558.253537735849
 20
2916.6962264150938
 11
3608.2525377358497
 21
2875.0378930817605
  0
LINE
  8
_0-0_
  6
CONTINUOUS
 62
    2
 10
3608.2525377358497
 20
2875.0378930817605
 11
3558.253537735849
 21
2833.3795597484277
  0
LINE
  8
_0-0_
  6
CONTINUOUS
 62
    2
 10
3558.253537735849
 20
2833.3795597484277
 11
3608.2525377358497
 21
2791.7212264150934
  0
LINE
  8
_0-0_
  6
CONTINUOUS
 62
    2
 10
3583.2530377358493
 20
3270.7920597484271
 11
3558.253537735849
 21
3249.9628930817607
  0
LINE
  8
_0-0_
  6
CONTINUOUS
 62
    2
 10
3608.2525377358497
 20
2791.7212264150934
 11
3583.2530377358493
 21
2770.8920597484275
  0
LINE
  8
_0-0_
  6
CONTINUOUS
 62
    2
 10
3558.253537735849
 20
2770.8920597484275
 11
3558.253537735849
 21
2570.892059748427
  0
TEXT
  8
_0-0_
 62
    7
 10
4324.2416414501012
 20
2976.4061721253115
 40
105
 41
0.8333333333333333
 50
90
  1
50
  0
TEXT
  8
_0-0_
 62
    7
 10
7188.2028639841928
 20
2976.2068779455844
 40
105
 41
0.8333333333333333
 50
90
  1
40
  0
LINE
  8
_0-0_
  6
CONTINUOUS
 62
    4
 10
3608.2525377358497
 20
2735.8920597484275
 11
3608.2525377358497
 21
2555.8920597484275
  0
TEXT
  8
_0-0_
 62
    7
 10
3270.3122209490334
 20
3564.4639722869569
 40
105
 41
0.6666666666666666
 50
0
  1
シール材
  0
TEXT
  8
_0-0_
 62
    7
 10
3277.2415782232701
 20
3435.3121626048218
 40
105
 41
0.8333333333333333
 50
0
  1
(t=17)
  0
LINE
  8
_0-0_
  6
CONTINUOUS
 62
    4
 10
3602.003537735849
 20
3270.7920597484271
 11
3602.003537735849
 21
3555.7920597484271
  0
LINE
  8
_0-0_
  6
CENTER1
 62
    4
 10
3158.253537735849
 20
3320.7920597484271
 11
3158.253537735849
 21
2520.892059748427
  0
LINE
  8
_0-0_
  6
CENTER1
 62
    4
 10
5249.3040944780668
 20
3265.7920597484271
 11
6604.906446540881
 21
3265.7920597484271
  0
LINE
  8
_0-0_
  6
CENTER1
 62
    4
 10
5294.906446540881
 20
2725.7920597484271
 11
5294.906446540881
 21
3315.7920597484276
  0
LINE
  8
_0-0_
  6
CENTER1
 62
    4
 10
6569.906446540881
 20
2725.7920597484271
 11
6569.906446540881
 21
3315.7920597484276
  0
LINE
  8
_0-0_
  6
CONTINUOUS
 62
    2
 10
3158.253537735849
 20
3270.7920597484271
 11
4045.7535377358485
 21
3270.7920597484271
  0
LINE
  8
_0-0_
  6
CONTINUOUS
 62
    2
 10
5294.906446540881
 20
2775.7920597484271
 11
6569.906446540881
 21
2775.7920597484271
  0
LINE
  8
_0-0_
  6
CONTINUOUS
 62
    4
 10
3643.2525377358497
 20
2770.8920597484275
 11
4365.753537735849
 21
2770.8920597484275
  0
LINE
  8
_0-0_
  6
CONTINUOUS
 62
    3
 10
3012.2886414298218
 20
1269.0798055489217
 11
3012.2886414298218
 21
919.07980554892185
  0
TEXT
  8
_0-0_
 62
    7
 10
3108.5386414298218
 20
1114.0798055489212
 40
105
 41
1
 50
0
  1
製品ﾎﾞﾘｭｰﾑ
  0
TEXT
  8
_0-0_
 62
    7
 10
4047.8570261228346
 20
1114.0798055489212
 40
105
 41
1
 50
0
  1
ｍ
  0
TEXT
  8
_0-0_
 62
    7
 10
4047.8570261228346
 20
969.07980554892242
 40
105
 41
1
 50
0
  1
kg
  0
LINE
  8
_0-0_
  6
CONTINUOUS
 62
    3
 10
3012.2886414298218
 20
1269.0798055489217
 11
4242.2856414298221
 21
1269.0798055489217
  0
LINE
  8
_0-0_
  6
CONTINUOUS
 62
    3
 10
4242.285641429823
 20
1269.0798055489217
 11
4242.285641429823
 21
919.07980554892185
  0
LINE
  8
_0-0_
  6
CONTINUOUS
 62
    3
 10
3012.2886414298218
 20
919.07980554892185
 11
4242.2856414298221
 21
919.07980554892185
  0
LINE
  8
_0-0_
  6
CONTINUOUS
 62
    4
 10
5494.90644654088
 20
2260.7920597484276
 11
6369.90644654088
 21
2260.7920597484276
  0
LINE
  8
_0-0_
  6
CONTINUOUS
 62
    4
 10
5494.90644654088
 20
2260.7920597484276
 11
5545.6175524210566
 21
2274.38005961631
  0
LINE
  8
_0-0_
  6
CONTINUOUS
 62
    4
 10
5494.90644654088
 20
2260.7920597484276
 11
5545.6175524210566
 21
2247.2040598805447
  0
LINE
  8
_0-0_
  6
CONTINUOUS
 62
    4
 10
6369.90644654088
 20
2260.7920597484276
 11
6319.1953406607053
 21
2247.2040598805447
  0
LINE
  8
_0-0_
  6
CONTINUOUS
 62
    4
 10
6369.90644654088
 20
2260.7920597484276
 11
6319.1953406607053
 21
2274.38005961631
  0
LINE
  8
_0-0_
  6
CONTINUOUS
 62
    4
 10
5494.90644654088
 20
2225.7920597484276
 11
5494.90644654088
 21
2915.7920597484271
  0
LINE
  8
_0-0_
  6
CONTINUOUS
 62
    4
 10
6369.90644654088
 20
2225.7920597484276
 11
6369.90644654088
 21
2915.7920597484271
  0
LINE
  8
_0-0_
  6
CONTINUOUS
 62
    3
 10
5574.9297327129552
 20
3953.7748151288587
 11
6359.8831603688058
 21
3953.7748151288587
  0
TEXT
  8
_0-0_
 62
    7
 10
5618.258221403963
 20
3951.2748151288587
 40
112
 41
1
 50
0
  1
連結部詳細図
  0
LINE
  8
_0-0_
  6
CONTINUOUS
 62
    3
 10
3209.5268239079232
 20
3953.7748151288587
 11
3994.4802515637748
 21
3953.7748151288587
  0
TEXT
  8
_0-0_
 62
    7
 10
3252.8553125989315
 20
3951.2748151288587
 40
112
 41
1
 50
0
  1
接合部詳細図
  0
LINE
  8
_0-0_
  6
CONTINUOUS
 62
    4
 10
3558.2535377358499
 20
2260.7920597484276
 11
3507.5424781655378
 21
2274.380057184951
  0
LINE
  8
_0-0_
  6
CONTINUOUS
 62
    4
 10
3558.2535377358499
 20
2260.7920597484276
 11
3507.5424781655378
 21
2247.2040623119041
  0
TEXT
  8
_0-0_
 62
    7
 10
3446.6513648842878
 20
2264.8317478587787
 40
105
 41
0.8333333333333333
 50
0
  1
5
  0
LINE
  8
_0-0_
  6
CONTINUOUS
 62
    4
 10
3428.2535377358499
 20
2260.7920597484276
 11
3558.2535377358499
 21
2260.7920597484276
  0
LINE
  8
_0-0_
  6
CONTINUOUS
 62
    4
 10
3608.2525377358497
 20
2260.7920597484276
 11
3658.9636436160249
 21
2274.38005961631
  0
LINE
  8
_0-0_
  6
CONTINUOUS
 62
    4
 10
3608.2525377358497
 20
2260.7920597484276
 11
3699.2525377358492
 21
2260.7920597484276
  0
LINE
  8
_0-0_
  6
CONTINUOUS
 62
    4
 10
3558.253537735849
 20
2535.892059748427
 11
3558.253537735849
 21
2225.7920597484276
  0
LINE
  8
_0-0_
  6
CONTINUOUS
 62
    4
 10
3608.2525377358497
 20
2555.8920597484275
 11
3608.2525377358497
 21
2225.7920597484276
  0
LINE
  8
_0-0_
  6
CONTINUOUS
 62
    2
 10
5932.40644654088
 20
2775.7920597484271
 11
5932.40644654088
 21
3265.7920597484271
  0
TEXT
  8
_0-0_
 62
    7
 10
5865.0357783544404
 20
2269.0323725856655
 40
105
 41
0.8333333333333333
 50
0
  1
250
  0
TEXT
  8
_0-0_
 62
    7
 10
4144.550643299407
 20
1165.6407073448551
 40
52.5
 41
1.3333333333333332
 50
0
  1
3
  0
LINE
  8
_0-0_
  6
CONTINUOUS
 62
    2
 10
6211.906446540881
 20
1506.75692997917
 11
6211.906446540881
 21
1606.75692997917
  0
LINE
  8
_0-0_
  6
CONTINUOUS
 62
    2
 10
5294.906446540881
 20
1606.75692997917
 11
6569.906446540881
 21
1606.75692997917
  0
LINE
  8
_0-0_
  6
CONTINUOUS
 62
    6
 10
6142.40644654088
 20
1624.5069299791705
 11
6247.40644654088
 21
1624.5069299791705
  0
LINE
  8
_0-0_
  6
CONTINUOUS
 62
    6
 10
6142.40644654088
 20
1623.50692997917
 11
6247.40644654088
 21
1623.50692997917
  0
LINE
  8
_0-0_
  6
CONTINUOUS
 62
    6
 10
6247.40644654088
 20
1625.5069299791709
 11
6142.40644654088
 21
1625.5069299791709
  0
LINE
  8
_0-0_
  6
CONTINUOUS
 62
    2
 10
6177.90644654088
 20
1506.75692997917
 11
6177.90644654088
 21
1606.75692997917
  0
LINE
  8
_0-0_
  6
CONTINUOUS
 62
    2
 10
6177.90644654088
 20
1506.75692997917
 11
6211.906446540881
 21
1506.75692997917
  0
LINE
  8
_0-0_
  6
CONTINUOUS
 62
    2
 10
6177.90644654088
 20
1525.6243508523618
 11
6178.1224503472476
 21
1525.6609692308647
  0
LINE
  8
_0-0_
  6
CONTINUOUS
 62
    2
 10
5686.906446540881
 20
1506.75692997917
 11
5686.906446540881
 21
1606.75692997917
  0
LINE
  8
_0-0_
  6
CONTINUOUS
 62
    2
 10
5652.906446540881
 20
1506.75692997917
 11
5652.906446540881
 21
1606.75692997917
  0
LINE
  8
_0-0_
  6
CONTINUOUS
 62
    2
 10
5652.906446540881
 20
1506.75692997917
 11
5686.906446540881
 21
1506.75692997917
  0
LINE
  8
_0-0_
  6
CONTINUOUS
 62
    6
 10
5617.40644654088
 20
1624.5069299791705
 11
5722.40644654088
 21
1624.5069299791705
  0
LINE
  8
_0-0_
  6
CONTINUOUS
 62
    6
 10
5617.40644654088
 20
1623.50692997917
 11
5722.40644654088
 21
1623.50692997917
  0
LINE
  8
_0-0_
  6
CONTINUOUS
 62
    6
 10
5722.40644654088
 20
1625.5069299791709
 11
5617.40644654088
 21
1625.5069299791709
  0
LINE
  8
_0-0_
  6
CONTINUOUS
 62
    2
 10
5652.906446540881
 20
1523.8082960978949
 11
5686.906446540881
 21
1523.8082960978949
  0
LINE
  8
_0-0_
  6
CONTINUOUS
 62
    2
 10
5652.906446540881
 20
1525.6243508523618
 11
5653.1224503472476
 21
1525.6609692308647
  0
LINE
  8
_0-0_
  6
CENTER1
 62
    4
 10
5244.906446540881
 20
1406.7569299791703
 11
6619.906446540881
 21
1406.7569299791703
  0
LINE
  8
_0-0_
  6
CENTER1
 62
    4
 10
5294.906446540881
 20
1656.7569299791703
 11
5294.906446540881
 21
1356.7569299791703
  0
LINE
  8
_0-0_
  6
CENTER1
 62
    4
 10
6569.906446540881
 20
1656.7569299791703
 11
6569.906446540881
 21
1356.7569299791703
  0
LINE
  8
_0-0_
  6
CONTINUOUS
 62
    2
 10
5932.40644654088
 20
1406.7569299791703
 11
5932.40644654088
 21
1622.5069299791703
  0
LINE
  8
_0-0_
  6
CONTINUOUS
 62
    6
 10
5722.40644654088
 20
1626.5069299791712
 11
5617.40644654088
 21
1626.5069299791712
  0
LINE
  8
_0-0_
  6
CONTINUOUS
 62
    6
 10
6247.40644654088
 20
1626.5069299791712
 11
6142.40644654088
 21
1626.5069299791712
  0
LINE
  8
_0-0_
  6
CONTINUOUS
 62
    4
 10
6419.4738351997066
 20
1126.087714256449
 11
6199.6943610299904
 21
1506.75692997917
  0
LINE
  8
_0-0_
  6
CONTINUOUS
 62
    4
 10
6199.6943610299904
 20
1506.75692997917
 11
6236.817467042284
 21
1469.6338239668764
  0
LINE
  8
_0-0_
  6
CONTINUOUS
 62
    4
 10
6199.6943610299904
 20
1506.75692997917
 11
6213.2823608978724
 21
1456.0458240989939
  0
TEXT
  8
_0-0_
 62
    7
 10
3108.5386414298218
 20
969.07980554892242
 40
105
 41
1
 50
0
  1
製品重量　
  0
ARC
  8
_0-0_
  6
CONTINUOUS
 62
    2
 10
6169.656446540881
 20
1646.5069299791712
 40
8
 50
90
 51
180
  0
LINE
  8
_0-0_
  6
CONTINUOUS
 62
    2
 10
6220.156446540881
 20
1654.5069299791712
 11
6169.656446540881
 21
1654.5069299791712
  0
ARC
  8
_0-0_
  6
CONTINUOUS
 62
    2
 10
6220.156446540881
 20
1646.5069299791712
 40
8
 50
0
 51
90.000000000000014
  0
ARC
  8
_0-0_
  6
CONTINUOUS
 62
    2
 10
6194.8887902586538
 20
1616.4403671945738
 40
38.066566879323474
 50
60.095391358200487
 51
119.9115064859975
  0
ARC
  8
_0-0_
  6
CONTINUOUS
 62
    2
 10
6221.9313203852334
 20
1645.593441702824
 40
8.8985406554410761
 50
95.420563904963273
 51
154.50708730578242
  0
ARC
  8
_0-0_
  6
CONTINUOUS
 62
    2
 10
6169.1409898528354
 20
1647.4672045259524
 40
7.0461971242491765
 50
16.4938955136471
 51
87.212432526694499
  0
ARC
  8
_0-0_
  6
CONTINUOUS
 62
    2
 10
5644.656446540881
 20
1646.5069299791712
 40
8
 50
90
 51
180
  0
LINE
  8
_0-0_
  6
CONTINUOUS
 62
    2
 10
5695.156446540881
 20
1654.5069299791712
 11
5644.656446540881
 21
1654.5069299791712
  0
ARC
  8
_0-0_
  6
CONTINUOUS
 62
    2
 10
5695.156446540881
 20
1646.5069299791712
 40
8
 50
0
 51
90.000000000000014
  0
ARC
  8
_0-0_
  6
CONTINUOUS
 62
    2
 10
5669.8887902586557
 20
1616.4403671945738
 40
38.066566879323474
 50
60.095391358200487
 51
119.9115064859975
  0
ARC
  8
_0-0_
  6
CONTINUOUS
 62
    2
 10
5696.9313203852334
 20
1645.593441702824
 40
8.8985406554410761
 50
95.420563904963273
 51
154.50708730578242
  0
ARC
  8
_0-0_
  6
CONTINUOUS
 62
    2
 10
5644.1409898528354
 20
1647.4672045259524
 40
7.0461971242491765
 50
16.4938955136471
 51
87.212432526694499
  0
LINE
  8
_0-0_
  6
CONTINUOUS
 62
    6
 10
6247.40644654088
 20
1627.5069299791716
 11
6142.40644654088
 21
1627.5069299791716
  0
LINE
  8
_0-0_
  6
CONTINUOUS
 62
    6
 10
5722.40644654088
 20
1627.5069299791716
 11
5617.40644654088
 21
1627.5069299791716
  0
LINE
  8
_0-0_
  6
CONTINUOUS
 62
    4
 10
6339.8069339030398
 20
1904.8481459031295
 11
6222.852657846307
 21
1654.03889151628
  0
LINE
  8
_0-0_
  6
CONTINUOUS
 62
    4
 10
6222.852657846307
 20
1654.03889151628
 11
6231.9691871738214
 21
1705.7412985494211
  0
LINE
  8
_0-0_
  6
CONTINUOUS
 62
    4
 10
6222.852657846307
 20
1654.03889151628
 11
6256.59900735485
 21
1694.2562247800262
  0
LINE
  8
_0-0_
  6
CONTINUOUS
 62
    3
 10
6177.90644654088
 20
1523.8082960978949
 11
6211.906446540881
 21
1523.8082960978949
  0
LINE
  8
_0-0_
  6
CONTINUOUS
 62
    3
 10
6177.90644654088
 20
1523.8082960978949
 11
6211.906446540881
 21
1523.8082960978949
  0
LINE
  8
_0-0_
  6
CONTINUOUS
 62
    3
 10
6177.9553085566622
 20
1526.6469020996951
 11
6211.7393047502946
 21
1532.3741861729265
  0
LINE
  8
_0-0_
  6
CONTINUOUS
 62
    3
 10
6177.7741689877439
 20
1536.7718051359156
 11
6211.7741689877448
 21
1541.3091125500777
  0
LINE
  8
_0-0_
  6
CONTINUOUS
 62
    3
 10
6177.7724521084583
 20
1546.9135898669126
 11
6212.1380766232205
 21
1551.5602958195795
  0
LINE
  8
_0-0_
  6
CONTINUOUS
 62
    3
 10
6177.7701544713227
 20
1557.0550668366383
 11
6211.9879149102889
 21
1561.7626036641668
  0
LINE
  8
_0-0_
  6
CONTINUOUS
 62
    3
 10
6178.1365399775704
 20
1567.24810382814
 11
6211.7605820573953
 21
1572.2056807247674
  0
LINE
  8
_0-0_
  6
CONTINUOUS
 62
    3
 10
6178.2824044610561
 20
1576.4014776351993
 11
6211.906446540881
 21
1580.5407115010352
  0
LINE
  8
_0-0_
  6
CONTINUOUS
 62
    3
 10
6178.1755537971866
 20
1587.538431102949
 11
6211.7995958770125
 21
1591.15186896212
  0
LINE
  8
_0-0_
  6
CONTINUOUS
 62
    3
 10
5652.906446540881
 20
1523.8082960978949
 11
5686.906446540881
 21
1523.8082960978949
  0
LINE
  8
_0-0_
  6
CONTINUOUS
 62
    3
 10
5652.9553085566622
 20
1526.6469020996951
 11
5686.7393047502955
 21
1532.3741861729265
  0
LINE
  8
_0-0_
  6
CONTINUOUS
 62
    3
 10
5652.7741689877439
 20
1536.7718051359156
 11
5686.7741689877448
 21
1541.3091125500777
  0
LINE
  8
_0-0_
  6
CONTINUOUS
 62
    3
 10
5652.7724521084583
 20
1546.9135898669126
 11
5687.1380766232205
 21
1551.5602958195795
  0
LINE
  8
_0-0_
  6
CONTINUOUS
 62
    3
 10
5652.7701544713227
 20
1557.0550668366383
 11
5686.9879149102889
 21
1561.7626036641668
  0
LINE
  8
_0-0_
  6
CONTINUOUS
 62
    3
 10
5653.1365399775704
 20
1567.24810382814
 11
5686.7605820573953
 21
1572.2056807247674
  0
LINE
  8
_0-0_
  6
CONTINUOUS
 62
    3
 10
5653.2824044610561
 20
1576.4014776351993
 11
5686.906446540881
 21
1580.5407115010352
  0
LINE
  8
_0-0_
  6
CONTINUOUS
 62
    3
 10
5653.1755537971866
 20
1587.538431102949
 11
5686.7995958770125
 21
1591.15186896212
  0
LINE
  8
_0-0_
  6
CONTINUOUS
 62
    3
 10
5494.90644654088
 20
1622.5069299791703
 11
6369.90644654088
 21
1622.5069299791703
  0
LINE
  8
_0-0_
  6
CONTINUOUS
 62
    3
 10
5494.90644654088
 20
1622.5069299791703
 11
5494.90644654088
 21
1606.75692997917
  0
LINE
  8
_0-0_
  6
CONTINUOUS
 62
    3
 10
6369.90644654088
 20
1622.5069299791703
 11
6369.90644654088
 21
1606.75692997917
  0
LINE
  8
_0-0_
  6
CONTINUOUS
 62
    3
 10
8105.6360759493663
 20
3640.2943037974682
 11
9445.6360759493654
 21
3640.2943037974682
  0
LINE
  8
_0-0_
  6
CONTINUOUS
 62
    4
 10
3602.003537735849
 20
3555.7920597484271
 11
3245.0740374394335
 21
3555.7920597484271
  0
TEXT
  8
_0-0_
 62
    7
 10
6430.3241742877826
 20
1793.7478198616324
 40
98
 41
1
 50
0
  1
(ﾒｯｷ)
  0
TEXT
  8
_0-0_
 62
    7
 10
6371.9147523363499
 20
1917.0200584416586
 40
98
 41
1
 50
0
  1
ﾎﾞﾙﾄ M12
  0
TEXT
  8
_0-0_
 62
    7
 10
6453.7934682578197
 20
1134.7596267949777
 40
98
 41
1
 50
0
  1
ｲﾝｻｰﾄ M12
  0
LINE
  8
_0-0_
  6
CONTINUOUS
 62
    4
 10
6339.8069339030398
 20
1904.8481459031295
 11
6782.3055251379555
 21
1904.8481459031295
  0
LINE
  8
_0-0_
  6
CONTINUOUS
 62
    4
 10
6419.4738351997066
 20
1126.087714256449
 11
6919.0618428150901
 21
1126.087714256449
  0
TEXT
  8
_0-0_
 62
    7
 10
6549.0120250911404
 20
1005.7425093843927
 40
98
 41
1
 50
0
  1
(ﾒｯｷ)
  0
TEXT
  8
_0-0_
 62
    7
 10
5171.0009351526232
 20
1909.3541216974372
 40
98
 41
1
 50
0
  1
ﾜｯｼｬー
  0
TEXT
  8
_0-0_
 62
    7
 10
5197.4603490618028
 20
1792.3099763719089
 40
98
 41
1
 50
0
  1
(ﾒｯｷ)
  0
LINE
  8
_0-0_
  6
CONTINUOUS
 62
    4
 10
5495.9143895315219
 20
1905.1551516006172
 11
5130.7239622520764
 21
1905.1551516006172
  0
LINE
  8
_0-0_
  6
CONTINUOUS
 62
    6
 10
5722.40644654088
 20
1628.5069299791719
 11
5617.40644654088
 21
1628.5069299791719
  0
LINE
  8
_0-0_
  6
CONTINUOUS
 62
    4
 10
5495.9143895315219
 20
1905.1551516006172
 11
5624.9175738885624
 21
1628.5069299791719
  0
LINE
  8
_0-0_
  6
CONTINUOUS
 62
    4
 10
5625.3838815467179
 20
1627.5069299791716
 11
5625.4356738921851
 21
1627.3958609358869
  0
LINE
  8
_0-0_
  6
CONTINUOUS
 62
    4
 10
5624.9175738885624
 20
1628.5069299791719
 11
5591.1712243800193
 21
1668.7242632429183
  0
LINE
  8
_0-0_
  6
CONTINUOUS
 62
    4
 10
5624.9175738885624
 20
1628.5069299791719
 11
5615.8010445610489
 21
1680.2093370123129
  0
LINE
  8
_0-0_
  6
CONTINUOUS
 62
    2
 10
5703.156446540881
 20
1646.5069299791712
 11
5703.156446540881
 21
1629.0942644017211
  0
LINE
  8
_0-0_
  6
CONTINUOUS
 62
    2
 10
5703.156446540881
 20
1629.0942644017211
 11
5703.156446540881
 21
1628.5069299791719
  0
LINE
  8
_0-0_
  6
CONTINUOUS
 62
    2
 10
5636.656446540881
 20
1646.5069299791712
 11
5636.656446540881
 21
1628.5069299791719
  0
LINE
  8
_0-0_
  6
CONTINUOUS
 62
    2
 10
5650.90644654088
 20
1628.5069299791719
 11
5650.90644654088
 21
1649.5069299791709
  0
LINE
  8
_0-0_
  6
CONTINUOUS
 62
    2
 10
5688.90644654088
 20
1628.5069299791719
 11
5688.90644654088
 21
1649.438623828388
  0
LINE
  8
_0-0_
  6
CONTINUOUS
 62
    6
 10
6247.40644654088
 20
1628.5069299791719
 11
6142.40644654088
 21
1628.5069299791719
  0
LINE
  8
_0-0_
  6
CONTINUOUS
 62
    2
 10
6161.656446540881
 20
1646.5069299791712
 11
6161.656446540881
 21
1628.5069299791719
  0
LINE
  8
_0-0_
  6
CONTINUOUS
 62
    2
 10
6175.90644654088
 20
1628.5069299791719
 11
6175.90644654088
 21
1649.5069299791709
  0
LINE
  8
_0-0_
  6
CONTINUOUS
 62
    2
 10
6213.90644654088
 20
1628.5069299791719
 11
6213.90644654088
 21
1649.438623828388
  0
LINE
  8
_0-0_
  6
CONTINUOUS
 62
    2
 10
6228.15644654088
 20
1646.5069299791712
 11
6228.15644654088
 21
1628.5069299791719
  0
LINE
  8
_0-0_
  6
CONTINUOUS
 62
    4
 10
1496.6907455472567
 20
4584.1431322075895
 11
1547.4018514274321
 21
4597.7311320754724
  0
LINE
  8
_0-0_
  6
CONTINUOUS
 62
    4
 10
1496.6907455472567
 20
4584.1431322075895
 11
1547.4018514274321
 21
4570.5551323397075
  0
LINE
  8
_0-0_
  6
CONTINUOUS
 62
    4
 10
1496.6907455472567
 20
5184.1431322075895
 11
1496.6907455472567
 21
4954.1431322075895
  0
LINE
  8
_0-0_
  6
CONTINUOUS
 62
    4
 10
1496.6907455472567
 20
4824.1431322075886
 11
1496.6907455472567
 21
4549.1431322075895
  0
LINE
  8
_0-0_
  6
CONTINUOUS
 62
    4
 10
1061.6907455472562
 20
5232.7311320754715
 11
1048.1027456793747
 21
5283.4422379556472
  0
LINE
  8
_0-0_
  6
CONTINUOUS
 62
    4
 10
1061.6907455472562
 20
5232.7311320754715
 11
1075.2787454151396
 21
5283.4422379556472
  0
LINE
  8
_0-0_
  6
CONTINUOUS
 62
    4
 10
1461.6907455472567
 20
5352.7311320754715
 11
1226.6907455472564
 21
5352.7311320754715
  0
LINE
  8
_0-0_
  6
CONTINUOUS
 62
    4
 10
1884.3959950313223
 20
5389.3487561027895
 11
2052.3959950313219
 21
5399.4287561027904
  0
LINE
  8
_0-0_
  6
CONTINUOUS
 62
    4
 10
1884.3959950313223
 20
5389.3487561027895
 11
1934.2022502013435
 21
5405.9495677076101
  0
LINE
  8
_0-0_
  6
CONTINUOUS
 62
    4
 10
1884.3959950313223
 20
5389.3487561027895
 11
1935.8298830783407
 21
5378.8223530909926
  0
TEXT
  8
_0-0_
 62
    7
 10
1949.4780847510828
 20
5401.4231193371133
 40
87.5
 41
1
 50
0
  1
6%
  0
LINE
  8
_0-0_
  6
CONTINUOUS
 62
    4
 10
1261.6907455472564
 20
3821.8813405323485
 11
1261.6907455472564
 21
3721.8813405323485
  0
LINE
  8
_0-0_
  6
CONTINUOUS
 62
    4
 10
1261.6907455472564
 20
3821.8813405323485
 11
1275.2787454151389
 21
3771.1702346521728
  0
LINE
  8
_0-0_
  6
CONTINUOUS
 62
    4
 10
1261.6907455472564
 20
3821.8813405323485
 11
1248.102745679374
 21
3771.1702346521728
  0
LINE
  8
_0-0_
  6
CONTINUOUS
 62
    4
 10
1061.6907455472571
 20
3856.8813405323489
 11
1075.2787454151405
 21
3806.1702346521728
  0
LINE
  8
_0-0_
  6
CONTINUOUS
 62
    4
 10
1061.6907455472571
 20
3856.8813405323489
 11
1048.1027456793758
 21
3806.1702346521728
  0
LINE
  8
_0-0_
  6
CONTINUOUS
 62
    4
 10
1461.6907455472567
 20
3856.8813405323489
 11
1026.6907455472562
 21
3856.8813405323489
  0
LINE
  8
_0-0_
  6
CONTINUOUS
 62
    4
 10
1261.6907455472564
 20
3856.8813405323485
 11
1248.102745679374
 21
3907.5924464125246
  0
LINE
  8
_0-0_
  6
CONTINUOUS
 62
    4
 10
1261.6907455472564
 20
3856.8813405323485
 11
1275.2787454151389
 21
3907.5924464125246
  0
TEXT
  8
_0-0_
 62
    7
 10
1253.5788254736535
 20
3919.9286691191787
 40
105
 41
0.8333333333333333
 50
90
  1
35
  0
LINE
  8
_0-0_
  6
CONTINUOUS
 62
    4
 10
1461.6907455472567
 20
3821.8813405323489
 11
1226.6907455472564
 21
3821.8813405323489
  0
LINE
  8
_0-0_
  6
CONTINUOUS
 62
    4
 10
1261.6907455472564
 20
4016.8813405323489
 11
1261.6907455472564
 21
3856.8813405323485
  0
LINE
  8
_0-0_
  6
CENTER1
 62
    4
 10
4045.7535377358485
 20
3320.7920597484271
 11
4045.7535377358485
 21
2523.2794601405862
  0
LINE
  8
_0-0_
  6
CENTER1
 62
    4
 10
4045.7535377358485
 20
2523.2794601405862
 11
4045.7535377358485
 21
2520.892059748427
  0
LINE
  8
_0-0_
  6
CENTER1
 62
    4
 10
4045.7535377358485
 20
2570.892059748427
 11
3108.253537735849
 21
2570.892059748427
  0
LINE
  8
_0-0_
  6
CONTINUOUS
 62
    5
 10
733.5625
 20
6490
 11
2580.4624999999996
 21
6490
  0
LINE
  8
_0-0_
  6
CONTINUOUS
 62
    4
 10
861.69074554725591
 20
5232.7311320754715
 11
848.10274567937449
 21
5283.4422379556472
  0
LINE
  8
_0-0_
  6
CONTINUOUS
 62
    4
 10
861.69074554725591
 20
5232.7311320754715
 11
875.27874541513926
 21
5283.4422379556472
  0
LINE
  8
_0-0_
  6
CONTINUOUS
 62
    4
 10
1461.6907455472567
 20
5232.7311320754715
 11
826.69074554725591
 21
5232.7311320754715
  0
LINE
  8
_0-0_
  6
CONTINUOUS
 62
    4
 10
1461.6907455472567
 20
5392.7311320754715
 11
826.69074554725591
 21
5392.7311320754715
  0
LINE
  8
_0-0_
  6
CONTINUOUS
 62
    4
 10
861.69074554725591
 20
5392.7311320754715
 11
861.69074554725591
 21
5232.7311320754715
  0
LINE
  8
_0-0_
  6
CONTINUOUS
 62
    4
 10
861.69074554725591
 20
5392.7311320754715
 11
875.27874541513835
 21
5342.0200261952959
  0
LINE
  8
_0-0_
  6
CONTINUOUS
 62
    4
 10
861.69074554725591
 20
5392.7311320754715
 11
848.10274567937347
 21
5342.0200261952959
  0
TEXT
  8
_0-0_
 62
    7
 10
850.11847309573727
 20
5249.3450524109011
 40
105
 41
0.8333333333333333
 50
90
  1
160
  0
LINE
  8
_0-0_
  6
CONTINUOUS
 62
    4
 10
1461.6907455472567
 20
5352.7311320754715
 11
1026.6907455472562
 21
5352.7311320754715
  0
LINE
  8
_0-0_
  6
CONTINUOUS
 62
    4
 10
1061.6907455472562
 20
5352.7311320754715
 11
1061.6907455472562
 21
5232.7311320754715
  0
LINE
  8
_0-0_
  6
CONTINUOUS
 62
    4
 10
1061.6907455472562
 20
5352.7311320754715
 11
1075.2787454151387
 21
5302.0200261952959
  0
LINE
  8
_0-0_
  6
CONTINUOUS
 62
    4
 10
1061.6907455472562
 20
5352.7311320754715
 11
1048.1027456793738
 21
5302.0200261952959
  0
TEXT
  8
_0-0_
 62
    7
 10
1054.1907455472569
 20
5232.3561320754715
 40
105
 41
0.7666666666666666
 50
90
  1
120
  0
LINE
  8
_0-0_
  6
CONTINUOUS
 62
    4
 10
1061.6907455472562
 20
5392.7311320754715
 11
1048.1027456793738
 21
5443.4422379556472
  0
LINE
  8
_0-0_
  6
CONTINUOUS
 62
    4
 10
1061.6907455472562
 20
5392.7311320754715
 11
1075.2787454151387
 21
5443.4422379556472
  0
LINE
  8
_0-0_
  6
CONTINUOUS
 62
    4
 10
1061.6907455472562
 20
5552.7311320754715
 11
1061.6907455472562
 21
5392.7311320754715
  0
TEXT
  8
_0-0_
 62
    7
 10
1053.5788254736532
 20
5455.7784606623008
 40
105
 41
0.8333333333333333
 50
90
  1
40
  0
LINE
  8
_0-0_
  6
CONTINUOUS
 62
    4
 10
1261.6907455472564
 20
5352.7311320754724
 11
1275.2787454151389
 21
5302.0200261952959
  0
LINE
  8
_0-0_
  6
CONTINUOUS
 62
    4
 10
1261.6907455472564
 20
5352.7311320754724
 11
1248.102745679374
 21
5302.0200261952959
  0
LINE
  8
_0-0_
  6
CONTINUOUS
 62
    4
 10
1261.6907455472564
 20
5392.7311320754715
 11
1248.102745679374
 21
5443.4422379556481
  0
LINE
  8
_0-0_
  6
CONTINUOUS
 62
    4
 10
1261.6907455472564
 20
5392.7311320754715
 11
1275.2787454151389
 21
5443.4422379556481
  0
LINE
  8
_0-0_
  6
CONTINUOUS
 62
    4
 10
1261.6907455472564
 20
5552.7311320754715
 11
1261.6907455472564
 21
5392.7311320754715
  0
TEXT
  8
_0-0_
 62
    7
 10
1253.5788254736535
 20
5455.7784606623008
 40
105
 41
0.8333333333333333
 50
90
  1
20
  0
TEXT
  8
_0-0_
 62
    7
 10
1253.7178938728691
 20
5234.9524856446878
 40
105
 41
0.8333333333333333
 50
90
  1
20
  0
LINE
  8
_0-0_
  6
CONTINUOUS
 62
    4
 10
1261.6907455472564
 20
5352.7311320754724
 11
1261.6907455472564
 21
5240.2370868109119
  0
LINE
  8
_0-0_
  6
CONTINUOUS
 62
    2
 10
1496.6907455472567
 20
5232.7311320754715
 11
1496.6907455472567
 21
5392.7311320754715
  0
LINE
  8
_0-0_
  6
CONTINUOUS
 62
    2
 10
1496.6907455472567
 20
5392.7311320754715
 11
1526.6907455472569
 21
5392.7311320754715
  0
LINE
  8
_0-0_
  6
CONTINUOUS
 62
    4
 10
1496.6907455472567
 20
5872.7311320754715
 11
1466.6907455472571
 21
5880.7696078484059
  0
LINE
  8
_0-0_
  6
CONTINUOUS
 62
    4
 10
1496.6907455472567
 20
5872.7311320754715
 11
1466.6907455472571
 21
5864.6926563025381
  0
LINE
  8
_0-0_
  6
CONTINUOUS
 62
    4
 10
1356.9762414197937
 20
5872.7311320754715
 11
1496.6907455472567
 21
5872.7311320754715
  0
TEXT
  8
_0-0_
 62
    7
 10
1373.2798859290955
 20
5875.314735032095
 40
105
 41
0.8333333333333333
 50
0
  1
30
  0
LINE
  8
_0-0_
  6
CONTINUOUS
 62
    4
 10
1526.6907455472569
 20
5872.7311320754715
 11
1577.4018514274328
 21
5886.3191319433544
  0
LINE
  8
_0-0_
  6
CONTINUOUS
 62
    4
 10
1526.6907455472569
 20
5872.7311320754715
 11
1577.4018514274328
 21
5859.1431322075895
  0
LINE
  8
_0-0_
  6
CONTINUOUS
 62
    4
 10
1496.6907455472567
 20
5907.7311320754715
 11
1496.6907455472567
 21
5427.7311320754715
  0
LINE
  8
_0-0_
  6
CONTINUOUS
 62
    4
 10
1526.6907455472569
 20
5907.7311320754715
 11
1526.6907455472569
 21
5427.7311320754715
  0
LINE
  8
_0-0_
  6
CONTINUOUS
 62
    4
 10
3659.4802809625052
 20
4847.7311320754715
 11
4159.4802809625052
 21
4847.7311320754715
  0
LINE
  8
_0-0_
  6
CONTINUOUS
 62
    4
 10
3659.4802809625052
 20
4847.7311320754715
 11
3710.1913868426804
 21
4861.3191319433544
  0
LINE
  8
_0-0_
  6
CONTINUOUS
 62
    4
 10
3659.4802809625052
 20
4847.7311320754715
 11
3710.1913868426804
 21
4834.1431322075895
  0
LINE
  8
_0-0_
  6
CONTINUOUS
 62
    4
 10
4159.4802809625052
 20
4847.7311320754715
 11
4108.7691750823287
 21
4834.1431322075895
  0
LINE
  8
_0-0_
  6
CONTINUOUS
 62
    4
 10
4159.4802809625052
 20
4847.7311320754715
 11
4108.7691750823287
 21
4861.3191319433544
  0
LINE
  8
_0-0_
  6
CONTINUOUS
 62
    4
 10
3659.4802809625052
 20
4597.7311320754724
 11
3710.1913868426804
 21
4611.3191319433544
  0
LINE
  8
_0-0_
  6
CONTINUOUS
 62
    4
 10
3659.4802809625052
 20
4597.7311320754724
 11
3710.1913868426804
 21
4584.1431322075895
  0
LINE
  8
_0-0_
  6
CONTINUOUS
 62
    4
 10
3659.4802809625052
 20
5197.7311320754715
 11
3659.4802809625052
 21
4562.7311320754724
  0
LINE
  8
_0-0_
  6
CONTINUOUS
 62
    4
 10
4159.4802809625052
 20
5197.7311320754715
 11
4159.4802809625052
 21
4812.7311320754715
  0
TEXT
  8
_0-0_
 62
    7
 10
3840.3552809625043
 20
4855.2311320754724
 40
105
 41
0.8333333333333333
 50
0
  1
500
  0
CIRCLE
  8
_0-0_
  6
CONTINUOUS
 62
    2
 10
3734.4802809625048
 20
5302.7311320754715
 40
7.5
  0
TEXT
  8
_0-0_
 62
    7
 10
3685.7196013864077
 20
5253.0938701117902
 40
17.5
 41
1
 50
0
  1
●
  0
TEXT
  8
_0-0_
 62
    7
 10
1522.9359460957484
 20
5263.6155302458646
 40
17.5
 41
1
 50
0
  1
●
  0
TEXT
  8
_0-0_
 62
    7
 10
1892.6768999875205
 20
4837.4628587962961
 40
105
 41
0.8333333333333333
 50
0
  1
5-D10
  0
LINE
  8
_0-0_
  6
CONTINUOUS
 62
    4
 10
2140.5731370866938
 20
4834.1431322075895
 11
1824.8426632255109
 21
4834.1431322075895
  0
LINE
  8
_0-0_
  6
CONTINUOUS
 62
    4
 10
1599.1624607793671
 20
5262.7311320754706
 11
1599.1624607793671
 21
4834.1431322075895
  0
LINE
  8
_0-0_
  6
CONTINUOUS
 62
    4
 10
1599.1624607793671
 20
5262.7311320754706
 11
1585.5744609114849
 21
5212.0200261952959
  0
LINE
  8
_0-0_
  6
CONTINUOUS
 62
    4
 10
1599.1624607793671
 20
5262.7311320754706
 11
1612.7504606472496
 21
5212.0200261952959
  0
TEXT
  8
_0-0_
 62
    7
 10
788.56249999999943
 20
6496.25
 40
157.5
 41
1
 50
0
  1
Ｌ型街渠－Ｂ(乗り入れ)
  0
LINE
  8
_0-0_
  6
CONTINUOUS
 62
    4
 10
2206.6907455472569
 20
5184.1431322075895
 11
2206.6907455472569
 21
4549.1431322075895
  0
LINE
  8
_0-0_
  6
CONTINUOUS
 62
    4
 10
2206.6907455472569
 20
4584.1431322075895
 11
1496.6907455472567
 21
4584.1431322075895
  0
LINE
  8
_0-0_
  6
CONTINUOUS
 62
    4
 10
2206.6907455472569
 20
4584.1431322075895
 11
2155.9796396670808
 21
4570.5551323397075
  0
LINE
  8
_0-0_
  6
CONTINUOUS
 62
    4
 10
2206.6907455472569
 20
4584.1431322075895
 11
2155.9796396670808
 21
4597.7311320754724
  0
TEXT
  8
_0-0_
 62
    7
 10
1786.2790178021684
 20
4592.9549181024294
 40
105
 41
0.8333333333333333
 50
0
  1
710
  0
LINE
  8
_0-0_
  6
CONTINUOUS
 62
    4
 10
2641.5355345227008
 20
5382.7311320754715
 11
2641.5355345227008
 21
5232.7311320754715
  0
LINE
  8
_0-0_
  6
CONTINUOUS
 62
    4
 10
2641.5355345227008
 20
5382.7311320754715
 11
2655.1235343905832
 21
5332.020026195295
  0
LINE
  8
_0-0_
  6
CONTINUOUS
 62
    4
 10
2641.5355345227008
 20
5382.7311320754715
 11
2627.9475346548188
 21
5332.020026195295
  0
LINE
  8
_0-0_
  6
CONTINUOUS
 62
    4
 10
2641.5355345227008
 20
5232.7311320754715
 11
2627.9475346548188
 21
5283.4422379556472
  0
LINE
  8
_0-0_
  6
CONTINUOUS
 62
    4
 10
2641.5355345227008
 20
5232.7311320754715
 11
2655.1235343905832
 21
5283.4422379556472
  0
TEXT
  8
_0-0_
 62
    7
 10
2634.0355345227008
 20
5242.1061320754715
 40
105
 41
0.8333333333333333
 50
90
  1
150
  0
LINE
  8
_0-0_
  6
CONTINUOUS
 62
    4
 10
2441.5355345227008
 20
5262.7311320754706
 11
2427.9475346548183
 21
5313.4422379556472
  0
LINE
  8
_0-0_
  6
CONTINUOUS
 62
    4
 10
2441.5355345227008
 20
5262.7311320754706
 11
2455.1235343905832
 21
5313.4422379556472
  0
LINE
  8
_0-0_
  6
CONTINUOUS
 62
    4
 10
2441.5355345227008
 20
5262.7311320754706
 11
2427.9475346548183
 21
5313.4422379556472
  0
LINE
  8
_0-0_
  6
CONTINUOUS
 62
    4
 10
2441.5355345227008
 20
5262.7311320754706
 11
2455.1235343905832
 21
5313.4422379556472
  0
TEXT
  8
_0-0_
 62
    7
 10
2434.0355345227012
 20
5112.7311320754715
 40
105
 41
0.8333333333333333
 50
90
  1
30
  0
LINE
  8
_0-0_
  6
CONTINUOUS
 62
    4
 10
2441.5355345227008
 20
5232.7311320754715
 11
2455.1235343905832
 21
5182.0200261952959
  0
LINE
  8
_0-0_
  6
CONTINUOUS
 62
    4
 10
2441.5355345227008
 20
5232.7311320754715
 11
2427.9475346548183
 21
5182.0200261952959
  0
LINE
  8
_0-0_
  6
CONTINUOUS
 62
    4
 10
2441.5355345227008
 20
5232.7311320754715
 11
2441.5355345227008
 21
5102.7311320754715
  0
LINE
  8
_0-0_
  6
CONTINUOUS
 62
    4
 10
2441.5355345227008
 20
5262.7311320754706
 11
2441.5355345227008
 21
5362.7311320754715
  0
LINE
  8
_0-0_
  6
CONTINUOUS
 62
    4
 10
2231.6907455472573
 20
5382.7311320754715
 11
2676.5355345227008
 21
5382.7311320754715
  0
LINE
  8
_0-0_
  6
CONTINUOUS
 62
    4
 10
2239.6907455472573
 20
5262.7311320754706
 11
2476.5355345227008
 21
5262.7311320754706
  0
LINE
  8
_0-0_
  6
CONTINUOUS
 62
    4
 10
2241.6907455472569
 20
5232.7311320754715
 11
2676.5355345227008
 21
5232.7311320754715
  0
LINE
  8
_0-0_
  6
CONTINUOUS
 62
    2
 10
2206.6907455472569
 20
5232.7311320754715
 11
1496.6907455472567
 21
5232.7311320754715
  0
LINE
  8
_0-0_
  6
CONTINUOUS
 62
    2
 10
2196.6907455472573
 20
5382.7311320754715
 11
2206.6907455472569
 21
5232.7311320754715
  0
TEXT
  8
_0-0_
 62
    7
 10
2163.1605472494284
 20
5263.8741796741478
 40
17.5
 41
1
 50
0
  1
●
  0
LINE
  8
_0-0_
  6
CONTINUOUS
 62
    4
 10
1696.6907455472569
 20
5907.7311320754715
 11
1696.6907455472569
 21
5427.7311320754715
  0
TEXT
  8
_0-0_
 62
    7
 10
1881.0657455472578
 20
5880.2311320754715
 40
105
 41
0.8333333333333333
 50
0
  1
500
  0
TEXT
  8
_0-0_
 62
    7
 10
2266.6907455472578
 20
5880.2311320754715
 40
105
 41
0.8333333333333333
 50
0
  1
10
  0
LINE
  8
_0-0_
  6
CONTINUOUS
 62
    4
 10
2196.6907455472578
 20
5872.7311320754715
 11
2145.9796396670813
 21
5859.1431322075895
  0
LINE
  8
_0-0_
  6
CONTINUOUS
 62
    4
 10
2196.6907455472578
 20
5872.7311320754715
 11
2145.9796396670813
 21
5886.3191319433544
  0
LINE
  8
_0-0_
  6
CONTINUOUS
 62
    4
 10
2206.6907455472573
 20
5872.7311320754715
 11
2257.4018514274339
 21
5886.3191319433544
  0
LINE
  8
_0-0_
  6
CONTINUOUS
 62
    4
 10
2206.6907455472573
 20
5872.7311320754715
 11
2257.4018514274339
 21
5859.1431322075895
  0
LINE
  8
_0-0_
  6
CONTINUOUS
 62
    4
 10
2206.6907455472573
 20
5872.7311320754715
 11
2376.6907455472573
 21
5872.7311320754715
  0
LINE
  8
_0-0_
  6
CONTINUOUS
 62
    4
 10
1696.6907455472569
 20
5872.7311320754715
 11
2196.6907455472578
 21
5872.7311320754715
  0
LINE
  8
_0-0_
  6
CONTINUOUS
 62
    4
 10
1696.6907455472569
 20
5872.7311320754715
 11
1747.4018514274334
 21
5886.3191319433544
  0
LINE
  8
_0-0_
  6
CONTINUOUS
 62
    4
 10
1696.6907455472569
 20
5872.7311320754715
 11
1747.4018514274334
 21
5859.1431322075895
  0
LINE
  8
_0-0_
  6
CONTINUOUS
 62
    4
 10
1696.6907455472569
 20
5872.7311320754715
 11
1645.979639667081
 21
5859.1431322075895
  0
LINE
  8
_0-0_
  6
CONTINUOUS
 62
    4
 10
1696.6907455472569
 20
5872.7311320754715
 11
1645.979639667081
 21
5886.3191319433544
  0
LINE
  8
_0-0_
  6
CONTINUOUS
 62
    4
 10
1526.6907455472569
 20
5872.7311320754715
 11
1696.6907455472569
 21
5872.7311320754715
  0
TEXT
  8
_0-0_
 62
    7
 10
1551.4488794067888
 20
5880.358231403552
 40
105
 41
0.7666666666666666
 50
0
  1
170
  0
LINE
  8
_0-0_
  6
CONTINUOUS
 62
    4
 10
2196.6907455472578
 20
5907.7311320754715
 11
2196.6907455472578
 21
5417.7940754773026
  0
LINE
  8
_0-0_
  6
CONTINUOUS
 62
    4
 10
2206.6907455472573
 20
5427.7311320754715
 11
2206.6907455472573
 21
5907.7311320754715
  0
LINE
  8
_0-0_
  6
CONTINUOUS
 62
    4
 10
1692.1384763149326
 20
5368.1788628431468
 11
1780.1286812783753
 21
5696.5627783351146
  0
LINE
  8
_0-0_
  6
CONTINUOUS
 62
    4
 10
1698.3130847980432
 20
5354.353471326257
 11
1818.6199833247067
 21
5562.7311320754715
  0
LINE
  8
_0-0_
  6
CONTINUOUS
 62
    4
 10
1815.4148961068665
 20
5696.5627783351146
 11
1780.1286812783753
 21
5696.5627783351146
  0
LINE
  8
_0-0_
  6
CONTINUOUS
 62
    4
 10
1780.1286812783753
 20
5696.5627783351146
 11
1782.9204064370665
 21
5696.5627783351146
  0
LINE
  8
_0-0_
  6
CONTINUOUS
 62
    4
 10
1692.1384763149326
 20
5368.1788628431468
 11
1718.3884763149326
 21
5413.6451965418309
  0
LINE
  8
_0-0_
  6
CONTINUOUS
 62
    4
 10
1698.3130847980432
 20
5354.353471326257
 11
1711.9010846659257
 21
5405.0645772064335
  0
LINE
  8
_0-0_
  6
CONTINUOUS
 62
    4
 10
1698.3130847980432
 20
5354.353471326257
 11
1735.4361908103367
 21
5391.4765773385515
  0
TEXT
  8
_0-0_
 62
    7
 10
1790.8112679482969
 20
5695.220958571931
 40
87.5
 41
1
 50
0
  1
R=20
  0
LINE
  8
_0-0_
  6
CONTINUOUS
 62
    4
 10
1785.5384865762268
 20
5696.5627783351146
 11
1964.9550477029356
 21
5696.5627783351146
  0
TEXT
  8
_0-0_
 62
    7
 10
1836.1408455625432
 20
5561.9261268343816
 40
87.5
 41
1
 50
0
  1
R=5
  0
LINE
  8
_0-0_
  6
CONTINUOUS
 62
    4
 10
1818.6199833247067
 20
5562.7311320754715
 11
1973.2449685534588
 21
5562.7311320754715
  0
LINE
  8
_0-0_
  6
CONTINUOUS
 62
    2
 10
1679.0275704986047
 20
5374.8091526694306
 11
1526.6907455472569
 21
5392.7311320754715
  0
LINE
  8
_0-0_
  6
CONTINUOUS
 62
    2
 10
1701.9902070008968
 20
5353.0490997626893
 11
2196.6907455472573
 21
5382.7311320754715
  0
ARC
  8
_0-0_
  6
CONTINUOUS
 62
    2
 10
1701.6907455472569
 20
5358.0401239900193
 40
5
 50
180
 51
273.43363036245051
  0
ARC
  8
_0-0_
  6
CONTINUOUS
 62
    2
 10
1676.6907455472571
 20
5354.9461405829724
 40
20
 50
8.7939003368273453
 51
83.290163192243113
  0
LINE
  8
_0-0_
  6
CONTINUOUS
 62
    2
 10
2206.6907455472569
 20
3856.8813405323489
 11
1496.6907455472567
 21
3856.8813405323489
  0
LINE
  8
_0-0_
  6
CONTINUOUS
 62
    5
 10
1521.6907455472564
 20
3821.8813405323489
 11
2181.6907455472573
 21
3821.8813405323489
  0
LINE
  8
_0-0_
  6
CONTINUOUS
 62
    5
 10
2181.6907455472573
 20
5265.0387721578636
 11
1521.6907455472564
 21
5265.0387721578636
  0
TEXT
  8
_0-0_
 62
    7
 10
2002.8050955999669
 20
5263.7442428098183
 40
17.5
 41
1
 50
0
  1
●
  0
TEXT
  8
_0-0_
 62
    7
 10
1842.9522574130487
 20
5263.7312103164858
 40
17.5
 41
1
 50
0
  1
●
  0
TEXT
  8
_0-0_
 62
    7
 10
1682.8692109087317
 20
5263.7937933018729
 40
17.5
 41
1
 50
0
  1
●
  0
LINE
  8
_0-0_
  6
CONTINUOUS
 62
    4
 10
1824.8426632255109
 20
4834.1431322075895
 11
1698.7860139964066
 21
5272.5436906993663
  0
LINE
  8
_0-0_
  6
CONTINUOUS
 62
    4
 10
1698.7860139964066
 20
5272.5436906993663
 11
1725.8584412853629
 21
5227.5622091688064
  0
LINE
  8
_0-0_
  6
CONTINUOUS
 62
    4
 10
1698.7860139964066
 20
5272.5436906993663
 11
1699.7406830054692
 21
5220.0523713495622
  0
LINE
  8
_0-0_
  6
CONTINUOUS
 62
    4
 10
1824.8426632255109
 20
4834.1431322075895
 11
2003.9528058604514
 21
5273.5238854582667
  0
LINE
  8
_0-0_
  6
CONTINUOUS
 62
    4
 10
2003.9528058604514
 20
5273.5238854582667
 11
1997.3929174357501
 21
5221.435327560629
  0
LINE
  8
_0-0_
  6
CONTINUOUS
 62
    4
 10
2003.9528058604514
 20
5273.5238854582667
 11
1972.22749688985
 21
5231.6938152847669
  0
LINE
  8
_0-0_
  6
CONTINUOUS
 62
    2
 10
8305.5880503144653
 20
4363.4095911949689
 11
9133.921050314464
 21
4363.4095911949689
  0
LINE
  8
_0-0_
  6
CONTINUOUS
 62
    2
 10
8305.5880503144653
 20
4550.0695911949687
 11
8305.5880503144653
 21
4363.4095911949689
  0
LINE
  8
_0-0_
  6
CONTINUOUS
 62
    2
 10
8305.5880503144653
 20
4550.0695911949687
 11
8340.5880503144653
 21
4550.0695911949687
  0
LINE
  8
_0-0_
  6
CONTINUOUS
 62
    2
 10
8521.2578462121073
 20
4528.8145890133864
 11
8340.5880503144653
 21
4550.0695911949687
  0
ARC
  8
_0-0_
  6
CONTINUOUS
 62
    2
 10
8518.9210503144659
 20
4508.951573508868
 40
20
 50
0
 51
83.290246998999293
  0
LINE
  8
_0-0_
  6
CONTINUOUS
 62
    2
 10
8544.2205625790884
 20
4503.7216160766583
 11
9122.2550503144648
 21
4538.4095911949689
  0
ARC
  8
_0-0_
  6
CONTINUOUS
 62
    2
 10
8543.9210503144659
 20
4508.7126372550683
 40
5
 50
180
 51
273.43421366071459
  0
LINE
  8
_0-0_
  6
CONTINUOUS
 62
    2
 10
8538.9210503144659
 20
4508.7126372550683
 11
8538.9210503144659
 21
4508.951573508868
  0
LINE
  8
_0-0_
  6
CONTINUOUS
 62
    2
 10
8305.5880503144653
 20
4491.7365911949691
 11
8340.5880503144653
 21
4491.7365911949691
  0
LINE
  8
_0-0_
  6
CONTINUOUS
 62
    2
 10
8520.4422304572508
 20
4470.1752513868814
 11
8333.7724345596107
 21
4492.136127023713
  0
ARC
  8
_0-0_
  6
CONTINUOUS
 62
    2
 10
8518.1054345596094
 20
4450.3122358823629
 40
20
 50
0
 51
83.290246998999293
  0
ARC
  8
_0-0_
  6
CONTINUOUS
 62
    2
 10
8543.1054345596094
 20
4450.0732996285632
 40
5
 50
180
 51
273.43421366071459
  0
LINE
  8
_0-0_
  6
CONTINUOUS
 62
    2
 10
8538.1054345596094
 20
4450.0732996285632
 11
8538.1054345596094
 21
4450.3122358823629
  0
LINE
  8
_0-0_
  6
CONTINUOUS
 62
    2
 10
8543.3958310000125
 20
4445.2341829866772
 11
9125.7493401009141
 21
4480.1813435149269
  0
LINE
  8
_0-0_
  6
CONTINUOUS
 62
    2
 10
8340.5880503144653
 20
5347.3286163522016
 11
8340.5880503144653
 21
5507.3286163522016
  0
LINE
  8
_0-0_
  6
CONTINUOUS
 62
    2
 10
8538.9210503144659
 20
5347.3286163522016
 11
8538.9210503144659
 21
5507.3286163522016
  0
TEXT
  8
_0-0_
 62
    7
 10
9359.0483774629028
 20
5235.7264435006381
 40
105
 41
0.8333333333333333
 50
90
  1
5
  0
LINE
  8
_0-0_
  6
CONTINUOUS
 62
    4
 10
9363.0880655732544
 20
5217.3286163522016
 11
9363.0880655732544
 21
5347.3286163522016
  0
LINE
  8
_0-0_
  6
CONTINUOUS
 62
    4
 10
9163.0880503144653
 20
5347.3286163522016
 11
9398.0880655732544
 21
5347.3286163522016
  0
LINE
  8
_0-0_
  6
CONTINUOUS
 62
    4
 10
9163.0880503144653
 20
5353.1616163522003
 11
9398.0880655732544
 21
5353.1616163522003
  0
LINE
  8
_0-0_
  6
CONTINUOUS
 62
    4
 10
9363.0880655732544
 20
5353.6616163522012
 11
9349.5000657053733
 21
5404.3727222323768
  0
LINE
  8
_0-0_
  6
CONTINUOUS
 62
    4
 10
9363.0880655732544
 20
5353.6616163522012
 11
9376.6760654411373
 21
5404.3727222323768
  0
LINE
  8
_0-0_
  6
CONTINUOUS
 62
    4
 10
9363.0880655732544
 20
5347.3286163522016
 11
9376.6760654411373
 21
5296.617510472025
  0
LINE
  8
_0-0_
  6
CONTINUOUS
 62
    4
 10
9363.0880655732544
 20
5347.3286163522016
 11
9349.5000657053733
 21
5296.617510472025
  0
LINE
  8
_0-0_
  6
CONTINUOUS
 62
    4
 10
9363.0880655732544
 20
5353.6616163522012
 11
9363.0880655732544
 21
5444.1616163522012
  0
LINE
  8
_0-0_
  6
CONTINUOUS
 62
    2
 10
9133.921050314464
 20
5347.3286163522016
 11
9133.921050314464
 21
5507.3286163522016
  0
LINE
  8
_0-0_
  6
CONTINUOUS
 62
    2
 10
8305.5880503144653
 20
5353.1616163522003
 11
9133.921050314464
 21
5353.1616163522003
  0
LINE
  8
_0-0_
  6
CONTINUOUS
 62
    2
 10
8305.5880503144653
 20
5347.3286163522016
 11
9133.921050314464
 21
5347.3286163522016
  0
LINE
  8
_0-0_
  6
CONTINUOUS
 62
    2
 10
9122.2550503144648
 20
5347.3286163522016
 11
9122.2550503144648
 21
5507.3286163522016
  0
LINE
  8
_0-0_
  6
CENTER1
 62
    4
 10
8255.5880503144653
 20
5507.3286163522016
 11
9183.9210503144659
 21
5507.3286163522016
  0
CIRCLE
  8
_0-0_
  6
CONTINUOUS
 62
    2
 10
4159.4802809625052
 20
5302.7311320754715
 40
10
  0
LINE
  8
_0-0_
  6
CONTINUOUS
 62
    3
 10
8253.5628586871061
 20
5890.1682128906259
 11
9118.5162863429595
 21
5890.1682128906259
  0
LINE
  8
_0-0_
  6
CONTINUOUS
 62
    4
 10
3624.4802809625052
 20
5232.7311320754715
 11
3389.4802809625048
 21
5232.7311320754715
  0
LINE
  8
_0-0_
  6
CONTINUOUS
 62
    4
 10
3389.4802809625048
 20
5302.7311320754715
 11
3704.4802809625048
 21
5302.7311320754715
  0
LINE
  8
_0-0_
  6
CONTINUOUS
 62
    4
 10
3659.4802809625052
 20
5032.7311320754715
 11
3549.3549528985399
 21
5032.7311320754715
  0
LINE
  8
_0-0_
  6
CONTINUOUS
 62
    4
 10
3659.4802809625052
 20
5032.7311320754715
 11
3608.7691756158251
 21
5046.319129511995
  0
LINE
  8
_0-0_
  6
CONTINUOUS
 62
    4
 10
3659.4802809625052
 20
5032.7311320754715
 11
3608.7691756158251
 21
5019.1431346389481
  0
LINE
  8
_0-0_
  6
CONTINUOUS
 62
    4
 10
3734.4802809625048
 20
5197.7311320754715
 11
3734.4802809625048
 21
4997.7311320754715
  0
LINE
  8
_0-0_
  6
CONTINUOUS
 62
    4
 10
3734.4802809625048
 20
5032.7311320754715
 11
3874.1947890191454
 21
5032.7311320754715
  0
LINE
  8
_0-0_
  6
CONTINUOUS
 62
    4
 10
3734.4802809625048
 20
5032.7311320754715
 11
3785.1913863091849
 21
5046.319129511995
  0
LINE
  8
_0-0_
  6
CONTINUOUS
 62
    4
 10
3734.4802809625048
 20
5032.7311320754715
 11
3785.1913863091849
 21
5019.1431346389481
  0
LINE
  8
_0-0_
  6
CONTINUOUS
 62
    4
 10
3424.4802809625048
 20
5302.7311320754715
 11
3424.4802809625048
 21
5232.7311320754715
  0
LINE
  8
_0-0_
  6
CONTINUOUS
 62
    4
 10
3424.4802809625048
 20
5232.7311320754715
 11
3432.5187636285204
 21
5262.7311320754706
  0
LINE
  8
_0-0_
  6
CONTINUOUS
 62
    4
 10
3424.4802809625048
 20
5232.7311320754715
 11
3416.4417982964891
 21
5262.7311320754706
  0
LINE
  8
_0-0_
  6
CONTINUOUS
 62
    4
 10
3424.4802809625048
 20
5302.7311320754715
 11
3432.5187636285204
 21
5272.7311320754715
  0
LINE
  8
_0-0_
  6
CONTINUOUS
 62
    4
 10
3424.4802809625048
 20
5302.7311320754715
 11
3416.4417982964891
 21
5272.7311320754715
  0
TEXT
  8
_0-0_
 62
    7
 10
3397.3484450250052
 20
5225.1986704322525
 40
105
 41
0.8333333333333333
 50
90
  1
70
  0
TEXT
  8
_0-0_
 62
    7
 10
3784.792826738872
 20
5034.9509349319177
 40
105
 41
0.8333333333333333
 50
0
  1
75
  0
LINE
  8
_0-0_
  6
CONTINUOUS
 62
    2
 10
3659.4802809625052
 20
5232.7311320754715
 11
3659.4802809625052
 21
5392.7311320754715
  0
LINE
  8
_0-0_
  6
CONTINUOUS
 62
    2
 10
1521.6907455472569
 20
5308.8365169021317
 11
1496.6907455472567
 21
5308.8365169021317
  0
LINE
  8
_0-0_
  6
CONTINUOUS
 62
    2
 10
1521.6907455472569
 20
5296.8365169021317
 11
1496.6907455472567
 21
5296.8365169021317
  0
LINE
  8
_0-0_
  6
CONTINUOUS
 62
    2
 10
1521.6907455472569
 20
5296.8365169021317
 11
1521.6907455472569
 21
5308.8365169021317
  0
LINE
  8
_0-0_
  6
CONTINUOUS
 62
    2
 10
1521.6907455472564
 20
3787.8588415439458
 11
1496.8106817207574
 21
3787.8588415439458
  0
LINE
  8
_0-0_
  6
CONTINUOUS
 62
    2
 10
1521.6907455472564
 20
3787.8588415439458
 11
1521.6907455472564
 21
3775.8588415439458
  0
LINE
  8
_0-0_
  6
CONTINUOUS
 62
    2
 10
1521.6907455472564
 20
3775.8588415439458
 11
1496.8106817207574
 21
3775.8588415439458
  0
TEXT
  8
_0-0_
 62
    7
 10
5215.5439455457371
 20
733.6108789109146
 40
87.5
 41
0.9199999999999999
 50
0
  1
連結プレート､ボルト､ワッシャー､インサートの仕様
  0
TEXT
  8
_0-0_
 62
    7
 10
5328.4422675571067
 20
569.42350065855839
 40
87.5
 41
1
 50
0
  1
1. 材質SS400または同等以上のもの
  0
TEXT
  8
_0-0_
 62
    7
 10
5328.4422675571067
 20
439.42350065855856
 40
87.5
 41
1
 50
0
  1
2. 電気亜鉛ﾒｯｷ(JIS H 8610)2種3級または同等以上のもの
  0
TEXT
  8
_0-0_
 62
    7
 10
8610.77345051068
 20
2741.8280310521431
 40
38.5
 41
1.1818181818181816
 50
0
  1
2
  0
TEXT
  8
_0-0_
 62
    7
 10
8610.77345051068
 20
3041.8280310521431
 40
38.5
 41
1.1818181818181816
 50
0
  1
2
  0
TEXT
  8
_0-0_
 62
    7
 10
1247.6907455472562
 20
5358.7311320754715
 40
28
 41
1
 50
0
  1
●
  0
LINE
  8
_0-0_
  6
CONTINUOUS
 62
    4
 10
5147.9897313510891
 20
2475.7920597484276
 11
5355.2505498325344
 21
2475.7920597484276
  0
TEXT
  8
_0-0_
 62
    7
 10
5147.241653958511
 20
2480.5482881953876
 40
105
 41
0.8333333333333333
 50
0
  1
φ
  0
TEXT
  8
_0-0_
 62
    7
 10
5233.5500798618322
 20
2479.706155150191
 40
105
 41
0.8333333333333333
 50
0
  1
15
  0
LINE
  8
_0-0_
  6
CONTINUOUS
 62
    2
 10
9122.2550503144648
 20
4538.4095911949689
 11
9133.921050314464
 21
4363.4095911949689
  0
LINE
  8
_0-0_
  6
CONTINUOUS
 62
    4
 10
9023.2982174287226
 20
4474.0344996422345
 11
9016.2812496552869
 21
4438.5503687828595
  0
LINE
  8
_0-0_
  6
CONTINUOUS
 62
    4
 10
9023.2982174287226
 20
4474.0344996422345
 11
9035.0049435029432
 21
4439.6739039391095
  0
LINE
  8
_0-0_
  6
CONTINUOUS
 62
    4
 10
9023.2982174287226
 20
4474.0344996422345
 11
9026.9568477998163
 21
4419.1551051109845
  0
LINE
  8
_0-0_
  6
CONTINUOUS
 62
    4
 10
8757.8535915742322
 20
4720.7947688072736
 11
8667.500503195326
 21
4486.4483370750958
  0
LINE
  8
_0-0_
  6
CONTINUOUS
 62
    4
 10
8667.500503195326
 20
4486.4483370750958
 11
8673.0650783906385
 21
4538.6526833742673
  0
LINE
  8
_0-0_
  6
CONTINUOUS
 62
    4
 10
8667.500503195326
 20
4486.4483370750958
 11
8698.4217068086072
 21
4528.8763165443942
  0
LINE
  8
_0-0_
  6
CONTINUOUS
 62
    4
 10
8757.8535915742322
 20
4720.7947688072736
 11
9051.7633587251093
 21
4720.7947688072736
  0
TEXT
  8
_0-0_
 62
    7
 10
8787.130386007826
 20
4726.5618433922345
 40
87.5
 41
0.7199999999999999
 50
0
  1
シール溝
  0
LINE
  8
_0-0_
  6
CONTINUOUS
 62
    4
 10
9012.0330273042127
 20
4643.0154948204562
 11
9019.4180981049939
 21
4532.2396182983929
  0
LINE
  8
_0-0_
  6
CONTINUOUS
 62
    4
 10
9019.4180981049939
 20
4532.2396182983929
 11
9007.7113720307734
 21
4566.5999693840558
  0
LINE
  8
_0-0_
  6
CONTINUOUS
 62
    4
 10
9019.4180981049939
 20
4532.2396182983929
 11
9026.4350048432734
 21
4567.7235045403058
  0
TEXT
  8
_0-0_
 62
    7
 10
9012.4702766156933
 20
4563.067607269133
 40
105
 41
0.8333333333333333
 50
93.999999890000097
  1
50
  0
LINE
  8
_0-0_
  6
CONTINUOUS
 62
    4
 10
1461.6907455472567
 20
2856.8813405323489
 11
1026.6907455472562
 21
2856.8813405323489
  0
LINE
  8
_0-0_
  6
CONTINUOUS
 62
    4
 10
1061.6907455472571
 20
3856.8813405323489
 11
1061.6907455472571
 21
2856.8813405323489
  0
LINE
  8
_0-0_
  6
CONTINUOUS
 62
    4
 10
1061.6907455472571
 20
2856.8813405323489
 11
1048.1027456793747
 21
2907.592446412525
  0
LINE
  8
_0-0_
  6
CONTINUOUS
 62
    4
 10
1061.6907455472571
 20
2856.8813405323489
 11
1075.2787454151396
 21
2907.592446412525
  0
TEXT
  8
_0-0_
 62
    7
 10
1054.1907455472569
 20
3261.506340532348
 40
105
 41
0.8333333333333333
 50
90
  1
1000
  0
LINE
  8
_0-0_
  6
CONTINUOUS
 62
    4
 10
1261.6907455472564
 20
2851.8813405323489
 11
1275.2787454151389
 21
2801.1702346521728
  0
LINE
  8
_0-0_
  6
CONTINUOUS
 62
    4
 10
1261.6907455472564
 20
2851.8813405323489
 11
1248.102745679374
 21
2801.1702346521728
  0
TEXT
  8
_0-0_
 62
    7
 10
1254.3730619640809
 20
2698.5053200995225
 40
105
 41
0.8333333333333333
 50
90
  1
35
  0
LINE
  8
_0-0_
  6
CONTINUOUS
 62
    4
 10
1261.6907455472564
 20
2986.8813405323489
 11
1261.6907455472564
 21
2886.8813405323489
  0
LINE
  8
_0-0_
  6
CONTINUOUS
 62
    4
 10
1261.6907455472564
 20
2886.8813405323489
 11
1248.102745679374
 21
2937.592446412525
  0
LINE
  8
_0-0_
  6
CONTINUOUS
 62
    4
 10
1261.6907455472564
 20
2886.8813405323489
 11
1275.2787454151389
 21
2937.592446412525
  0
LINE
  8
_0-0_
  6
CONTINUOUS
 62
    4
 10
1461.6907455472567
 20
2886.8813405323489
 11
1226.6907455472564
 21
2886.8813405323489
  0
LINE
  8
_0-0_
  6
CONTINUOUS
 62
    4
 10
1261.6907455472564
 20
2851.8813405323489
 11
1261.6907455472564
 21
2691.8813405323485
  0
LINE
  8
_0-0_
  6
CONTINUOUS
 62
    4
 10
1496.6907455472567
 20
2386.881340532348
 11
1326.6907455472567
 21
2386.881340532348
  0
LINE
  8
_0-0_
  6
CONTINUOUS
 62
    4
 10
1496.6907455472567
 20
2386.881340532348
 11
1445.9796396670803
 21
2373.2933406644656
  0
LINE
  8
_0-0_
  6
CONTINUOUS
 62
    4
 10
1496.6907455472567
 20
2386.881340532348
 11
1445.9796396670803
 21
2400.4693404002305
  0
LINE
  8
_0-0_
  6
CONTINUOUS
 62
    4
 10
1496.6907455472567
 20
2816.8813405323489
 11
1496.6907455472567
 21
2351.881340532348
  0
TEXT
  8
_0-0_
 62
    7
 10
1349.1907455472564
 20
2394.3813405323485
 40
105
 41
0.8333333333333333
 50
0
  1
35
  0
LINE
  8
_0-0_
  6
CONTINUOUS
 62
    4
 10
1531.6907455472567
 20
2386.881340532348
 11
1582.4018514274321
 21
2400.4693404002305
  0
LINE
  8
_0-0_
  6
CONTINUOUS
 62
    4
 10
1531.6907455472567
 20
2386.881340532348
 11
1582.4018514274321
 21
2373.2933406644656
  0
LINE
  8
_0-0_
  6
CONTINUOUS
 62
    4
 10
1631.6907455472569
 20
2386.881340532348
 11
1531.6907455472567
 21
2386.881340532348
  0
LINE
  8
_0-0_
  6
CONTINUOUS
 62
    4
 10
1531.6907455472567
 20
2816.8813405323489
 11
1531.6907455472567
 21
2351.881340532348
  0
LINE
  8
_0-0_
  6
CONTINUOUS
 62
    4
 10
2241.6907455472569
 20
2851.8813405323485
 11
2479.6907455472564
 21
2851.8813405323485
  0
LINE
  8
_0-0_
  6
CONTINUOUS
 62
    4
 10
2171.6907455472569
 20
2816.8813405323489
 11
2171.6907455472569
 21
2351.881340532348
  0
LINE
  8
_0-0_
  6
CONTINUOUS
 62
    4
 10
2206.6907455472569
 20
2816.8813405323489
 11
2206.6907455472569
 21
2351.881340532348
  0
TEXT
  8
_0-0_
 62
    7
 10
2269.7380741340866
 20
2394.993260605951
 40
105
 41
0.8333333333333333
 50
0
  1
35
  0
LINE
  8
_0-0_
  6
CONTINUOUS
 62
    4
 10
2376.6907455472569
 20
2386.881340532348
 11
2206.6907455472569
 21
2386.881340532348
  0
LINE
  8
_0-0_
  6
CONTINUOUS
 62
    4
 10
2206.6907455472569
 20
2386.881340532348
 11
2257.4018514274325
 21
2400.4693404002305
  0
LINE
  8
_0-0_
  6
CONTINUOUS
 62
    4
 10
2206.6907455472569
 20
2386.881340532348
 11
2257.4018514274325
 21
2373.2933406644656
  0
LINE
  8
_0-0_
  6
CONTINUOUS
 62
    4
 10
2171.6907455472569
 20
2386.881340532348
 11
2120.9796396670803
 21
2400.4693404002305
  0
LINE
  8
_0-0_
  6
CONTINUOUS
 62
    4
 10
2171.6907455472569
 20
2386.881340532348
 11
2071.6907455472569
 21
2386.881340532348
  0
LINE
  8
_0-0_
  6
CONTINUOUS
 62
    4
 10
2171.6907455472569
 20
2386.881340532348
 11
2120.9796396670803
 21
2373.2933406644656
  0
LINE
  8
_0-0_
  6
CONTINUOUS
 62
    2
 10
2206.6907455472569
 20
2856.8813405323489
 11
1496.6907455472567
 21
2856.8813405323489
  0
LINE
  8
_0-0_
  6
CONTINUOUS
 62
    5
 10
1521.6907455472564
 20
2886.8813405323489
 11
2181.6907455472573
 21
2886.8813405323489
  0
LINE
  8
_0-0_
  6
CONTINUOUS
 62
    4
 10
1766.0557953601523
 20
2619.0546895889519
 11
2059.9655794980471
 21
2619.0546895889519
  0
TEXT
  8
_0-0_
 62
    7
 10
1775.5278147900107
 20
2624.8740512069848
 40
87.5
 41
0.7199999999999999
 50
0
  1
シール溝
  0
LINE
  8
_0-0_
  6
CONTINUOUS
 62
    4
 10
2059.9612703215861
 20
2851.881340532348
 11
2046.3732704537039
 21
2801.1702346521719
  0
LINE
  8
_0-0_
  6
CONTINUOUS
 62
    4
 10
2059.9612703215861
 20
2851.881340532348
 11
2073.5492701894686
 21
2801.1702346521719
  0
LINE
  8
_0-0_
  6
CONTINUOUS
 62
    4
 10
2059.9612703215861
 20
2851.881340532348
 11
2059.9612703215861
 21
2619.0546895889519
  0
LINE
  8
_0-0_
  6
CONTINUOUS
 62
    2
 10
1521.6907455472564
 20
2933.1840551643422
 11
1496.6882958054497
 21
2933.1840551643422
  0
LINE
  8
_0-0_
  6
CONTINUOUS
 62
    2
 10
1521.6907455472564
 20
2933.1840551643422
 11
1521.6907455472564
 21
2921.1840551643422
  0
LINE
  8
_0-0_
  6
CONTINUOUS
 62
    2
 10
1521.6907455472564
 20
2921.1840551643422
 11
1496.6882958054497
 21
2921.1840551643422
  0
LINE
  8
_0-0_
  6
CONTINUOUS
 62
    4
 10
2241.6907455472569
 20
2856.881340532348
 11
2479.6907455472564
 21
2856.881340532348
  0
TEXT
  8
_0-0_
 62
    7
 10
2440.7850320331208
 20
2740.279167680786
 40
105
 41
0.8333333333333333
 50
90
  1
5
  0
LINE
  8
_0-0_
  6
CONTINUOUS
 62
    4
 10
2444.8247201434719
 20
2721.881340532348
 11
2444.8247201434719
 21
2851.8813405323485
  0
LINE
  8
_0-0_
  6
CONTINUOUS
 62
    4
 10
2444.8247201434719
 20
2851.8813405323485
 11
2458.4127200113539
 21
2801.1702346521724
  0
LINE
  8
_0-0_
  6
CONTINUOUS
 62
    4
 10
2444.8247201434719
 20
2851.8813405323485
 11
2431.2367202755895
 21
2801.1702346521724
  0
LINE
  8
_0-0_
  6
CONTINUOUS
 62
    4
 10
2444.8247201434719
 20
2856.881340532348
 11
2431.2367202755895
 21
2907.5924464125241
  0
LINE
  8
_0-0_
  6
CONTINUOUS
 62
    4
 10
2444.8247201434719
 20
2856.881340532348
 11
2458.4127200113539
 21
2907.5924464125241
  0
LINE
  8
_0-0_
  6
CONTINUOUS
 62
    4
 10
2444.8247201434719
 20
2856.881340532348
 11
2444.8247201434719
 21
2947.3813405323485
  0
LINE
  8
_0-0_
  6
CONTINUOUS
 62
    2
 10
1496.6907455472567
 20
3856.8813405323489
 11
1496.6907455472567
 21
2851.8813405323489
  0
LINE
  8
_0-0_
  6
CONTINUOUS
 62
    2
 10
2196.6907455472564
 20
3856.8813405323489
 11
2196.6907455472564
 21
2851.8813405323489
  0
LINE
  8
_0-0_
  6
CONTINUOUS
 62
    2
 10
2206.6907455472569
 20
2851.8813405323489
 11
1496.6907455472567
 21
2851.8813405323489
  0
LINE
  8
_0-0_
  6
CONTINUOUS
 62
    2
 10
2206.6907455472569
 20
3856.8813405323489
 11
2206.6907455472569
 21
2851.8813405323489
  0
LINE
  8
_0-0_
  6
CONTINUOUS
 62
    5
 10
1531.6907455472567
 20
3831.8813405323489
 11
1531.6907455472567
 21
2876.8813405323485
  0
LINE
  8
_0-0_
  6
CONTINUOUS
 62
    5
 10
1691.6907455472567
 20
3831.8813405323489
 11
1691.6907455472567
 21
2876.8813405323485
  0
LINE
  8
_0-0_
  6
CONTINUOUS
 62
    5
 10
1851.6907455472567
 20
3831.8813405323489
 11
1851.6907455472567
 21
2876.8813405323485
  0
LINE
  8
_0-0_
  6
CONTINUOUS
 62
    5
 10
2011.6907455472564
 20
3831.8813405323489
 11
2011.6907455472564
 21
2876.8813405323485
  0
LINE
  8
_0-0_
  6
CONTINUOUS
 62
    5
 10
2171.6907455472569
 20
3831.8813405323489
 11
2171.6907455472569
 21
2876.8813405323485
  0
LINE
  8
_0-0_
  6
CONTINUOUS
 62
    5
 10
1521.6907455472564
 20
3705.0063405323489
 11
2181.6907455472573
 21
3705.0063405323489
  0
LINE
  8
_0-0_
  6
CONTINUOUS
 62
    5
 10
1521.6907455472564
 20
3588.1313405323489
 11
2181.6907455472573
 21
3588.1313405323489
  0
LINE
  8
_0-0_
  6
CONTINUOUS
 62
    5
 10
1521.6907455472564
 20
3471.2563405323489
 11
2181.6907455472573
 21
3471.2563405323489
  0
LINE
  8
_0-0_
  6
CONTINUOUS
 62
    5
 10
1521.6907455472564
 20
3354.3813405323489
 11
2181.6907455472573
 21
3354.3813405323489
  0
LINE
  8
_0-0_
  6
CONTINUOUS
 62
    5
 10
1521.6907455472564
 20
3237.5063405323489
 11
2181.6907455472573
 21
3237.5063405323489
  0
LINE
  8
_0-0_
  6
CONTINUOUS
 62
    5
 10
1521.6907455472564
 20
3120.6313405323489
 11
2181.6907455472573
 21
3120.6313405323489
  0
LINE
  8
_0-0_
  6
CONTINUOUS
 62
    5
 10
1521.6907455472564
 20
3003.7563405323485
 11
2181.6907455472573
 21
3003.7563405323485
  0
TEXT
  8
_0-0_
 62
    7
 10
1305.9062610333919
 20
3184.9297584959867
 40
105
 41
0.8333333333333333
 50
90
  1
9-D10
  0
LINE
  8
_0-0_
  6
CONTINUOUS
 62
    4
 10
1311.6907455472569
 20
3435.6463169083503
 11
1311.6907455472569
 21
3179.0688405323485
  0
LINE
  8
_0-0_
  6
CONTINUOUS
 62
    4
 10
1311.6907455472569
 20
3179.0688405323485
 11
1531.6907455472567
 21
3179.0688405323485
  0
LINE
  8
_0-0_
  6
CONTINUOUS
 62
    4
 10
1531.6907455472567
 20
3179.0688405323485
 11
1691.6907455472567
 21
3179.0688405323485
  0
LINE
  8
_0-0_
  6
CONTINUOUS
 62
    4
 10
1691.6907455472567
 20
3179.0688405323485
 11
1741.6907455472567
 21
3179.0688405323485
  0
ARC
  8
_0-0_
  6
CONTINUOUS
 62
    4
 10
1741.6907455472567
 20
3209.0688405323489
 40
30
 50
270
 51
0
  0
ARC
  8
_0-0_
  6
CONTINUOUS
 62
    4
 10
1741.6907455472567
 20
3149.0688405323489
 40
30
 50
0
 51
90
  0
LINE
  8
_0-0_
  6
CONTINUOUS
 62
    4
 10
1771.6907455472564
 20
3209.0688405323489
 11
1771.6907455472564
 21
3237.5063405323489
  0
LINE
  8
_0-0_
  6
CONTINUOUS
 62
    4
 10
1771.6907455472564
 20
3237.5063405323489
 11
1763.6522705106356
 21
3207.5063405323485
  0
LINE
  8
_0-0_
  6
CONTINUOUS
 62
    4
 10
1771.6907455472564
 20
3237.5063405323489
 11
1779.7292205838775
 21
3207.5063405323485
  0
LINE
  8
_0-0_
  6
CONTINUOUS
 62
    4
 10
1771.6907455472564
 20
3149.0688405323489
 11
1771.6907455472564
 21
3120.6313405323489
  0
LINE
  8
_0-0_
  6
CONTINUOUS
 62
    4
 10
1771.6907455472564
 20
3150.6313405323485
 11
1771.6907455472564
 21
3150.9438405323489
  0
LINE
  8
_0-0_
  6
CONTINUOUS
 62
    4
 10
1771.6907455472564
 20
3120.6313405323489
 11
1779.7292205838775
 21
3150.6313405323485
  0
LINE
  8
_0-0_
  6
CONTINUOUS
 62
    4
 10
1771.6907455472564
 20
3120.6313405323489
 11
1763.6522705106356
 21
3150.6313405323485
  0
LINE
  8
_0-0_
  6
CONTINUOUS
 62
    4
 10
1771.6907455472564
 20
3237.5063405323489
 11
1771.6907455472564
 21
3354.3813405323489
  0
LINE
  8
_0-0_
  6
CONTINUOUS
 62
    4
 10
1771.6907455472564
 20
3354.3813405323489
 11
1771.6907455472564
 21
3471.2563405323489
  0
LINE
  8
_0-0_
  6
CONTINUOUS
 62
    4
 10
1771.6907455472564
 20
3471.2563405323489
 11
1771.6907455472564
 21
3588.1313405323489
  0
LINE
  8
_0-0_
  6
CONTINUOUS
 62
    4
 10
1771.6907455472564
 20
3588.1313405323489
 11
1771.6907455472564
 21
3705.0063405323489
  0
LINE
  8
_0-0_
  6
CONTINUOUS
 62
    4
 10
1771.6907455472564
 20
3705.0063405323489
 11
1771.6907455472564
 21
3821.8813405323489
  0
LINE
  8
_0-0_
  6
CONTINUOUS
 62
    4
 10
1771.6907455472564
 20
3120.6313405323489
 11
1771.6907455472564
 21
3003.7563405323485
  0
LINE
  8
_0-0_
  6
CONTINUOUS
 62
    4
 10
1771.6907455472564
 20
3003.7563405323485
 11
1771.6907455472564
 21
2886.8813405323489
  0
LINE
  8
_0-0_
  6
CONTINUOUS
 62
    4
 10
1771.6907455472564
 20
2886.8813405323489
 11
1758.102745679374
 21
2937.592446412525
  0
LINE
  8
_0-0_
  6
CONTINUOUS
 62
    4
 10
1771.6907455472564
 20
2886.8813405323489
 11
1785.2787454151389
 21
2937.592446412525
  0
LINE
  8
_0-0_
  6
CONTINUOUS
 62
    4
 10
1771.6907455472564
 20
3003.7563405323485
 11
1758.102745679374
 21
3054.4674464125246
  0
LINE
  8
_0-0_
  6
CONTINUOUS
 62
    4
 10
1771.6907455472564
 20
3003.7563405323485
 11
1785.2787454151389
 21
3054.4674464125246
  0
LINE
  8
_0-0_
  6
CONTINUOUS
 62
    4
 10
1771.6907455472564
 20
3354.3813405323489
 11
1785.2787454151389
 21
3303.6702346521724
  0
LINE
  8
_0-0_
  6
CONTINUOUS
 62
    4
 10
1771.6907455472564
 20
3354.3813405323489
 11
1758.102745679374
 21
3303.6702346521724
  0
LINE
  8
_0-0_
  6
CONTINUOUS
 62
    4
 10
1771.6907455472564
 20
3471.2563405323489
 11
1785.2787454151389
 21
3420.5452346521728
  0
LINE
  8
_0-0_
  6
CONTINUOUS
 62
    4
 10
1771.6907455472564
 20
3471.2563405323489
 11
1758.102745679374
 21
3420.5452346521728
  0
LINE
  8
_0-0_
  6
CONTINUOUS
 62
    4
 10
1771.6907455472564
 20
3588.1313405323489
 11
1785.2787454151389
 21
3537.4202346521724
  0
LINE
  8
_0-0_
  6
CONTINUOUS
 62
    4
 10
1771.6907455472564
 20
3588.1313405323489
 11
1758.102745679374
 21
3537.4202346521724
  0
LINE
  8
_0-0_
  6
CONTINUOUS
 62
    4
 10
1771.6907455472564
 20
3705.0063405323489
 11
1785.2787454151389
 21
3654.2952346521728
  0
LINE
  8
_0-0_
  6
CONTINUOUS
 62
    4
 10
1771.6907455472564
 20
3705.0063405323489
 11
1758.102745679374
 21
3654.2952346521728
  0
LINE
  8
_0-0_
  6
CONTINUOUS
 62
    4
 10
1771.6907455472564
 20
3821.8813405323489
 11
1785.2787454151389
 21
3771.1702346521728
  0
LINE
  8
_0-0_
  6
CONTINUOUS
 62
    4
 10
1771.6907455472564
 20
3821.8813405323489
 11
1758.102745679374
 21
3771.1702346521728
  0
LINE
  8
_0-0_
  6
CONTINUOUS
 62
    4
 10
1531.6907455472567
 20
3072.1938405323489
 11
1691.6907455472567
 21
3072.1938405323489
  0
LINE
  8
_0-0_
  6
CONTINUOUS
 62
    4
 10
1691.6907455472567
 20
3072.1938405323489
 11
1851.6907455472567
 21
3072.1938405323489
  0
LINE
  8
_0-0_
  6
CONTINUOUS
 62
    4
 10
1851.6907455472567
 20
3072.1938405323489
 11
2011.6907455472564
 21
3072.1938405323489
  0
LINE
  8
_0-0_
  6
CONTINUOUS
 62
    4
 10
2011.6907455472564
 20
3072.1938405323489
 11
2171.6907455472569
 21
3072.1938405323489
  0
LINE
  8
_0-0_
  6
CONTINUOUS
 62
    4
 10
2171.6907455472569
 20
3072.1938405323489
 11
2441.5355345227008
 21
3072.1938405323489
  0
LINE
  8
_0-0_
  6
CONTINUOUS
 62
    4
 10
1531.6907455472567
 20
3072.1938405323489
 11
1582.4018514274328
 21
3085.7818404002314
  0
LINE
  8
_0-0_
  6
CONTINUOUS
 62
    4
 10
1531.6907455472567
 20
3072.1938405323489
 11
1582.4018514274328
 21
3058.6058406644665
  0
LINE
  8
_0-0_
  6
CONTINUOUS
 62
    4
 10
1691.6907455472567
 20
3072.1938405323489
 11
1742.4018514274325
 21
3085.7818404002314
  0
LINE
  8
_0-0_
  6
CONTINUOUS
 62
    4
 10
1691.6907455472567
 20
3072.1938405323489
 11
1742.4018514274325
 21
3058.6058406644665
  0
LINE
  8
_0-0_
  6
CONTINUOUS
 62
    4
 10
1851.6907455472567
 20
3072.1938405323489
 11
1902.4018514274325
 21
3085.7818404002314
  0
LINE
  8
_0-0_
  6
CONTINUOUS
 62
    4
 10
1851.6907455472567
 20
3072.1938405323489
 11
1902.4018514274325
 21
3058.6058406644665
  0
LINE
  8
_0-0_
  6
CONTINUOUS
 62
    4
 10
2011.6907455472564
 20
3072.1938405323489
 11
2062.4018514274325
 21
3085.7818404002314
  0
LINE
  8
_0-0_
  6
CONTINUOUS
 62
    4
 10
2011.6907455472564
 20
3072.1938405323489
 11
2062.4018514274325
 21
3058.6058406644665
  0
LINE
  8
_0-0_
  6
CONTINUOUS
 62
    4
 10
2171.6907455472569
 20
3072.1938405323489
 11
2222.401851427433
 21
3085.7818404002314
  0
LINE
  8
_0-0_
  6
CONTINUOUS
 62
    4
 10
2171.6907455472569
 20
3072.1938405323489
 11
2222.401851427433
 21
3058.6058406644665
  0
TEXT
  8
_0-0_
 62
    7
 10
2433.7330751389681
 20
3119.2851676684049
 40
105
 41
0.8333333333333333
 50
90
  1
5-D10
  0
LINE
  8
_0-0_
  6
CONTINUOUS
 62
    4
 10
2441.5355345227008
 20
3375.0693887072952
 11
2441.5355345227008
 21
3072.1938405323489
  0
LINE
  8
_0-0_
  6
CONTINUOUS
 62
    4
 10
4159.4802809625052
 20
4847.7311320754715
 11
4659.4802809625043
 21
4847.7311320754715
  0
LINE
  8
_0-0_
  6
CONTINUOUS
 62
    4
 10
4159.4802809625052
 20
4847.7311320754715
 11
4210.1913868426809
 21
4861.3191319433544
  0
LINE
  8
_0-0_
  6
CONTINUOUS
 62
    4
 10
4159.4802809625052
 20
4847.7311320754715
 11
4210.1913868426809
 21
4834.1431322075895
  0
LINE
  8
_0-0_
  6
CONTINUOUS
 62
    4
 10
4659.4802809625043
 20
4847.7311320754715
 11
4608.7691750823287
 21
4834.1431322075895
  0
LINE
  8
_0-0_
  6
CONTINUOUS
 62
    4
 10
4659.4802809625043
 20
4847.7311320754715
 11
4608.7691750823287
 21
4861.3191319433544
  0
LINE
  8
_0-0_
  6
CONTINUOUS
 62
    4
 10
4659.4802809625043
 20
4597.7311320754724
 11
4608.7691750823287
 21
4584.1431322075895
  0
LINE
  8
_0-0_
  6
CONTINUOUS
 62
    4
 10
4659.4802809625043
 20
4597.7311320754724
 11
4608.7691750823287
 21
4611.3191319433544
  0
TEXT
  8
_0-0_
 62
    7
 10
4340.3552809625052
 20
4855.2311320754724
 40
105
 41
0.8333333333333333
 50
0
  1
500
  0
LINE
  8
_0-0_
  6
CONTINUOUS
 62
    4
 10
4659.4802809625043
 20
5197.7311320754715
 11
4659.4802809625043
 21
4562.7311320754724
  0
LINE
  8
_0-0_
  6
CONTINUOUS
 62
    4
 10
3659.4802809625052
 20
4597.7311320754724
 11
4659.4802809625043
 21
4597.7311320754724
  0
TEXT
  8
_0-0_
 62
    7
 10
4064.1052809625048
 20
4605.2311320754715
 40
105
 41
0.8333333333333333
 50
0
  1
1000
  0
LINE
  8
_0-0_
  6
CONTINUOUS
 62
    4
 10
3684.2708083062548
 20
5594.9832377883612
 11
3123.3704176812548
 21
5594.9832377883612
  0
LINE
  8
_0-0_
  6
CONTINUOUS
 62
    4
 10
4159.4802962212943
 20
5850.3352885696112
 11
3382.679804888286
 21
5850.3352885696112
  0
LINE
  8
_0-0_
  6
CONTINUOUS
 62
    4
 10
3734.4802962212943
 20
5310.2311473342606
 11
3684.2708083062548
 21
5594.9832377883612
  0
LINE
  8
_0-0_
  6
CONTINUOUS
 62
    4
 10
4159.4802962212943
 20
5312.7311473342597
 11
4159.4802962212943
 21
5850.3352885696112
  0
LINE
  8
_0-0_
  6
CONTINUOUS
 62
    4
 10
3734.4802962212943
 20
5310.2311473342606
 11
3712.2928356073498
 21
5357.8123052804967
  0
LINE
  8
_0-0_
  6
CONTINUOUS
 62
    4
 10
3734.4802962212943
 20
5310.2311473342606
 11
3739.0559706572698
 21
5362.5313691641531
  0
LINE
  8
_0-0_
  6
CONTINUOUS
 62
    4
 10
4159.4802962212943
 20
5312.7311473342597
 11
4145.8922963534114
 21
5363.4422532144362
  0
LINE
  8
_0-0_
  6
CONTINUOUS
 62
    4
 10
4159.4802962212943
 20
5312.7311473342597
 11
4173.0682960891763
 21
5363.4422532144362
  0
TEXT
  8
_0-0_
 62
    7
 10
3142.3808241753954
 20
5605.1621318313309
 40
105
 41
1
 50
0
  1
ｲﾝｻｰﾄ M12
  0
CIRCLE
  8
_0-0_
  6
CONTINUOUS
 62
    2
 10
4584.4802809625043
 20
5302.7311320754715
 40
7.5
  0
TEXT
  8
_0-0_
 62
    7
 10
4615.7178603719648
 20
5253.3645345001259
 40
17.5
 41
1
 50
0
  1
●
  0
LINE
  8
_0-0_
  6
CONTINUOUS
 62
    4
 10
4654.4802809625043
 20
5752.7311320754724
 11
4603.7691750823278
 21
5766.3191319433544
  0
LINE
  8
_0-0_
  6
CONTINUOUS
 62
    4
 10
4654.4802809625043
 20
5752.7311320754724
 11
4603.7691750823278
 21
5739.1431322075895
  0
LINE
  8
_0-0_
  6
CONTINUOUS
 62
    4
 10
4654.4802809625043
 20
5752.7311320754724
 11
4563.208278984629
 21
5752.7311320754724
  0
LINE
  8
_0-0_
  6
CONTINUOUS
 62
    4
 10
4654.4802809625043
 20
5417.7311320754715
 11
4654.4802809625043
 21
5787.7311320754724
  0
LINE
  8
_0-0_
  6
CONTINUOUS
 62
    4
 10
4659.4802809625043
 20
5417.7311320754715
 11
4659.4802809625043
 21
5787.7311320754724
  0
TEXT
  8
_0-0_
 62
    7
 10
4792.2829244410431
 20
5507.5921914668961
 40
87.5
 41
0.7199999999999999
 50
0
  1
シール溝
  0
LINE
  8
_0-0_
  6
CONTINUOUS
 62
    4
 10
5064.254943870902
 20
5501.7728298488627
 11
4770.3451597330067
 21
5501.7728298488627
  0
TEXT
  8
_0-0_
 62
    7
 10
4726.8324538140668
 20
5756.6368455896072
 40
105
 41
0.8333333333333333
 50
0
  1
5
  0
LINE
  8
_0-0_
  6
CONTINUOUS
 62
    4
 10
4789.4802809625052
 20
5752.7311320754724
 11
4659.4802809625043
 21
5752.7311320754724
  0
LINE
  8
_0-0_
  6
CONTINUOUS
 62
    4
 10
4659.4802809625043
 20
5752.7311320754724
 11
4710.19138684268
 21
5766.3191319433544
  0
LINE
  8
_0-0_
  6
CONTINUOUS
 62
    4
 10
4659.4802809625043
 20
5752.7311320754724
 11
4710.19138684268
 21
5739.1431322075895
  0
LINE
  8
_0-0_
  6
CONTINUOUS
 62
    2
 10
3659.4802809625052
 20
5232.7311320754715
 11
4659.4802809625043
 21
5232.7311320754715
  0
LINE
  8
_0-0_
  6
DASHED1
 62
    2
 10
3659.4802809625052
 20
5382.7311320754715
 11
4654.4802809625043
 21
5382.7311320754715
  0
LINE
  8
_0-0_
  6
DASHED1
 62
    2
 10
3659.4802809625052
 20
5372.7311320754715
 11
4654.4802809625043
 21
5372.7311320754715
  0
LINE
  8
_0-0_
  6
DASHED1
 62
    2
 10
3659.4802809625052
 20
5352.7311320754715
 11
4654.4802809625043
 21
5352.7311320754715
  0
LINE
  8
_0-0_
  6
CONTINUOUS
 62
    2
 10
4654.4802809625043
 20
5392.7311320754715
 11
4654.4802809625043
 21
5347.2311320754715
  0
LINE
  8
_0-0_
  6
CONTINUOUS
 62
    2
 10
4659.4802809625043
 20
5342.2311320754724
 11
4654.4802809625043
 21
5347.2311320754715
  0
LINE
  8
_0-0_
  6
CONTINUOUS
 62
    5
 10
3684.4802809625048
 20
5269.2232969003516
 11
4634.4802809625043
 21
5269.2232969003516
  0
TEXT
  8
_0-0_
 62
    7
 10
4499.4678603719648
 20
5253.3645345001259
 40
17.5
 41
1
 50
0
  1
●
  0
TEXT
  8
_0-0_
 62
    7
 10
4383.2178603719648
 20
5253.3645345001259
 40
17.5
 41
1
 50
0
  1
●
  0
TEXT
  8
_0-0_
 62
    7
 10
4266.9678603719648
 20
5253.3645345001259
 40
17.5
 41
1
 50
0
  1
●
  0
TEXT
  8
_0-0_
 62
    7
 10
4150.7178603719648
 20
5253.3645345001259
 40
17.5
 41
1
 50
0
  1
●
  0
TEXT
  8
_0-0_
 62
    7
 10
4034.4678603719648
 20
5253.3645345001259
 40
17.5
 41
1
 50
0
  1
●
  0
TEXT
  8
_0-0_
 62
    7
 10
3918.2178603719653
 20
5253.3645345001259
 40
17.5
 41
1
 50
0
  1
●
  0
TEXT
  8
_0-0_
 62
    7
 10
3801.9678603719648
 20
5253.3645345001259
 40
17.5
 41
1
 50
0
  1
●
  0
LINE
  8
_0-0_
  6
CONTINUOUS
 62
    6
 10
1969.4799804687504
 20
6235.6383056640625
 11
2532.4167480468754
 21
6235.6383056640625
  0
TEXT
  8
_0-0_
 62
    7
 10
1987.116943359375
 20
6231.9365234375
 40
122.5
 41
1.1428571428571427
 50
0
  1
l=1000
  0
TEXT
  8
_0-0_
 62
    7
 10
3758.5356414298221
 20
1114.0798055489212
 40
105
 41
1
 50
0
  1
0.100
  0
TEXT
  8
_0-0_
 62
    7
 10
3758.5356414298221
 20
969.07980554892242
 40
105
 41
1
 50
0
  1
　239
  0
TEXT
  8
_0-0_
 62
    7
 10
1335.1202429959312
 20
4842.4970185119263
 40
105
 41
0.8333333333333333
 50
0
  1
9-D10
  0
LINE
  8
_0-0_
  6
CONTINUOUS
 62
    4
 10
1599.1624607793671
 20
4834.1431322075895
 11
1315.65418960403
 21
4834.1431322075895
  0
LINE
  8
_0-0_
  6
CONTINUOUS
 62
    2
 10
3659.4802809625052
 20
5392.7311320754715
 11
4659.4802809625043
 21
5392.7311320754715
  0
LINE
  8
_0-0_
  6
CONTINUOUS
 62
    2
 10
4659.4802809625043
 20
5232.7311320754715
 11
4659.4802809625043
 21
5392.7311320754715
  0
LINE
  8
_0-0_
  6
CONTINUOUS
 62
    4
 10
4770.3451597330067
 20
5501.7728298488627
 11
4657.857855219896
 21
5365.9585985452204
  0
LINE
  8
_0-0_
  6
CONTINUOUS
 62
    4
 10
4657.857855219896
 20
5365.9585985452204
 11
4679.7401241226034
 21
5413.6808816807715
  0
LINE
  8
_0-0_
  6
CONTINUOUS
 62
    4
 10
4657.857855219896
 20
5365.9585985452204
 11
4700.6695975498578
 21
5396.3461736158478
  0
TEXT
  8
_0-0_
 62
    7
 10
3395.7988844781298
 20
5860.2049785110175
 40
105
 41
1
 50
0
  1
吊ｲﾝｻｰﾄ 2箇所
  0
LINE
  8
_0-0_
  6
CONTINUOUS
 62
    4
 10
1692.1384763149326
 20
5368.1788628431468
 11
1692.1384763149326
 21
5420.6788628431468
  0
LINE
  8
_0-0_
  6
CONTINUOUS
 62
    4
 10
1692.1384763149326
 20
5368.1788628431468
 11
1718.3884763149326
 21
5413.6451965418309
  0
ENDSEC
  0
EOF
