  0
SECTION
  2
HEADER
  9
$ACADVER
  1
AC1009
  9
$INSBASE
 10
0
 20
0
 30
0
  9
$EXTMIN
 10
0
 20
0
  9
$EXTMAX
 10
10395
 20
7350
  9
$LIMMIN
 10
0
 20
0
  9
$LIMMAX
 10
10395
 20
7350
  9
$LTSCALE
 40
35
  0
ENDSEC
  0
SECTION
  2
TABLES
  0
TABLE
  2
LTYPE
 70
     9
  0
LTYPE
  2
CONTINUOUS
 70
    64
  3
実線
 72
    65
 73
     0
 40
0.0
  0
LTYPE
  2
DASHED1
 70
    64
  3
--  --  --  --  --  --  --  --  
 72
    65
 73
     2
 40
2.5
 49
1.25
 49
-1.25
  0
LTYPE
  2
DASHED2
 70
    64
  3
----    ----    ----    ----    
 72
    65
 73
     2
 40
5.0
 49
2.5
 49
-2.5
  0
LTYPE
  2
DASHED3
 70
    64
  3
------  ------  ------  ------  
 72
    65
 73
     2
 40
5.0
 49
3.75
 49
-1.25
  0
LTYPE
  2
CENTER1
 70
    64
  3
----- - ----- - ----- - ----- - 
 72
    65
 73
     4
 40
10.0
 49
6.25
 49
-1.25
 49
1.25
 49
-1.25
  0
LTYPE
  2
CENTER2
 70
    64
  3
----------  --  ----------  --  
 72
    65
 73
     4
 40
20.0
 49
12.5
 49
-2.5
 49
2.5
 49
-2.5
  0
LTYPE
  2
PHANTOM1
 70
    64
  3
--- - - --- - - --- - - --- - - 
 72
    65
 73
     6
 40
10.0
 49
3.25
 49
-1.25
 49
1.25
 49
-1.25
 49
1.25
 49
-1.25
  0
LTYPE
  2
PHANTOM2
 70
    64
  3
--------  -  -  --------  -  -  
 72
    65
 73
     6
 40
20.0
 49
10.0
 49
-2.5
 49
1.25
 49
-2.5
 49
1.25
 49
-2.5
  0
LTYPE
  2
DOT
 70
    64
  3
-   -   -   -   -   -   -   -   
 72
    65
 73
     2
 40
2.5
 49
0.625
 49
-1.875
  0
LTYPE
  2
DUMMY
 70
    64
  3
ダミー
 72
    65
 73
     0
 40
0.0
  0
LTYPE
  2
RAND1
 70
    64
  3
ランダム線1
 72
    65
 73
     4
 40
10.0
 49
1.0
 49
-2.0
 49
3.0
 49
-4.0
  0
LTYPE
  2
RAND2
 70
    64
  3
ランダム線2
 72
    65
 73
     4
 40
14.0
 49
2.0
 49
-3.0
 49
4.0
 49
-5.0
  0
LTYPE
  2
RAND3
 70
    64
  3
ランダム線3
 72
    65
 73
     4
 40
18.0
 49
3.0
 49
-4.0
 49
5.0
 49
-6.0
  0
LTYPE
  2
RAND4
 70
    64
  3
ランダム線4
 72
    65
 73
     4
 40
22.0
 49
4.0
 49
-5.0
 49
6.0
 49
-7.0
  0
LTYPE
  2
RAND5
 70
    64
  3
ランダム線5
 72
    65
 73
     4
 40
26.0
 49
5.0
 49
-6.0
 49
7.0
 49
-8.0
  0
LTYPE
  2
LONG1
 70
    64
  3
----------  --  ----------  --  
 72
    65
 73
     4
 40
40.0
 49
32.5
 49
-2.5
 49
2.5
 49
-2.5
  0
LTYPE
  2
LONG2
 70
    64
  3
--------  -  -  --------  -  -  
 72
    65
 73
     6
 40
40.0
 49
30.0
 49
-2.5
 49
1.25
 49
-2.5
 49
1.25
 49
-2.5
  0
LTYPE
  2
LONG3
 70
    64
  3
+++++++++++++++..+++++++++++++++
 72
    65
 73
     2
 40
40.0
 49
37.5
 49
-2.5
  0
LTYPE
  2
LONG4
 70
    64
  3
+++++++++++++++..+++++++++++++++
 72
    65
 73
     2
 40
80.0
 49
75.0
 49
-5.0
  0
LTYPE
  2
LONG5
 70
    64
  3
----------  --  ----------  --  
 72
    65
 73
     4
 40
60.0
 49
37.5
 49
-7.5
 49
7.5
 49
-7.5
  0
LTYPE
  2
dashed
 70
   64
  3
-------   -------------   ------
 72
   65
 73
    2
 40
7.5
 49
6
 49
-1.5
  0
LTYPE
  2
dashed_spaced
 70
   64
  3
----        --------        ----
 72
   65
 73
    2
 40
12
 49
6
 49
-6
  0
LTYPE
  2
long_dashed_dotted
 70
   64
  3
------------- --- --------------
 72
   65
 73
    4
 40
15.25
 49
12
 49
-1.5
 49
0.25
 49
-1.5
  0
LTYPE
  2
long_dashed_double-dotted
 70
   64
  3
----------- --- --- ------------
 72
   65
 73
    6
 40
17
 49
12
 49
-1.5
 49
0.25
 49
-1.5
 49
0.25
 49
-1.5
  0
LTYPE
  2
long_dashed_triplicate-dotted
 70
   64
  3
--------- --- --- --- ----------
 72
   65
 73
    8
 40
18.75
 49
12
 49
-1.5
 49
0.25
 49
-1.5
 49
0.25
 49
-1.5
 49
0.25
 49
-1.5
  0
LTYPE
  2
dotted
 70
   64
  3
   -       -       -       -    
 72
   65
 73
    2
 40
1.75
 49
0.25
 49
-1.5
  0
LTYPE
  2
chain
 70
   64
  3
-------------- -- --------------
 72
   65
 73
    4
 40
18.5
 49
12
 49
-1.5
 49
3.5
 49
-1.5
  0
LTYPE
  2
chain_double_dash
 70
   64
  3
------------ -- -- -------------
 72
   65
 73
    6
 40
23.5
 49
12
 49
-1.5
 49
3.5
 49
-1.5
 49
3.5
 49
-1.5
  0
LTYPE
  2
dashed_dotted
 70
   64
  3
-----------     -     ----------
 72
   65
 73
    4
 40
9.25
 49
6
 49
-1.5
 49
0.25
 49
-1.5
  0
LTYPE
  2
double-dashed_dotted
 70
   64
  3
------   -----------   -   -----
 72
   65
 73
    6
 40
16.75
 49
6
 49
-1.5
 49
6
 49
-1.5
 49
0.25
 49
-1.5
  0
LTYPE
  2
dashed_double-dotted
 70
   64
  3
---------    -    -    ---------
 72
   65
 73
    6
 40
11
 49
6
 49
-1.5
 49
0.25
 49
-1.5
 49
0.25
 49
-1.5
  0
LTYPE
  2
double-dashed_double-dotted
 70
   64
  3
-----   ---------   -   -   ----
 72
   65
 73
    8
 40
18.5
 49
6
 49
-1.5
 49
6
 49
-1.5
 49
0.25
 49
-1.5
 49
0.25
 49
-1.5
  0
LTYPE
  2
dashed_triplicate-dotted
 70
   64
  3
-------    -    -    -    ------
 72
   65
 73
    8
 40
12.75
 49
6
 49
-1.5
 49
0.25
 49
-1.5
 49
0.25
 49
-1.5
 49
0.25
 49
-1.5
  0
LTYPE
  2
double-dashed_triplicate-dotted
 70
   64
  3
-----  ---------  -  -  -  -----
 72
   65
 73
   10
 40
20.25
 49
6
 49
-1.5
 49
6
 49
-1.5
 49
0.25
 49
-1.5
 49
0.25
 49
-1.5
 49
0.25
 49
-1.5
  0
LTYPE
  2
undefined
 70
   64
  3
--------------------------------
 72
   65
 73
    0
 40
0
  0
LTYPE
  2
_
 70
   64
  3
                                
 72
   65
 73
    0
 40
0
  0
LTYPE
  2
__18
 70
   64
  3
                                
 72
   65
 73
    0
 40
0
  0
LTYPE
  2
__19
 70
   64
  3
                                
 72
   65
 73
    0
 40
0
  0
LTYPE
  2
__20
 70
   64
  3
                                
 72
   65
 73
    0
 40
0
  0
LTYPE
  2
__21
 70
   64
  3
                                
 72
   65
 73
    0
 40
0
  0
LTYPE
  2
__22
 70
   64
  3
                                
 72
   65
 73
    0
 40
0
  0
LTYPE
  2
__23
 70
   64
  3
                                
 72
   65
 73
    0
 40
0
  0
LTYPE
  2
__24
 70
   64
  3
                                
 72
   65
 73
    0
 40
0
  0
LTYPE
  2
__25
 70
   64
  3
                                
 72
   65
 73
    0
 40
0
  0
LTYPE
  2
__26
 70
   64
  3
                                
 72
   65
 73
    0
 40
0
  0
LTYPE
  2
__27
 70
   64
  3
                                
 72
   65
 73
    0
 40
0
  0
LTYPE
  2
__28
 70
   64
  3
                                
 72
   65
 73
    0
 40
0
  0
LTYPE
  2
__29
 70
   64
  3
                                
 72
   65
 73
    0
 40
0
  0
LTYPE
  2
__30
 70
   64
  3
                                
 72
   65
 73
    0
 40
0
  0
LTYPE
  2
__31
 70
   64
  3
                                
 72
   65
 73
    0
 40
0
  0
LTYPE
  2
__32
 70
   64
  3
                                
 72
   65
 73
    0
 40
0
  0
ENDTAB
  0
TABLE
  2
STYLE
  5
3
100
AcDbSymbolTable
 70
     1
  0
STYLE
  5
10
100
AcDbSymbolTableRecord
100
AcDbTextStyleTableRecord
  2
STANDARD
 70
     0
 40
0.0
 41
1.0
 50
0.0
 71
     0
 42
0.2
  3
txt
  4
bigfont.shx
  0
STYLE
  5
26
100
AcDbSymbolTableRecord
100
AcDbTextStyleTableRecord
  2
TATEGAKI
 70
    68
 40
0.0
 41
1.0
 50
0.0
 71
     0
 42
1.0
  3
txt
  4
bigfont.shx
  0
ENDTAB
  0
TABLE
  2
LAYER
 70
    2
  0
LAYER
  2
_0-0_
 70
   64
 62
    7
  6
CONTINUOUS
  0
LAYER
  2
ADD_LINE
 70
   64
 62
    7
  6
CONTINUOUS
  0
ENDTAB
  0
ENDSEC
  0
SECTION
  2
BLOCKS
  0
ENDSEC
  0
SECTION
  2
ENTITIES
  0
TEXT
  8
_0-0_
 62
    7
 10
1936.7100922517261
 20
3543.0701947429552
 40
17.5
 41
1
 50
0
  1
●
  0
LINE
  8
_0-0_
  6
CONTINUOUS
 62
    5
 10
1461.6907455472567
 20
2354.1759390000479
 11
1461.6907455472567
 21
1404.1759390000484
  0
LINE
  8
_0-0_
  6
CONTINUOUS
 62
    2
 10
1631.6907365540739
 20
3634.228812739534
 11
2131.6907365540737
 21
3664.2288127395345
  0
TEXT
  8
_0-0_
 62
    7
 10
7854.6360759493663
 20
1625.4367088607589
 40
98
 41
1
 50
0
  1
試験項目
  0
TEXT
  8
_0-0_
 62
    7
 10
8504.6360759493672
 20
1625.4367088607589
 40
98
 41
1
 50
0
  1
規格値・
  0
TEXT
  8
_0-0_
 62
    7
 10
7854.6360759493663
 20
2544.0443037974678
 40
98
 41
1
 50
0
  1
試験項目
  0
TEXT
  8
_0-0_
 62
    7
 10
9206.8860759493672
 20
2386.7943037974678
 40
87.5
 41
1
 50
0
  1
JIS K 6767
  0
TEXT
  8
_0-0_
 62
    7
 10
9206.8860759493672
 20
2086.7943037974678
 40
87.5
 41
1
 50
0
  1
JIS K 6767
  0
TEXT
  8
_0-0_
 62
    7
 10
9206.8860759493672
 20
2236.7943037974678
 40
87.5
 41
1
 50
0
  1
JIS K 6767
  0
TEXT
  8
_0-0_
 62
    7
 10
7875.6360759493672
 20
2386.7943037974678
 40
87.5
 41
1
 50
0
  1
引張強さ
  0
TEXT
  8
_0-0_
 62
    7
 10
7919.3860759493672
 20
2236.7943037974678
 40
87.5
 41
1
 50
0
  1
伸び率
  0
TEXT
  8
_0-0_
 62
    7
 10
7985.6360759493682
 20
2086.7943037974678
 40
87.5
 41
0.8
 50
0
  1
圧縮硬さ
  0
TEXT
  8
_0-0_
 62
    7
 10
7835.6360759493663
 20
2086.7943037974678
 40
87.5
 41
1
 50
0
  1
50%
  0
TEXT
  8
_0-0_
 62
    7
 10
8344.3860759493672
 20
2386.7943037974678
 40
87.5
 41
1
 50
0
  1
kgf/cm
  0
TEXT
  8
_0-0_
 62
    7
 10
8344.3860759493672
 20
2086.7943037974678
 40
87.5
 41
1
 50
0
  1
kgf/cm
  0
TEXT
  8
_0-0_
 62
    7
 10
8431.8860759493672
 20
2236.7943037974678
 40
87.5
 41
1
 50
0
  1
％
  0
TEXT
  8
_0-0_
 62
    7
 10
8744.3860759493672
 20
2086.7943037974678
 40
87.5
 41
1
 50
0
  1
0.5
  0
TEXT
  8
_0-0_
 62
    7
 10
8744.3860759493672
 20
2236.7943037974678
 40
87.5
 41
1
 50
0
  1
100
  0
TEXT
  8
_0-0_
 62
    7
 10
8744.3860759493672
 20
2386.7943037974678
 40
87.5
 41
1
 50
0
  1
0.5
  0
TEXT
  8
_0-0_
 62
    7
 10
8895.6360759493672
 20
2086.7943037974678
 40
87.5
 41
0.8
 50
0
  1
以下
  0
TEXT
  8
_0-0_
 62
    7
 10
8895.6360759493672
 20
2236.7943037974678
 40
87.5
 41
0.8
 50
0
  1
以上
  0
TEXT
  8
_0-0_
 62
    7
 10
8895.6360759493672
 20
2386.7943037974678
 40
87.5
 41
0.8
 50
0
  1
以上
  0
TEXT
  8
_0-0_
 62
    7
 10
7842.7616033755284
 20
2711.0189873417716
 40
105
 41
1
 50
0
  1
一般物性
  0
LINE
  8
_0-0_
  6
CONTINUOUS
 62
    3
 10
7800.6360759493663
 20
2680.5443037974682
 11
9750.6360759493672
 21
2680.5443037974682
  0
LINE
  8
_0-0_
  6
CONTINUOUS
 62
    3
 10
8300.6360759493672
 20
2055.5443037974682
 11
8300.6360759493672
 21
2680.5443037974682
  0
LINE
  8
_0-0_
  6
CONTINUOUS
 62
    3
 10
7800.6360759493663
 20
2505.5443037974682
 11
9750.6360759493672
 21
2505.5443037974682
  0
LINE
  8
_0-0_
  6
CONTINUOUS
 62
    3
 10
7800.6360759493663
 20
2355.5443037974678
 11
9750.6360759493672
 21
2355.5443037974678
  0
LINE
  8
_0-0_
  6
CONTINUOUS
 62
    3
 10
7800.6360759493663
 20
2205.5443037974678
 11
9750.6360759493672
 21
2205.5443037974678
  0
LINE
  8
_0-0_
  6
CONTINUOUS
 62
    3
 10
7800.6360759493663
 20
2055.5443037974682
 11
9750.6360759493672
 21
2055.5443037974682
  0
LINE
  8
_0-0_
  6
CONTINUOUS
 62
    3
 10
7800.6360759493663
 20
2055.5443037974682
 11
7800.6360759493663
 21
2680.5443037974682
  0
LINE
  8
_0-0_
  6
CONTINUOUS
 62
    3
 10
8660.6360759493672
 20
2055.5443037974682
 11
8660.6360759493672
 21
2680.5443037974682
  0
LINE
  8
_0-0_
  6
CONTINUOUS
 62
    3
 10
9100.6360759493672
 20
2055.5443037974682
 11
9100.6360759493672
 21
2680.5443037974682
  0
LINE
  8
_0-0_
  6
CONTINUOUS
 62
    3
 10
9750.6360759493672
 20
2055.5443037974682
 11
9750.6360759493672
 21
2680.5443037974682
  0
LINE
  8
_0-0_
  6
CONTINUOUS
 62
    3
 10
7800.6360759493663
 20
1586.9367088607591
 11
9750.6360759493672
 21
1586.9367088607591
  0
LINE
  8
_0-0_
  6
CONTINUOUS
 62
    3
 10
7800.6360759493663
 20
1761.9367088607591
 11
9750.6360759493672
 21
1761.9367088607591
  0
TEXT
  8
_0-0_
 62
    7
 10
9131.6360759493672
 20
1348.1867088607586
 40
87.5
 41
1.1199999999999998
 50
0
  1
ｻﾝｼｬｲﾝｶｰﾎﾞﾝ･
  0
TEXT
  8
_0-0_
 62
    7
 10
9543.6360759493527
 20
1464.8533755274256
 40
87.5
 41
0.7199999999999999
 50
0
  1
による
  0
TEXT
  8
_0-0_
 62
    7
 10
9130.8860759493582
 20
1464.8533755274256
 40
87.5
 41
0.9199999999999999
 50
0
  1
JIS K 6266
  0
TEXT
  8
_0-0_
 62
    7
 10
7919.3860759493672
 20
1464.8533755274256
 40
87.5
 41
1
 50
0
  1
耐候性
  0
TEXT
  8
_0-0_
 62
    7
 10
8338.3860759493672
 20
1348.1867088607586
 40
87.5
 41
0.7199999999999999
 50
0
  1
亀裂､削れ等異常なきこと
  0
TEXT
  8
_0-0_
 62
    7
 10
9316.2610759493672
 20
1226.5200421940921
 40
87.5
 41
1
 50
0
  1
1000H
  0
LINE
  8
_0-0_
  6
CONTINUOUS
 62
    3
 10
7800.6360759493663
 20
1196.9367088607591
 11
9750.6360759493672
 21
1196.9367088607591
  0
TEXT
  8
_0-0_
 62
    7
 10
7831.8860759493672
 20
1074.8533755274252
 40
87.5
 41
1
 50
0
  1
耐ｱｽﾌｧﾙﾄ性
  0
TEXT
  8
_0-0_
 62
    7
 10
8338.3860759493672
 20
958.18670886075881
 40
87.5
 41
0.7199999999999999
 50
0
  1
亀裂､破れ､溶け等　　　 
  0
TEXT
  8
_0-0_
 62
    7
 10
8354.1360759493672
 20
836.52004219409241
 40
87.5
 41
0.7199999999999999
 50
0
  1
　　　　　異常なきこと
  0
TEXT
  8
_0-0_
 62
    7
 10
9141.2610759493672
 20
1074.8533755274252
 40
87.5
 41
1
 50
0
  1
185℃熱板で　
  0
TEXT
  8
_0-0_
 62
    7
 10
9163.1360759493672
 20
958.18670886075881
 40
87.5
 41
1
 50
0
  1
   1分間放置
  0
LINE
  8
_0-0_
  6
CONTINUOUS
 62
    3
 10
7800.6360759493663
 20
1761.9367088607591
 11
7800.6360759493663
 21
806.93670886075835
  0
LINE
  8
_0-0_
  6
CONTINUOUS
 62
    3
 10
8300.6360759493672
 20
1761.9367088607591
 11
8300.6360759493672
 21
806.93670886075835
  0
LINE
  8
_0-0_
  6
CONTINUOUS
 62
    3
 10
9100.6360759493672
 20
1761.9367088607591
 11
9100.6360759493672
 21
806.93670886075835
  0
LINE
  8
_0-0_
  6
CONTINUOUS
 62
    3
 10
9750.6360759493672
 20
1761.9367088607591
 11
9750.6360759493672
 21
806.93670886075835
  0
LINE
  8
_0-0_
  6
CONTINUOUS
 62
    3
 10
7800.6360759493663
 20
806.93670886075835
 11
9750.6360759493672
 21
806.93670886075835
  0
TEXT
  8
_0-0_
 62
    7
 10
7842.7616033755284
 20
1792.4113924050629
 40
105
 41
1
 50
0
  1
製品性能試験
  0
TEXT
  8
_0-0_
 62
    7
 10
9219.1360759493672
 20
2544.0443037974678
 40
98
 41
1
 50
0
  1
試験方法
  0
TEXT
  8
_0-0_
 62
    7
 10
8377.6360759493672
 20
2544.0443037974678
 40
98
 41
1
 50
0
  1
単位
  0
TEXT
  8
_0-0_
 62
    7
 10
8733.6360759493672
 20
2544.0443037974678
 40
98
 41
1
 50
0
  1
規格値
  0
TEXT
  8
_0-0_
 62
    7
 10
9219.1360759493672
 20
1625.4367088607589
 40
98
 41
1
 50
0
  1
試験方法
  0
TEXT
  8
_0-0_
 62
    7
 10
8509.8860759493672
 20
1074.8533755274252
 40
87.5
 41
1
 50
0
  1
外観表面
  0
TEXT
  8
_0-0_
 62
    7
 10
8509.8860759493672
 20
1464.8533755274256
 40
87.5
 41
1
 50
0
  1
外観表面
  0
LINE
  8
ADD_LINE
  6
DOT
 62
    4
 10
8105.6360759493663
 20
3097.2943037974678
 11
9445.6360759493654
 21
3097.2943037974678
  0
LINE
  8
ADD_LINE
  6
DOT
 62
    4
 10
8775.6360759493672
 20
3035.2943037974678
 11
8775.6360759493672
 21
3097.2943037974678
  0
LINE
  8
_0-0_
  6
CONTINUOUS
 62
    3
 10
8105.6360759493663
 20
3035.2943037974678
 11
9445.6360759493654
 21
3035.2943037974678
  0
TEXT
  8
_0-0_
 62
    7
 10
8142.1360759493672
 20
3041.2943037974678
 40
112
 41
1
 50
0
  1
シール材の品質及び性能
  0
LINE
  8
_0-0_
  6
CONTINUOUS
 62
  136
 10
10002.5
 20
6925
 11
392.50000000000028
 21
6925
  0
LINE
  8
_0-0_
  6
CONTINUOUS
 62
  136
 10
392.50000000000028
 20
6925
 11
392.50000000000028
 21
255.00000000000022
  0
LINE
  8
_0-0_
  6
CONTINUOUS
 62
  136
 10
392.50000000000028
 20
255.00000000000022
 11
10002.5
 21
255.00000000000022
  0
LINE
  8
_0-0_
  6
CONTINUOUS
 62
  136
 10
10002.5
 20
255.00000000000022
 11
10002.5
 21
6925
  0
LINE
  8
_0-0_
  6
CONTINUOUS
 62
    2
 10
6211.906446540881
 20
1506.75692997917
 11
6211.906446540881
 21
1606.75692997917
  0
LINE
  8
_0-0_
  6
CONTINUOUS
 62
    2
 10
5294.906446540881
 20
1606.75692997917
 11
6569.906446540881
 21
1606.75692997917
  0
LINE
  8
_0-0_
  6
CONTINUOUS
 62
    6
 10
6142.40644654088
 20
1624.5069299791705
 11
6247.40644654088
 21
1624.5069299791705
  0
LINE
  8
_0-0_
  6
CONTINUOUS
 62
    6
 10
6142.40644654088
 20
1623.50692997917
 11
6247.40644654088
 21
1623.50692997917
  0
LINE
  8
_0-0_
  6
CONTINUOUS
 62
    6
 10
6247.40644654088
 20
1625.5069299791709
 11
6142.40644654088
 21
1625.5069299791709
  0
LINE
  8
_0-0_
  6
CONTINUOUS
 62
    2
 10
6177.90644654088
 20
1506.75692997917
 11
6177.90644654088
 21
1606.75692997917
  0
LINE
  8
_0-0_
  6
CONTINUOUS
 62
    2
 10
6177.90644654088
 20
1506.75692997917
 11
6211.906446540881
 21
1506.75692997917
  0
LINE
  8
_0-0_
  6
CONTINUOUS
 62
    2
 10
6177.90644654088
 20
1525.6243508523618
 11
6178.1224503472476
 21
1525.6609692308647
  0
LINE
  8
_0-0_
  6
CONTINUOUS
 62
    2
 10
5686.906446540881
 20
1506.75692997917
 11
5686.906446540881
 21
1606.75692997917
  0
LINE
  8
_0-0_
  6
CONTINUOUS
 62
    2
 10
5652.906446540881
 20
1506.75692997917
 11
5652.906446540881
 21
1606.75692997917
  0
LINE
  8
_0-0_
  6
CONTINUOUS
 62
    2
 10
5652.906446540881
 20
1506.75692997917
 11
5686.906446540881
 21
1506.75692997917
  0
LINE
  8
_0-0_
  6
CONTINUOUS
 62
    6
 10
5617.40644654088
 20
1624.5069299791705
 11
5722.40644654088
 21
1624.5069299791705
  0
LINE
  8
_0-0_
  6
CONTINUOUS
 62
    6
 10
5617.40644654088
 20
1623.50692997917
 11
5722.40644654088
 21
1623.50692997917
  0
LINE
  8
_0-0_
  6
CONTINUOUS
 62
    6
 10
5722.40644654088
 20
1625.5069299791709
 11
5617.40644654088
 21
1625.5069299791709
  0
LINE
  8
_0-0_
  6
CONTINUOUS
 62
    2
 10
5652.906446540881
 20
1523.8082960978949
 11
5686.906446540881
 21
1523.8082960978949
  0
LINE
  8
_0-0_
  6
CONTINUOUS
 62
    2
 10
5652.906446540881
 20
1525.6243508523618
 11
5653.1224503472476
 21
1525.6609692308647
  0
LINE
  8
_0-0_
  6
CENTER1
 62
    4
 10
5244.906446540881
 20
1406.7569299791703
 11
6619.906446540881
 21
1406.7569299791703
  0
LINE
  8
_0-0_
  6
CENTER1
 62
    4
 10
5294.906446540881
 20
1656.7569299791703
 11
5294.906446540881
 21
1356.7569299791703
  0
LINE
  8
_0-0_
  6
CENTER1
 62
    4
 10
6569.906446540881
 20
1656.7569299791703
 11
6569.906446540881
 21
1356.7569299791703
  0
LINE
  8
_0-0_
  6
CONTINUOUS
 62
    2
 10
5932.40644654088
 20
1406.7569299791703
 11
5932.40644654088
 21
1622.5069299791703
  0
LINE
  8
_0-0_
  6
CONTINUOUS
 62
    6
 10
5722.40644654088
 20
1626.5069299791712
 11
5617.40644654088
 21
1626.5069299791712
  0
LINE
  8
_0-0_
  6
CONTINUOUS
 62
    6
 10
6247.40644654088
 20
1626.5069299791712
 11
6142.40644654088
 21
1626.5069299791712
  0
LINE
  8
_0-0_
  6
CONTINUOUS
 62
    4
 10
6419.4738351997066
 20
1126.087714256449
 11
6199.6943610299904
 21
1506.75692997917
  0
LINE
  8
_0-0_
  6
CONTINUOUS
 62
    4
 10
6199.6943610299904
 20
1506.75692997917
 11
6236.817467042284
 21
1469.6338239668764
  0
LINE
  8
_0-0_
  6
CONTINUOUS
 62
    4
 10
6199.6943610299904
 20
1506.75692997917
 11
6213.2823608978724
 21
1456.0458240989939
  0
ARC
  8
_0-0_
  6
CONTINUOUS
 62
    2
 10
6169.656446540881
 20
1646.5069299791712
 40
8
 50
90
 51
180
  0
LINE
  8
_0-0_
  6
CONTINUOUS
 62
    2
 10
6220.156446540881
 20
1654.5069299791712
 11
6169.656446540881
 21
1654.5069299791712
  0
ARC
  8
_0-0_
  6
CONTINUOUS
 62
    2
 10
6220.156446540881
 20
1646.5069299791712
 40
8
 50
0
 51
90.000000000000014
  0
ARC
  8
_0-0_
  6
CONTINUOUS
 62
    2
 10
6194.8887902586538
 20
1616.4403671945738
 40
38.066566879323474
 50
60.095391358200487
 51
119.9115064859975
  0
ARC
  8
_0-0_
  6
CONTINUOUS
 62
    2
 10
6221.9313203852334
 20
1645.593441702824
 40
8.8985406554410761
 50
95.420563904963273
 51
154.50708730578242
  0
ARC
  8
_0-0_
  6
CONTINUOUS
 62
    2
 10
6169.1409898528354
 20
1647.4672045259524
 40
7.0461971242491765
 50
16.4938955136471
 51
87.212432526694499
  0
ARC
  8
_0-0_
  6
CONTINUOUS
 62
    2
 10
5644.656446540881
 20
1646.5069299791712
 40
8
 50
90
 51
180
  0
LINE
  8
_0-0_
  6
CONTINUOUS
 62
    2
 10
5695.156446540881
 20
1654.5069299791712
 11
5644.656446540881
 21
1654.5069299791712
  0
ARC
  8
_0-0_
  6
CONTINUOUS
 62
    2
 10
5695.156446540881
 20
1646.5069299791712
 40
8
 50
0
 51
90.000000000000014
  0
ARC
  8
_0-0_
  6
CONTINUOUS
 62
    2
 10
5669.8887902586557
 20
1616.4403671945738
 40
38.066566879323474
 50
60.095391358200487
 51
119.9115064859975
  0
ARC
  8
_0-0_
  6
CONTINUOUS
 62
    2
 10
5696.9313203852334
 20
1645.593441702824
 40
8.8985406554410761
 50
95.420563904963273
 51
154.50708730578242
  0
ARC
  8
_0-0_
  6
CONTINUOUS
 62
    2
 10
5644.1409898528354
 20
1647.4672045259524
 40
7.0461971242491765
 50
16.4938955136471
 51
87.212432526694499
  0
LINE
  8
_0-0_
  6
CONTINUOUS
 62
    6
 10
6247.40644654088
 20
1627.5069299791716
 11
6142.40644654088
 21
1627.5069299791716
  0
LINE
  8
_0-0_
  6
CONTINUOUS
 62
    6
 10
5722.40644654088
 20
1627.5069299791716
 11
5617.40644654088
 21
1627.5069299791716
  0
LINE
  8
_0-0_
  6
CONTINUOUS
 62
    4
 10
6339.8069339030398
 20
1904.8481459031295
 11
6222.852657846307
 21
1654.03889151628
  0
LINE
  8
_0-0_
  6
CONTINUOUS
 62
    4
 10
6222.852657846307
 20
1654.03889151628
 11
6231.9691871738214
 21
1705.7412985494211
  0
LINE
  8
_0-0_
  6
CONTINUOUS
 62
    4
 10
6222.852657846307
 20
1654.03889151628
 11
6256.59900735485
 21
1694.2562247800262
  0
LINE
  8
_0-0_
  6
CONTINUOUS
 62
    3
 10
6177.90644654088
 20
1523.8082960978949
 11
6211.906446540881
 21
1523.8082960978949
  0
LINE
  8
_0-0_
  6
CONTINUOUS
 62
    3
 10
6177.90644654088
 20
1523.8082960978949
 11
6211.906446540881
 21
1523.8082960978949
  0
LINE
  8
_0-0_
  6
CONTINUOUS
 62
    3
 10
6177.9553085566622
 20
1526.6469020996951
 11
6211.7393047502946
 21
1532.3741861729265
  0
LINE
  8
_0-0_
  6
CONTINUOUS
 62
    3
 10
6177.7741689877439
 20
1536.7718051359156
 11
6211.7741689877448
 21
1541.3091125500777
  0
LINE
  8
_0-0_
  6
CONTINUOUS
 62
    3
 10
6177.7724521084583
 20
1546.9135898669126
 11
6212.1380766232205
 21
1551.5602958195795
  0
LINE
  8
_0-0_
  6
CONTINUOUS
 62
    3
 10
6177.7701544713227
 20
1557.0550668366383
 11
6211.9879149102889
 21
1561.7626036641668
  0
LINE
  8
_0-0_
  6
CONTINUOUS
 62
    3
 10
6178.1365399775704
 20
1567.24810382814
 11
6211.7605820573953
 21
1572.2056807247674
  0
LINE
  8
_0-0_
  6
CONTINUOUS
 62
    3
 10
6178.2824044610561
 20
1576.4014776351993
 11
6211.906446540881
 21
1580.5407115010352
  0
LINE
  8
_0-0_
  6
CONTINUOUS
 62
    3
 10
6178.1755537971866
 20
1587.538431102949
 11
6211.7995958770125
 21
1591.15186896212
  0
LINE
  8
_0-0_
  6
CONTINUOUS
 62
    3
 10
5652.906446540881
 20
1523.8082960978949
 11
5686.906446540881
 21
1523.8082960978949
  0
LINE
  8
_0-0_
  6
CONTINUOUS
 62
    3
 10
5652.9553085566622
 20
1526.6469020996951
 11
5686.7393047502955
 21
1532.3741861729265
  0
LINE
  8
_0-0_
  6
CONTINUOUS
 62
    3
 10
5652.7741689877439
 20
1536.7718051359156
 11
5686.7741689877448
 21
1541.3091125500777
  0
LINE
  8
_0-0_
  6
CONTINUOUS
 62
    3
 10
5652.7724521084583
 20
1546.9135898669126
 11
5687.1380766232205
 21
1551.5602958195795
  0
LINE
  8
_0-0_
  6
CONTINUOUS
 62
    3
 10
5652.7701544713227
 20
1557.0550668366383
 11
5686.9879149102889
 21
1561.7626036641668
  0
LINE
  8
_0-0_
  6
CONTINUOUS
 62
    3
 10
5653.1365399775704
 20
1567.24810382814
 11
5686.7605820573953
 21
1572.2056807247674
  0
LINE
  8
_0-0_
  6
CONTINUOUS
 62
    3
 10
5653.2824044610561
 20
1576.4014776351993
 11
5686.906446540881
 21
1580.5407115010352
  0
LINE
  8
_0-0_
  6
CONTINUOUS
 62
    3
 10
5653.1755537971866
 20
1587.538431102949
 11
5686.7995958770125
 21
1591.15186896212
  0
LINE
  8
_0-0_
  6
CONTINUOUS
 62
    3
 10
5494.90644654088
 20
1622.5069299791703
 11
6369.90644654088
 21
1622.5069299791703
  0
LINE
  8
_0-0_
  6
CONTINUOUS
 62
    3
 10
5494.90644654088
 20
1622.5069299791703
 11
5494.90644654088
 21
1606.75692997917
  0
LINE
  8
_0-0_
  6
CONTINUOUS
 62
    3
 10
6369.90644654088
 20
1622.5069299791703
 11
6369.90644654088
 21
1606.75692997917
  0
TEXT
  8
_0-0_
 62
    7
 10
6430.3241742877826
 20
1793.7478198616324
 40
98
 41
1
 50
0
  1
(ﾒｯｷ)
  0
TEXT
  8
_0-0_
 62
    7
 10
6371.9147523363499
 20
1917.0200584416586
 40
98
 41
1
 50
0
  1
ﾎﾞﾙﾄ M12
  0
TEXT
  8
_0-0_
 62
    7
 10
6453.7934682578197
 20
1134.7596267949777
 40
98
 41
1
 50
0
  1
ｲﾝｻｰﾄ M12
  0
LINE
  8
_0-0_
  6
CONTINUOUS
 62
    4
 10
6339.8069339030398
 20
1904.8481459031295
 11
6782.3055251379555
 21
1904.8481459031295
  0
LINE
  8
_0-0_
  6
CONTINUOUS
 62
    4
 10
6419.4738351997066
 20
1126.087714256449
 11
6919.0618428150901
 21
1126.087714256449
  0
TEXT
  8
_0-0_
 62
    7
 10
6549.0120250911404
 20
1005.7425093843927
 40
98
 41
1
 50
0
  1
(ﾒｯｷ)
  0
TEXT
  8
_0-0_
 62
    7
 10
5171.0009351526232
 20
1909.3541216974372
 40
98
 41
1
 50
0
  1
ﾜｯｼｬー
  0
TEXT
  8
_0-0_
 62
    7
 10
5197.4603490618028
 20
1792.3099763719089
 40
98
 41
1
 50
0
  1
(ﾒｯｷ)
  0
LINE
  8
_0-0_
  6
CONTINUOUS
 62
    4
 10
5495.9143895315219
 20
1905.1551516006172
 11
5130.7239622520764
 21
1905.1551516006172
  0
LINE
  8
_0-0_
  6
CONTINUOUS
 62
    6
 10
5722.40644654088
 20
1628.5069299791719
 11
5617.40644654088
 21
1628.5069299791719
  0
LINE
  8
_0-0_
  6
CONTINUOUS
 62
    4
 10
5495.9143895315219
 20
1905.1551516006172
 11
5624.9175738885624
 21
1628.5069299791719
  0
LINE
  8
_0-0_
  6
CONTINUOUS
 62
    4
 10
5625.3838815467179
 20
1627.5069299791716
 11
5625.4356738921851
 21
1627.3958609358869
  0
LINE
  8
_0-0_
  6
CONTINUOUS
 62
    4
 10
5624.9175738885624
 20
1628.5069299791719
 11
5591.1712243800193
 21
1668.7242632429183
  0
LINE
  8
_0-0_
  6
CONTINUOUS
 62
    4
 10
5624.9175738885624
 20
1628.5069299791719
 11
5615.8010445610489
 21
1680.2093370123129
  0
LINE
  8
_0-0_
  6
CONTINUOUS
 62
    2
 10
5703.156446540881
 20
1646.5069299791712
 11
5703.156446540881
 21
1629.0942644017211
  0
LINE
  8
_0-0_
  6
CONTINUOUS
 62
    2
 10
5703.156446540881
 20
1629.0942644017211
 11
5703.156446540881
 21
1628.5069299791719
  0
LINE
  8
_0-0_
  6
CONTINUOUS
 62
    2
 10
5636.656446540881
 20
1646.5069299791712
 11
5636.656446540881
 21
1628.5069299791719
  0
LINE
  8
_0-0_
  6
CONTINUOUS
 62
    2
 10
5650.90644654088
 20
1628.5069299791719
 11
5650.90644654088
 21
1649.5069299791709
  0
LINE
  8
_0-0_
  6
CONTINUOUS
 62
    2
 10
5688.90644654088
 20
1628.5069299791719
 11
5688.90644654088
 21
1649.438623828388
  0
LINE
  8
_0-0_
  6
CONTINUOUS
 62
    6
 10
6247.40644654088
 20
1628.5069299791719
 11
6142.40644654088
 21
1628.5069299791719
  0
LINE
  8
_0-0_
  6
CONTINUOUS
 62
    2
 10
6161.656446540881
 20
1646.5069299791712
 11
6161.656446540881
 21
1628.5069299791719
  0
LINE
  8
_0-0_
  6
CONTINUOUS
 62
    2
 10
6175.90644654088
 20
1628.5069299791719
 11
6175.90644654088
 21
1649.5069299791709
  0
LINE
  8
_0-0_
  6
CONTINUOUS
 62
    2
 10
6213.90644654088
 20
1628.5069299791719
 11
6213.90644654088
 21
1649.438623828388
  0
LINE
  8
_0-0_
  6
CONTINUOUS
 62
    2
 10
6228.15644654088
 20
1646.5069299791712
 11
6228.15644654088
 21
1628.5069299791719
  0
LINE
  8
_0-0_
  6
CONTINUOUS
 62
    4
 10
991.69074554725716
 20
1379.1759390000486
 11
978.10274567937574
 21
1429.8870448802244
  0
LINE
  8
_0-0_
  6
CONTINUOUS
 62
    4
 10
991.69074554725716
 20
1379.1759390000486
 11
1005.2787454151406
 21
1429.8870448802244
  0
LINE
  8
_0-0_
  6
CONTINUOUS
 62
    4
 10
1391.6907455472567
 20
1379.1759390000486
 11
956.69074554725614
 21
1379.1759390000486
  0
LINE
  8
_0-0_
  6
CONTINUOUS
 62
    4
 10
1191.6907455472564
 20
1379.1759390000486
 11
1205.2787454151389
 21
1328.4648331198725
  0
LINE
  8
_0-0_
  6
CONTINUOUS
 62
    4
 10
1191.6907455472564
 20
1379.1759390000486
 11
1178.102745679374
 21
1328.4648331198725
  0
TEXT
  8
_0-0_
 62
    7
 10
1184.3730619640809
 20
1225.7999185672222
 40
105
 41
0.8333333333333333
 50
90
  1
35
  0
LINE
  8
_0-0_
  6
CONTINUOUS
 62
    4
 10
1191.6907455472564
 20
1514.1759390000486
 11
1191.6907455472564
 21
1414.1759390000486
  0
LINE
  8
_0-0_
  6
CONTINUOUS
 62
    4
 10
1191.6907455472564
 20
1414.1759390000486
 11
1178.102745679374
 21
1464.8870448802244
  0
LINE
  8
_0-0_
  6
CONTINUOUS
 62
    4
 10
1191.6907455472564
 20
1414.1759390000486
 11
1205.2787454151389
 21
1464.8870448802244
  0
LINE
  8
_0-0_
  6
CONTINUOUS
 62
    4
 10
1391.6907455472567
 20
1414.1759390000486
 11
1156.6907455472564
 21
1414.1759390000486
  0
LINE
  8
_0-0_
  6
CONTINUOUS
 62
    4
 10
1723.0657455472571
 20
1414.1759390000486
 11
1709.4777456793747
 21
1464.8870448802244
  0
LINE
  8
_0-0_
  6
CONTINUOUS
 62
    4
 10
1723.0657455472571
 20
1414.1759390000486
 11
1736.6537454151396
 21
1464.8870448802244
  0
LINE
  8
_0-0_
  6
CONTINUOUS
 62
    4
 10
1772.7852705858229
 20
1379.1759390000486
 11
1786.3732704537053
 21
1328.4648331198725
  0
LINE
  8
_0-0_
  6
CONTINUOUS
 62
    4
 10
1772.7852705858229
 20
1379.1759390000486
 11
1759.1972707179404
 21
1328.4648331198725
  0
LINE
  8
_0-0_
  6
CONTINUOUS
 62
    4
 10
1772.7852705858229
 20
1379.1759390000486
 11
1772.7852705858229
 21
1146.3492880566525
  0
LINE
  8
_0-0_
  6
CONTINUOUS
 62
    4
 10
1191.6907455472564
 20
1379.1759390000486
 11
1191.6907455472564
 21
1219.1759390000486
  0
LINE
  8
_0-0_
  6
CONTINUOUS
 62
    4
 10
1426.6907455472567
 20
914.17593900004783
 11
1256.6907455472567
 21
914.17593900004783
  0
LINE
  8
_0-0_
  6
CONTINUOUS
 62
    4
 10
1426.6907455472567
 20
914.17593900004783
 11
1375.9796396670803
 21
900.58793913216538
  0
LINE
  8
_0-0_
  6
CONTINUOUS
 62
    4
 10
1426.6907455472567
 20
914.17593900004783
 11
1375.9796396670803
 21
927.76393886793027
  0
LINE
  8
_0-0_
  6
CONTINUOUS
 62
    4
 10
1426.6907455472567
 20
1344.1759390000486
 11
1426.6907455472567
 21
879.17593900004783
  0
LINE
  8
_0-0_
  6
CONTINUOUS
 62
    4
 10
1772.7852705858229
 20
1146.3492880566525
 11
2066.6950547237179
 21
1146.3492880566525
  0
TEXT
  8
_0-0_
 62
    7
 10
1794.564612175005
 20
1151.8695501997312
 40
87.5
 41
0.7199999999999999
 50
0
  1
シール溝
  0
LINE
  8
_0-0_
  6
CONTINUOUS
 62
    4
 10
1723.0657455472571
 20
2344.1759390000484
 11
1736.6537454151396
 21
2293.4648331198723
  0
LINE
  8
_0-0_
  6
CONTINUOUS
 62
    4
 10
1723.0657455472571
 20
2344.1759390000484
 11
1709.4777456793747
 21
2293.4648331198723
  0
LINE
  8
_0-0_
  6
CONTINUOUS
 62
    4
 10
1191.6907455472564
 20
2344.1759390000484
 11
1191.6907455472564
 21
2244.1759390000484
  0
LINE
  8
_0-0_
  6
CONTINUOUS
 62
    4
 10
1191.6907455472564
 20
2344.1759390000484
 11
1205.2787454151389
 21
2293.4648331198723
  0
LINE
  8
_0-0_
  6
CONTINUOUS
 62
    4
 10
1191.6907455472564
 20
2344.1759390000484
 11
1178.102745679374
 21
2293.4648331198723
  0
LINE
  8
_0-0_
  6
CONTINUOUS
 62
    4
 10
991.69074554725716
 20
2379.1759390000484
 11
1005.2787454151406
 21
2328.4648331198723
  0
LINE
  8
_0-0_
  6
CONTINUOUS
 62
    4
 10
991.69074554725716
 20
2379.1759390000484
 11
978.10274567937574
 21
2328.4648331198723
  0
LINE
  8
_0-0_
  6
CONTINUOUS
 62
    4
 10
1391.6907455472567
 20
2379.1759390000484
 11
956.69074554725614
 21
2379.1759390000484
  0
LINE
  8
_0-0_
  6
CONTINUOUS
 62
    4
 10
1191.6907455472564
 20
2379.1759390000484
 11
1178.102745679374
 21
2429.8870448802244
  0
LINE
  8
_0-0_
  6
CONTINUOUS
 62
    4
 10
1191.6907455472564
 20
2379.1759390000484
 11
1205.2787454151389
 21
2429.8870448802244
  0
TEXT
  8
_0-0_
 62
    7
 10
1183.5788254736535
 20
2442.2232675868781
 40
105
 41
0.8333333333333333
 50
90
  1
35
  0
LINE
  8
_0-0_
  6
CONTINUOUS
 62
    4
 10
1391.6907455472567
 20
2344.1759390000484
 11
1156.6907455472564
 21
2344.1759390000484
  0
LINE
  8
_0-0_
  6
CONTINUOUS
 62
    4
 10
1191.6907455472564
 20
2539.1759390000488
 11
1191.6907455472564
 21
2379.1759390000484
  0
LINE
  8
_0-0_
  6
CONTINUOUS
 62
    4
 10
991.69074554725716
 20
1379.1759390000486
 11
991.69074554725716
 21
2379.1759390000484
  0
TEXT
  8
_0-0_
 62
    7
 10
984.19074554725693
 20
1783.8009390000474
 40
105
 41
0.8333333333333333
 50
90
  1
1000
  0
LINE
  8
_0-0_
  6
CONTINUOUS
 62
    3
 10
3085.3899072526064
 20
1415.2823371944916
 11
3085.3899072526064
 21
1065.2823371944916
  0
TEXT
  8
_0-0_
 62
    7
 10
3181.6399072526064
 20
1260.2823371944909
 40
105
 41
1
 50
0
  1
製品ﾎﾞﾘｭｰﾑ
  0
TEXT
  8
_0-0_
 62
    7
 10
4120.9582919456197
 20
1260.2823371944909
 40
105
 41
1
 50
0
  1
ｍ
  0
TEXT
  8
_0-0_
 62
    7
 10
4120.9582919456197
 20
1115.2823371944921
 40
105
 41
1
 50
0
  1
kg
  0
LINE
  8
_0-0_
  6
CONTINUOUS
 62
    3
 10
3085.3899072526064
 20
1415.2823371944916
 11
4315.3869072526067
 21
1415.2823371944916
  0
LINE
  8
_0-0_
  6
CONTINUOUS
 62
    3
 10
4315.3869072526076
 20
1415.2823371944916
 11
4315.3869072526076
 21
1065.2823371944916
  0
LINE
  8
_0-0_
  6
CONTINUOUS
 62
    3
 10
3085.3899072526064
 20
1065.2823371944916
 11
4315.3869072526067
 21
1065.2823371944916
  0
TEXT
  8
_0-0_
 62
    7
 10
4217.6519091221916
 20
1311.8432389904251
 40
52.5
 41
1.3333333333333332
 50
0
  1
3
  0
TEXT
  8
_0-0_
 62
    7
 10
3181.6399072526064
 20
1115.2823371944921
 40
105
 41
1
 50
0
  1
製品重量　
  0
LINE
  8
_0-0_
  6
CONTINUOUS
 62
    4
 10
1426.6907455472562
 20
3020.6406779739099
 11
1477.4018661527252
 21
3034.2288127395345
  0
LINE
  8
_0-0_
  6
CONTINUOUS
 62
    4
 10
1426.6907455472562
 20
3020.6406779739099
 11
1477.4018661527252
 21
3007.0527873489095
  0
LINE
  8
_0-0_
  6
CONTINUOUS
 62
    4
 10
1426.6907455472562
 20
3225.6406779739099
 11
1426.6907455472562
 21
2985.6406779739099
  0
LINE
  8
_0-0_
  6
CONTINUOUS
 62
    4
 10
1426.6907455472562
 20
3479.2286778417915
 11
1426.6907455472562
 21
3355.640677973909
  0
LINE
  8
_0-0_
  6
CONTINUOUS
 62
    4
 10
3608.2525377358497
 20
2225.7920597484276
 11
3658.9636436160249
 21
2212.2040598805451
  0
LINE
  8
_0-0_
  6
CONTINUOUS
 62
    4
 10
5669.90644654088
 20
2440.7920597484276
 11
5932.40644654088
 21
2440.7920597484276
  0
LINE
  8
_0-0_
  6
CONTINUOUS
 62
    4
 10
5932.40644654088
 20
2440.7920597484276
 11
6194.90644654088
 21
2440.7920597484276
  0
LINE
  8
_0-0_
  6
CONTINUOUS
 62
    4
 10
5669.90644654088
 20
2440.7920597484276
 11
5720.6175524210566
 21
2454.3800596163096
  0
LINE
  8
_0-0_
  6
CONTINUOUS
 62
    4
 10
5669.90644654088
 20
2440.7920597484276
 11
5720.6175524210566
 21
2427.2040598805451
  0
LINE
  8
_0-0_
  6
CONTINUOUS
 62
    4
 10
5932.40644654088
 20
2440.7920597484276
 11
5881.6953406607053
 21
2427.2040598805451
  0
LINE
  8
_0-0_
  6
CONTINUOUS
 62
    4
 10
5932.40644654088
 20
2440.7920597484276
 11
5881.6953406607053
 21
2454.3800596163096
  0
LINE
  8
_0-0_
  6
CONTINUOUS
 62
    4
 10
5932.40644654088
 20
2440.7920597484276
 11
5983.1175524210566
 21
2454.3800596163096
  0
LINE
  8
_0-0_
  6
CONTINUOUS
 62
    4
 10
5932.40644654088
 20
2440.7920597484276
 11
5983.1175524210566
 21
2427.2040598805451
  0
LINE
  8
_0-0_
  6
CONTINUOUS
 62
    4
 10
6194.90644654088
 20
2440.7920597484276
 11
6144.1953406607053
 21
2427.2040598805451
  0
LINE
  8
_0-0_
  6
CONTINUOUS
 62
    4
 10
6194.90644654088
 20
2440.7920597484276
 11
6144.1953406607053
 21
2454.3800596163096
  0
LINE
  8
_0-0_
  6
CONTINUOUS
 62
    4
 10
5059.906446540881
 20
2740.7920597484271
 11
5059.906446540881
 21
2985.7920597484271
  0
LINE
  8
_0-0_
  6
CONTINUOUS
 62
    4
 10
5259.906446540881
 20
2740.7920597484271
 11
5024.906446540881
 21
2740.7920597484271
  0
LINE
  8
_0-0_
  6
CONTINUOUS
 62
    4
 10
5059.906446540881
 20
2985.7920597484271
 11
5073.4944464087629
 21
2935.0809538682515
  0
LINE
  8
_0-0_
  6
CONTINUOUS
 62
    4
 10
5059.906446540881
 20
2985.7920597484271
 11
5046.3184466729981
 21
2935.0809538682515
  0
LINE
  8
_0-0_
  6
CONTINUOUS
 62
    4
 10
5059.906446540881
 20
2740.7920597484271
 11
5046.3184466729981
 21
2791.5031656286032
  0
LINE
  8
_0-0_
  6
CONTINUOUS
 62
    4
 10
5059.906446540881
 20
2740.7920597484271
 11
5073.4944464087629
 21
2791.5031656286032
  0
LINE
  8
_0-0_
  6
CONTINUOUS
 62
    4
 10
5459.90644654088
 20
2985.7920597484271
 11
5024.906446540881
 21
2985.7920597484271
  0
LINE
  8
_0-0_
  6
CONTINUOUS
 62
    4
 10
7204.906446540881
 20
2915.7920597484271
 11
7204.906446540881
 21
3055.7920597484271
  0
LINE
  8
_0-0_
  6
CONTINUOUS
 62
    4
 10
6404.90644654088
 20
3055.7920597484271
 11
7239.906446540881
 21
3055.7920597484271
  0
LINE
  8
_0-0_
  6
CONTINUOUS
 62
    4
 10
6404.90644654088
 20
2915.7920597484271
 11
7239.906446540881
 21
2915.7920597484271
  0
LINE
  8
_0-0_
  6
CONTINUOUS
 62
    4
 10
7204.906446540881
 20
3055.7920597484271
 11
7218.4944464087629
 21
3005.0809538682515
  0
LINE
  8
_0-0_
  6
CONTINUOUS
 62
    4
 10
7204.906446540881
 20
3055.7920597484271
 11
7191.3184466729981
 21
3005.0809538682515
  0
LINE
  8
_0-0_
  6
CONTINUOUS
 62
    4
 10
7204.906446540881
 20
2915.7920597484271
 11
7191.3184466729981
 21
2966.5031656286032
  0
LINE
  8
_0-0_
  6
CONTINUOUS
 62
    4
 10
7204.906446540881
 20
2915.7920597484271
 11
7218.4944464087629
 21
2966.5031656286032
  0
LINE
  8
_0-0_
  6
CONTINUOUS
 62
    4
 10
6904.906446540881
 20
3012.0420597484271
 11
6891.318446672999
 21
3062.7531656286032
  0
LINE
  8
_0-0_
  6
CONTINUOUS
 62
    4
 10
6904.906446540881
 20
3012.0420597484271
 11
6918.4944464087639
 21
3062.7531656286032
  0
LINE
  8
_0-0_
  6
CONTINUOUS
 62
    4
 10
6904.906446540881
 20
2959.5420597484271
 11
6918.4944464087639
 21
2908.8309538682515
  0
LINE
  8
_0-0_
  6
CONTINUOUS
 62
    4
 10
6904.906446540881
 20
2959.5420597484271
 11
6891.318446672999
 21
2908.8309538682515
  0
LINE
  8
_0-0_
  6
CONTINUOUS
 62
    4
 10
6904.906446540881
 20
2959.5420597484271
 11
6904.906446540881
 21
2799.5420597484271
  0
LINE
  8
_0-0_
  6
CONTINUOUS
 62
    4
 10
6904.906446540881
 20
3012.0420597484271
 11
6904.906446540881
 21
3112.0420597484271
  0
TEXT
  8
_0-0_
 62
    7
 10
6897.5887629577055
 20
2806.1660393156012
 40
105
 41
0.8333333333333333
 50
90
  1
15
  0
ARC
  8
_0-0_
  6
CONTINUOUS
 62
    2
 10
6168.65644654088
 20
2985.7920597484271
 40
26.25
 50
90
 51
270
  0
ARC
  8
_0-0_
  6
CONTINUOUS
 62
    2
 10
6221.15644654088
 20
2985.7920597484271
 40
26.25
 50
270
 51
90
  0
LINE
  8
_0-0_
  6
CONTINUOUS
 62
    2
 10
6168.65644654088
 20
3012.0420597484271
 11
6221.15644654088
 21
3012.0420597484271
  0
LINE
  8
_0-0_
  6
CONTINUOUS
 62
    2
 10
6168.65644654088
 20
2959.5420597484271
 11
6221.15644654088
 21
2959.5420597484271
  0
CIRCLE
  8
_0-0_
  6
CONTINUOUS
 62
    2
 10
5669.90644654088
 20
2985.7920597484271
 40
26.25
  0
LINE
  8
_0-0_
  6
CONTINUOUS
 62
    4
 10
5669.90644654088
 20
2405.7920597484276
 11
5669.90644654088
 21
2880.7920597484271
  0
LINE
  8
_0-0_
  6
CONTINUOUS
 62
    4
 10
6194.90644654088
 20
2405.7920597484276
 11
6194.90644654088
 21
2880.7920597484271
  0
TEXT
  8
_0-0_
 62
    7
 10
5757.4107783544404
 20
2449.0323725856655
 40
105
 41
0.8333333333333333
 50
0
  1
75
  0
TEXT
  8
_0-0_
 62
    7
 10
6019.9107783544404
 20
2449.0323725856655
 40
105
 41
0.8333333333333333
 50
0
  1
75
  0
TEXT
  8
_0-0_
 62
    7
 10
5053.8315505365399
 20
2820.5765341447518
 40
105
 41
0.8333333333333333
 50
90
  1
70
  0
LINE
  8
_0-0_
  6
CONTINUOUS
 62
    4
 10
5656.78144654088
 20
2963.058892899086
 11
5355.2505498325344
 21
2440.7920597484276
  0
LINE
  8
_0-0_
  6
CONTINUOUS
 62
    4
 10
5656.78144654088
 20
2963.058892899086
 11
5643.193446672999
 21
2912.3477870189094
  0
LINE
  8
_0-0_
  6
CONTINUOUS
 62
    4
 10
5656.78144654088
 20
2963.058892899086
 11
5619.6583405285873
 21
2925.9357868867919
  0
LINE
  8
_0-0_
  6
CONTINUOUS
 62
    2
 10
5494.90644654088
 20
3055.7920597484271
 11
6369.90644654088
 21
3055.7920597484271
  0
LINE
  8
_0-0_
  6
CONTINUOUS
 62
    2
 10
5494.90644654088
 20
2915.7920597484271
 11
6369.90644654088
 21
2915.7920597484271
  0
LINE
  8
_0-0_
  6
CONTINUOUS
 62
    2
 10
5494.90644654088
 20
2915.7920597484271
 11
5494.90644654088
 21
3055.7920597484271
  0
LINE
  8
_0-0_
  6
CONTINUOUS
 62
    2
 10
6369.90644654088
 20
2915.7920597484271
 11
6369.90644654088
 21
3055.7920597484271
  0
LINE
  8
_0-0_
  6
CONTINUOUS
 62
    4
 10
6282.40644654088
 20
2959.5420597484271
 11
6939.906446540881
 21
2959.5420597484271
  0
LINE
  8
_0-0_
  6
CONTINUOUS
 62
    4
 10
6282.40644654088
 20
3012.0420597484271
 11
6939.906446540881
 21
3012.0420597484271
  0
LINE
  8
_0-0_
  6
CONTINUOUS
 62
    4
 10
5801.15644654088
 20
3055.7920597484271
 11
5787.5684466729981
 21
3106.5031656286032
  0
LINE
  8
_0-0_
  6
CONTINUOUS
 62
    4
 10
5801.15644654088
 20
3055.7920597484271
 11
5814.7444464087629
 21
3106.5031656286032
  0
LINE
  8
_0-0_
  6
CONTINUOUS
 62
    4
 10
5932.40644654088
 20
2405.7920597484276
 11
5932.40644654088
 21
2705.7920597484271
  0
LINE
  8
_0-0_
  6
CONTINUOUS
 62
    4
 10
6142.40644654088
 20
3520.7920597484271
 11
6247.40644654088
 21
3520.7920597484271
  0
LINE
  8
_0-0_
  6
CONTINUOUS
 62
    4
 10
6142.40644654088
 20
3520.7920597484271
 11
6177.40644654088
 21
3530.1702814835161
  0
LINE
  8
_0-0_
  6
CONTINUOUS
 62
    4
 10
6142.40644654088
 20
3520.7920597484271
 11
6177.40644654088
 21
3511.4138380133381
  0
LINE
  8
_0-0_
  6
CONTINUOUS
 62
    4
 10
6247.40644654088
 20
3520.7920597484271
 11
6212.40644654088
 21
3511.4138380133381
  0
LINE
  8
_0-0_
  6
CONTINUOUS
 62
    4
 10
6247.40644654088
 20
3520.7920597484271
 11
6212.40644654088
 21
3530.1702814835161
  0
TEXT
  8
_0-0_
 62
    7
 10
6151.1607783544404
 20
3529.0323725856655
 40
105
 41
0.8333333333333333
 50
0
  1
30
  0
TEXT
  8
_0-0_
 62
    7
 10
5107.9877712634988
 20
3529.4639722869569
 40
105
 41
0.5999999999999999
 50
0
  1
連結プレート(メッキ)
  0
TEXT
  8
_0-0_
 62
    7
 10
5166.3971932149315
 20
3406.1917337069303
 40
105
 41
0.8333333333333333
 50
0
  1
250×40×4.5
  0
LINE
  8
_0-0_
  6
CONTINUOUS
 62
    4
 10
5075.8799528301897
 20
3520.7920597484271
 11
5801.15644654088
 21
3520.7920597484271
  0
LINE
  8
_0-0_
  6
CONTINUOUS
 62
    4
 10
5801.15644654088
 20
3055.7920597484271
 11
5801.15644654088
 21
3520.7920597484271
  0
LINE
  8
_0-0_
  6
CONTINUOUS
 62
    4
 10
6142.40644654088
 20
3090.7920597484271
 11
6142.40644654088
 21
3555.7920597484271
  0
LINE
  8
_0-0_
  6
CONTINUOUS
 62
    4
 10
6247.40644654088
 20
3090.7920597484271
 11
6247.40644654088
 21
3555.7920597484271
  0
LINE
  8
_0-0_
  6
CONTINUOUS
 62
    2
 10
3558.253537735849
 20
3235.7920597484271
 11
3558.253537735849
 21
2735.8920597484275
  0
LINE
  8
_0-0_
  6
CONTINUOUS
 62
    4
 10
4330.753537735849
 20
3235.7920597484271
 11
4317.165537867967
 21
3185.0809538682506
  0
LINE
  8
_0-0_
  6
CONTINUOUS
 62
    4
 10
4330.753537735849
 20
3235.7920597484271
 11
4344.341537603731
 21
3185.0809538682506
  0
LINE
  8
_0-0_
  6
CONTINUOUS
 62
    4
 10
4080.753537735849
 20
3235.7920597484271
 11
4365.753537735849
 21
3235.7920597484271
  0
LINE
  8
_0-0_
  6
CONTINUOUS
 62
    4
 10
3602.003537735849
 20
3235.7920597484271
 11
3588.4155378679665
 21
3286.5031656286032
  0
LINE
  8
_0-0_
  6
CONTINUOUS
 62
    4
 10
3602.003537735849
 20
3235.7920597484271
 11
3615.5915376037314
 21
3286.5031656286032
  0
LINE
  8
_0-0_
  6
CONTINUOUS
 62
    4
 10
4330.753537735849
 20
3235.7920597484271
 11
4330.753537735849
 21
2735.8920597484275
  0
LINE
  8
_0-0_
  6
CONTINUOUS
 62
    2
 10
3608.2525377358497
 20
2735.8920597484275
 11
3558.253537735849
 21
2735.8920597484275
  0
LINE
  8
_0-0_
  6
CONTINUOUS
 62
    2
 10
3608.2525377358497
 20
3235.7920597484271
 11
3608.2525377358497
 21
2735.8920597484275
  0
LINE
  8
_0-0_
  6
CONTINUOUS
 62
    4
 10
4330.753537735849
 20
2735.8920597484275
 11
4317.165537867967
 21
2786.6031656286031
  0
LINE
  8
_0-0_
  6
CONTINUOUS
 62
    4
 10
4330.753537735849
 20
2735.8920597484275
 11
4344.341537603731
 21
2786.6031656286031
  0
LINE
  8
_0-0_
  6
CONTINUOUS
 62
    2
 10
3558.253537735849
 20
3235.7920597484271
 11
3602.003537735849
 21
3235.7920597484271
  0
LINE
  8
_0-0_
  6
CONTINUOUS
 62
    2
 10
3558.253537735849
 20
3214.9628930817607
 11
3608.2525377358497
 21
3173.3045597484269
  0
LINE
  8
_0-0_
  6
CONTINUOUS
 62
    2
 10
3608.2525377358497
 20
3173.3045597484269
 11
3558.253537735849
 21
3131.6462264150941
  0
LINE
  8
_0-0_
  6
CONTINUOUS
 62
    2
 10
3558.253537735849
 20
3131.6462264150941
 11
3608.2525377358497
 21
3089.9878930817603
  0
LINE
  8
_0-0_
  6
CONTINUOUS
 62
    2
 10
3608.2525377358497
 20
3089.9878930817603
 11
3558.253537735849
 21
3048.329559748427
  0
LINE
  8
_0-0_
  6
CONTINUOUS
 62
    2
 10
3558.253537735849
 20
3048.329559748427
 11
3608.2525377358497
 21
3006.6712264150937
  0
LINE
  8
_0-0_
  6
CONTINUOUS
 62
    2
 10
3608.2525377358497
 20
3006.6712264150937
 11
3558.253537735849
 21
2965.0128930817609
  0
LINE
  8
_0-0_
  6
CONTINUOUS
 62
    2
 10
3558.253537735849
 20
2965.0128930817609
 11
3608.2525377358497
 21
2923.3545597484271
  0
LINE
  8
_0-0_
  6
CONTINUOUS
 62
    2
 10
3608.2525377358497
 20
2923.3545597484271
 11
3558.253537735849
 21
2881.6962264150938
  0
LINE
  8
_0-0_
  6
CONTINUOUS
 62
    2
 10
3558.253537735849
 20
2881.6962264150938
 11
3608.2525377358497
 21
2840.0378930817605
  0
LINE
  8
_0-0_
  6
CONTINUOUS
 62
    2
 10
3608.2525377358497
 20
2840.0378930817605
 11
3558.253537735849
 21
2798.3795597484277
  0
LINE
  8
_0-0_
  6
CONTINUOUS
 62
    2
 10
3558.253537735849
 20
2798.3795597484277
 11
3608.2525377358497
 21
2756.7212264150934
  0
LINE
  8
_0-0_
  6
CONTINUOUS
 62
    2
 10
3583.2530377358493
 20
3235.7920597484271
 11
3558.253537735849
 21
3214.9628930817607
  0
LINE
  8
_0-0_
  6
CONTINUOUS
 62
    2
 10
3608.2525377358497
 20
2756.7212264150934
 11
3583.2530377358493
 21
2735.8920597484275
  0
LINE
  8
_0-0_
  6
CONTINUOUS
 62
    2
 10
3558.253537735849
 20
2735.8920597484275
 11
3558.253537735849
 21
2535.892059748427
  0
TEXT
  8
_0-0_
 62
    7
 10
4324.2416414501012
 20
2941.4061721253115
 40
105
 41
0.8333333333333333
 50
90
  1
50
  0
TEXT
  8
_0-0_
 62
    7
 10
7188.2028639841928
 20
2941.2068779455844
 40
105
 41
0.8333333333333333
 50
90
  1
40
  0
LINE
  8
_0-0_
  6
CONTINUOUS
 62
    4
 10
3608.2525377358497
 20
2700.8920597484275
 11
3608.2525377358497
 21
2520.8920597484275
  0
TEXT
  8
_0-0_
 62
    7
 10
3270.3122209490334
 20
3529.4639722869569
 40
105
 41
0.6666666666666666
 50
0
  1
シール材
  0
TEXT
  8
_0-0_
 62
    7
 10
3277.2415782232701
 20
3400.3121626048218
 40
105
 41
0.8333333333333333
 50
0
  1
(t=17)
  0
LINE
  8
_0-0_
  6
CONTINUOUS
 62
    4
 10
3602.003537735849
 20
3235.7920597484271
 11
3602.003537735849
 21
3520.7920597484271
  0
LINE
  8
_0-0_
  6
CENTER1
 62
    4
 10
3158.253537735849
 20
3285.7920597484271
 11
3158.253537735849
 21
2485.892059748427
  0
LINE
  8
_0-0_
  6
CENTER1
 62
    4
 10
4045.7535377358485
 20
3285.7920597484271
 11
4045.7535377358485
 21
2485.892059748427
  0
LINE
  8
_0-0_
  6
CENTER1
 62
    4
 10
5249.3040944780668
 20
3230.7920597484271
 11
6604.906446540881
 21
3230.7920597484271
  0
LINE
  8
_0-0_
  6
CENTER1
 62
    4
 10
5294.906446540881
 20
2690.7920597484271
 11
5294.906446540881
 21
3280.7920597484276
  0
LINE
  8
_0-0_
  6
CENTER1
 62
    4
 10
6569.906446540881
 20
2690.7920597484271
 11
6569.906446540881
 21
3280.7920597484276
  0
LINE
  8
_0-0_
  6
CONTINUOUS
 62
    2
 10
3158.253537735849
 20
3235.7920597484271
 11
4045.7535377358485
 21
3235.7920597484271
  0
LINE
  8
_0-0_
  6
CONTINUOUS
 62
    2
 10
5294.906446540881
 20
2740.7920597484271
 11
6569.906446540881
 21
2740.7920597484271
  0
LINE
  8
_0-0_
  6
CONTINUOUS
 62
    4
 10
3643.2525377358497
 20
2735.8920597484275
 11
4365.753537735849
 21
2735.8920597484275
  0
LINE
  8
_0-0_
  6
CONTINUOUS
 62
    4
 10
5494.90644654088
 20
2225.7920597484276
 11
6369.90644654088
 21
2225.7920597484276
  0
LINE
  8
_0-0_
  6
CONTINUOUS
 62
    4
 10
5494.90644654088
 20
2225.7920597484276
 11
5545.6175524210566
 21
2239.3800596163096
  0
LINE
  8
_0-0_
  6
CONTINUOUS
 62
    4
 10
5494.90644654088
 20
2225.7920597484276
 11
5545.6175524210566
 21
2212.2040598805447
  0
LINE
  8
_0-0_
  6
CONTINUOUS
 62
    4
 10
6369.90644654088
 20
2225.7920597484276
 11
6319.1953406607053
 21
2212.2040598805447
  0
LINE
  8
_0-0_
  6
CONTINUOUS
 62
    4
 10
6369.90644654088
 20
2225.7920597484276
 11
6319.1953406607053
 21
2239.3800596163096
  0
LINE
  8
_0-0_
  6
CONTINUOUS
 62
    4
 10
5494.90644654088
 20
2190.7920597484276
 11
5494.90644654088
 21
2880.7920597484271
  0
LINE
  8
_0-0_
  6
CONTINUOUS
 62
    4
 10
6369.90644654088
 20
2190.7920597484276
 11
6369.90644654088
 21
2880.7920597484271
  0
LINE
  8
_0-0_
  6
CONTINUOUS
 62
    4
 10
3558.2535377358499
 20
2225.7920597484276
 11
3507.5424781655378
 21
2239.3800571849506
  0
LINE
  8
_0-0_
  6
CONTINUOUS
 62
    4
 10
3558.2535377358499
 20
2225.7920597484276
 11
3507.5424781655378
 21
2212.2040623119041
  0
TEXT
  8
_0-0_
 62
    7
 10
3446.6513648842878
 20
2229.8317478587782
 40
105
 41
0.8333333333333333
 50
0
  1
5
  0
LINE
  8
_0-0_
  6
CONTINUOUS
 62
    4
 10
3428.2535377358499
 20
2225.7920597484276
 11
3558.2535377358499
 21
2225.7920597484276
  0
LINE
  8
_0-0_
  6
CONTINUOUS
 62
    4
 10
3608.2525377358497
 20
2225.7920597484276
 11
3658.9636436160249
 21
2239.3800596163096
  0
LINE
  8
_0-0_
  6
CONTINUOUS
 62
    4
 10
3608.2525377358497
 20
2225.7920597484276
 11
3699.2525377358492
 21
2225.7920597484276
  0
LINE
  8
_0-0_
  6
CONTINUOUS
 62
    4
 10
3558.253537735849
 20
2500.892059748427
 11
3558.253537735849
 21
2190.7920597484276
  0
LINE
  8
_0-0_
  6
CONTINUOUS
 62
    4
 10
3608.2525377358497
 20
2520.8920597484275
 11
3608.2525377358497
 21
2190.7920597484276
  0
LINE
  8
_0-0_
  6
CONTINUOUS
 62
    2
 10
5932.40644654088
 20
2740.7920597484271
 11
5932.40644654088
 21
3230.7920597484271
  0
TEXT
  8
_0-0_
 62
    7
 10
5865.0357783544404
 20
2234.032372585666
 40
105
 41
0.8333333333333333
 50
0
  1
250
  0
LINE
  8
_0-0_
  6
CONTINUOUS
 62
    4
 10
3602.003537735849
 20
3520.7920597484271
 11
3245.0740374394335
 21
3520.7920597484271
  0
LINE
  8
_0-0_
  6
CONTINUOUS
 62
    3
 10
5574.9297327129552
 20
3848.7748151288587
 11
6359.8831603688058
 21
3848.7748151288587
  0
TEXT
  8
_0-0_
 62
    7
 10
5618.258221403963
 20
3846.2748151288587
 40
112
 41
1
 50
0
  1
連結部詳細図
  0
LINE
  8
_0-0_
  6
CONTINUOUS
 62
    3
 10
3209.5268239079232
 20
3848.7748151288587
 11
3994.4802515637748
 21
3848.7748151288587
  0
TEXT
  8
_0-0_
 62
    7
 10
3252.8553125989315
 20
3846.2748151288587
 40
112
 41
1
 50
0
  1
接合部詳細図
  0
LINE
  8
_0-0_
  6
CONTINUOUS
 62
    2
 10
8305.5880503144653
 20
5493.1616163522003
 11
8305.5880503144653
 21
5653.1616163522012
  0
LINE
  8
_0-0_
  6
CONTINUOUS
 62
    4
 10
8812.7877545149895
 20
5493.1616163522003
 11
8799.1997418196751
 21
5442.4505567818887
  0
LINE
  8
_0-0_
  6
CONTINUOUS
 62
    4
 10
8812.7877545149895
 20
5493.1616163522003
 11
8826.3757672103001
 21
5442.4505567818887
  0
LINE
  8
_0-0_
  6
CONTINUOUS
 62
    4
 10
8812.7877545149895
 20
5493.1616163522003
 11
8812.7877545149895
 21
5260.3349561959503
  0
TEXT
  8
_0-0_
 62
    7
 10
8842.064550310939
 20
5266.1020301707403
 40
87.5
 41
0.7199999999999999
 50
0
  1
シール溝
  0
LINE
  8
_0-0_
  6
CONTINUOUS
 62
    4
 10
8812.7877545149895
 20
5260.3349561959503
 11
9106.6975386528829
 21
5260.3349561959503
  0
LINE
  8
_0-0_
  6
CENTER1
 62
    4
 10
4045.7535377358485
 20
2535.892059748427
 11
3108.253537735849
 21
2535.892059748427
  0
LINE
  8
_0-0_
  6
CONTINUOUS
 62
    4
 10
1426.6907958984375
 20
4584.14306640625
 11
1477.40185546875
 21
4597.731201171875
  0
LINE
  8
_0-0_
  6
CONTINUOUS
 62
    4
 10
1426.6907958984375
 20
4584.14306640625
 11
1477.40185546875
 21
4570.55517578125
  0
LINE
  8
_0-0_
  6
CONTINUOUS
 62
    4
 10
1426.6907958984375
 20
5184.1431884765625
 11
1426.6907958984375
 21
4954.1431884765625
  0
LINE
  8
_0-0_
  6
CONTINUOUS
 62
    4
 10
1426.6907958984375
 20
4824.14306640625
 11
1426.6907958984375
 21
4549.14306640625
  0
LINE
  8
_0-0_
  6
CONTINUOUS
 62
    4
 10
991.69073486328147
 20
5232.7310791015625
 11
978.10272216796897
 21
5283.4422607421875
  0
LINE
  8
_0-0_
  6
CONTINUOUS
 62
    4
 10
991.69073486328147
 20
5232.7310791015625
 11
1005.2787475585938
 21
5283.4422607421875
  0
LINE
  8
_0-0_
  6
CONTINUOUS
 62
    4
 10
1191.6907348632817
 20
5352.7310791015634
 11
1191.6907348632817
 21
5232.7310791015625
  0
LINE
  8
_0-0_
  6
CONTINUOUS
 62
    4
 10
1191.6907348632817
 20
5352.7310791015634
 11
1178.1027221679692
 21
5403.4422607421875
  0
LINE
  8
_0-0_
  6
CONTINUOUS
 62
    4
 10
1191.6907348632817
 20
5352.7310791015634
 11
1205.2787475585942
 21
5403.4422607421875
  0
LINE
  8
_0-0_
  6
CONTINUOUS
 62
    4
 10
1191.6907348632817
 20
5352.7310791015634
 11
1205.2787475585942
 21
5302.02001953125
  0
LINE
  8
_0-0_
  6
CONTINUOUS
 62
    4
 10
1191.6907348632817
 20
5352.7310791015634
 11
1178.1027221679692
 21
5302.02001953125
  0
LINE
  8
_0-0_
  6
CONTINUOUS
 62
    4
 10
1191.6907348632817
 20
5232.7310791015625
 11
1178.1027221679692
 21
5283.4422607421875
  0
LINE
  8
_0-0_
  6
CONTINUOUS
 62
    4
 10
1191.6907348632817
 20
5232.7310791015625
 11
1205.2787475585942
 21
5283.4422607421875
  0
LINE
  8
_0-0_
  6
CONTINUOUS
 62
    4
 10
1391.6907348632814
 20
5232.7310791015625
 11
956.69073486328147
 21
5232.7310791015625
  0
LINE
  8
_0-0_
  6
CONTINUOUS
 62
    4
 10
1391.6907348632814
 20
5352.7310791015634
 11
1156.6907348632817
 21
5352.7310791015634
  0
LINE
  8
_0-0_
  6
CONTINUOUS
 62
    4
 10
1814.3959960937502
 20
5389.3487548828125
 11
1982.3959960937502
 21
5399.4287109375009
  0
LINE
  8
_0-0_
  6
CONTINUOUS
 62
    4
 10
1814.3959960937502
 20
5389.3487548828125
 11
1864.2022705078129
 21
5405.9495849609384
  0
LINE
  8
_0-0_
  6
CONTINUOUS
 62
    4
 10
1814.3959960937502
 20
5389.3487548828125
 11
1865.8298339843752
 21
5378.8223876953125
  0
LINE
  8
_0-0_
  6
CONTINUOUS
 62
    4
 10
1391.6907348632814
 20
5602.7310791015634
 11
956.69073486328147
 21
5602.7310791015634
  0
LINE
  8
_0-0_
  6
CONTINUOUS
 62
    4
 10
991.69073486328147
 20
5602.7310791015634
 11
991.69073486328147
 21
5232.7310791015625
  0
LINE
  8
_0-0_
  6
CONTINUOUS
 62
    4
 10
991.69073486328147
 20
5602.7310791015634
 11
1005.2787475585938
 21
5552.0200195312509
  0
LINE
  8
_0-0_
  6
CONTINUOUS
 62
    4
 10
991.69073486328147
 20
5602.7310791015634
 11
978.10272216796897
 21
5552.0200195312509
  0
LINE
  8
_0-0_
  6
CONTINUOUS
 62
    4
 10
1191.6907348632817
 20
5602.7310791015634
 11
1191.6907348632817
 21
5352.7310791015634
  0
LINE
  8
_0-0_
  6
CONTINUOUS
 62
    4
 10
1191.6907348632817
 20
5602.7310791015634
 11
1205.2787475585942
 21
5552.0200195312509
  0
LINE
  8
_0-0_
  6
CONTINUOUS
 62
    4
 10
1191.6907348632817
 20
5602.7310791015634
 11
1178.1027221679692
 21
5552.0200195312509
  0
LINE
  8
_0-0_
  6
CONTINUOUS
 62
    4
 10
2141.6907958984375
 20
5184.1431884765625
 11
2141.6907958984375
 21
4549.14306640625
  0
LINE
  8
_0-0_
  6
CONTINUOUS
 62
    4
 10
2141.6907958984375
 20
4584.14306640625
 11
1426.6907958984375
 21
4584.14306640625
  0
LINE
  8
_0-0_
  6
CONTINUOUS
 62
    4
 10
2141.6907958984375
 20
4584.14306640625
 11
2090.9796142578125
 21
4570.55517578125
  0
LINE
  8
_0-0_
  6
CONTINUOUS
 62
    4
 10
2141.6907958984375
 20
4584.14306640625
 11
2090.9796142578125
 21
4597.731201171875
  0
LINE
  8
_0-0_
  6
CONTINUOUS
 62
    2
 10
2141.6907958984375
 20
5232.7310791015625
 11
1426.6907958984375
 21
5232.7310791015625
  0
LINE
  8
_0-0_
  6
CONTINUOUS
 62
    2
 10
2131.6907958984375
 20
5382.7310791015625
 11
2141.6907958984375
 21
5232.7310791015625
  0
LINE
  8
_0-0_
  6
CONTINUOUS
 62
    4
 10
2174.8460693359375
 20
5262.7310791015625
 11
2411.7684326171875
 21
5262.7310791015625
  0
LINE
  8
_0-0_
  6
CONTINUOUS
 62
    4
 10
2176.7684326171879
 20
5232.7310791015625
 11
2611.7685546875
 21
5232.7310791015625
  0
LINE
  8
_0-0_
  6
CONTINUOUS
 62
    4
 10
2166.8460693359375
 20
5382.7310791015625
 11
2611.7685546875
 21
5382.7310791015625
  0
LINE
  8
_0-0_
  6
CONTINUOUS
 62
    4
 10
2576.7685546875
 20
5382.7310791015625
 11
2590.3564453125004
 21
5332.02001953125
  0
LINE
  8
_0-0_
  6
CONTINUOUS
 62
    4
 10
2576.7685546875
 20
5232.7310791015625
 11
2590.3564453125004
 21
5283.4422607421875
  0
LINE
  8
_0-0_
  6
CONTINUOUS
 62
    4
 10
1426.6907958984375
 20
5937.7311401367187
 11
1606.6907958984375
 21
5937.7311401367187
  0
LINE
  8
_0-0_
  6
CONTINUOUS
 62
    4
 10
1606.6907958984375
 20
5937.7311401367187
 11
1555.9796142578129
 21
5924.1431274414062
  0
LINE
  8
_0-0_
  6
CONTINUOUS
 62
    4
 10
1606.6907958984375
 20
5937.7311401367187
 11
1555.9796142578129
 21
5951.3191528320312
  0
LINE
  8
_0-0_
  6
CONTINUOUS
 62
    4
 10
1426.6907958984375
 20
5937.7311401367187
 11
1477.40185546875
 21
5951.3191528320312
  0
LINE
  8
_0-0_
  6
CONTINUOUS
 62
    4
 10
1426.6907958984375
 20
5937.7311401367187
 11
1477.40185546875
 21
5924.1431274414062
  0
LINE
  8
_0-0_
  6
CONTINUOUS
 62
    4
 10
1631.6907958984377
 20
5937.7311401367187
 11
2131.6907958984375
 21
5937.7311401367187
  0
LINE
  8
_0-0_
  6
CONTINUOUS
 62
    4
 10
1631.6907958984377
 20
5937.7311401367187
 11
1682.40185546875
 21
5951.3191528320312
  0
LINE
  8
_0-0_
  6
CONTINUOUS
 62
    4
 10
1631.6907958984377
 20
5937.7311401367187
 11
1682.40185546875
 21
5924.1431274414062
  0
LINE
  8
_0-0_
  6
CONTINUOUS
 62
    4
 10
2131.6907958984375
 20
5937.7311401367187
 11
2080.9796142578129
 21
5924.1431274414062
  0
LINE
  8
_0-0_
  6
CONTINUOUS
 62
    4
 10
2131.6907958984375
 20
5937.7311401367187
 11
2080.9796142578129
 21
5951.3191528320312
  0
LINE
  8
_0-0_
  6
CONTINUOUS
 62
    4
 10
2141.6907958984375
 20
5937.7311401367187
 11
2192.4018554687504
 21
5951.3191528320312
  0
LINE
  8
_0-0_
  6
CONTINUOUS
 62
    4
 10
2141.6907958984375
 20
5937.7311401367187
 11
2192.4018554687504
 21
5924.1431274414062
  0
LINE
  8
_0-0_
  6
CONTINUOUS
 62
    4
 10
2141.6907958984375
 20
5937.7311401367187
 11
2311.6907958984379
 21
5937.7311401367187
  0
LINE
  8
_0-0_
  6
CONTINUOUS
 62
    4
 10
1631.6907958984377
 20
5972.7311401367187
 11
1631.6907958984377
 21
5497.4151611328125
  0
LINE
  8
_0-0_
  6
CONTINUOUS
 62
    4
 10
1606.6907958984375
 20
5972.7311401367187
 11
1606.6907958984375
 21
5637.7310791015634
  0
LINE
  8
_0-0_
  6
CONTINUOUS
 62
    4
 10
1426.6907958984375
 20
5972.7311401367187
 11
1426.6907958984375
 21
5637.7310791015634
  0
LINE
  8
_0-0_
  6
CONTINUOUS
 62
    4
 10
1599.2812500000002
 20
5595.321533203125
 11
1696.9746093750002
 21
5764.5314941406259
  0
LINE
  8
_0-0_
  6
CONTINUOUS
 62
    4
 10
1599.2812500000002
 20
5595.321533203125
 11
1612.8692626953127
 21
5646.03271484375
  0
LINE
  8
_0-0_
  6
CONTINUOUS
 62
    4
 10
1599.2812500000002
 20
5595.321533203125
 11
1636.4042968750002
 21
5632.4447021484375
  0
LINE
  8
_0-0_
  6
CONTINUOUS
 62
    2
 10
1426.6907958984375
 20
5232.7310791015625
 11
1426.6907958984375
 21
5602.7310791015634
  0
LINE
  8
_0-0_
  6
CONTINUOUS
 62
    2
 10
1579.5411376953127
 20
5602.7310791015634
 11
1426.6907958984375
 21
5602.7310791015634
  0
LINE
  8
_0-0_
  6
CONTINUOUS
 62
    2
 10
1629.7781982421879
 20
5371.8563232421875
 11
1609.3922119140627
 21
5575.7161865234384
  0
LINE
  8
_0-0_
  6
CONTINUOUS
 62
    2
 10
1650.8768310546879
 20
5353.88232421875
 11
2131.6907958984375
 21
5382.7310791015625
  0
LINE
  8
_0-0_
  6
CONTINUOUS
 62
    4
 10
1636.8959960937502
 20
5357.8072509765625
 11
1784.114013671875
 21
5612.7962646484375
  0
LINE
  8
_0-0_
  6
CONTINUOUS
 62
    4
 10
1636.8959960937502
 20
5357.8072509765625
 11
1650.4840087890627
 21
5408.518310546875
  0
LINE
  8
_0-0_
  6
CONTINUOUS
 62
    4
 10
1636.8959960937502
 20
5357.8072509765625
 11
1674.0190429687502
 21
5394.930419921875
  0
LINE
  8
_0-0_
  6
CONTINUOUS
 62
    4
 10
2131.6907958984375
 20
5972.7311401367187
 11
2131.6907958984375
 21
5417.7940673828125
  0
LINE
  8
_0-0_
  6
CONTINUOUS
 62
    4
 10
2141.6907958984375
 20
5418.39404296875
 11
2141.6907958984375
 21
5972.7311401367187
  0
ARC
  8
_0-0_
  6
CONTINUOUS
 62
    2
 10
1579.5411376953127
 20
5572.7310791015625
 40
30
 50
5.7105865478515625
 51
90
  0
ARC
  8
_0-0_
  6
CONTINUOUS
 62
    2
 10
1649.6789550781254
 20
5373.846435546875
 40
20
 50
185.71058654785156
 51
273.43362426757812
  0
TEXT
  8
_0-0_
 62
    7
 10
1589.8403320312502
 20
6041.8692626953125
 40
105
 41
0.8333333333333333
 50
0
  1
25
  0
TEXT
  8
_0-0_
 62
    7
 10
2201.6907958984375
 20
5945.2311401367187
 40
105
 41
0.8333333333333333
 50
0
  1
10
  0
TEXT
  8
_0-0_
 62
    7
 10
1816.0657958984375
 20
5945.2311401367187
 40
105
 41
0.8333333333333333
 50
0
  1
500
  0
TEXT
  8
_0-0_
 62
    7
 10
1451.0657958984379
 20
5945.2311401367187
 40
105
 41
0.8333333333333333
 50
0
  1
180
  0
TEXT
  8
_0-0_
 62
    7
 10
983.21441650390681
 20
5353.3096923828125
 40
105
 41
0.8333333333333333
 50
90
  1
370
  0
TEXT
  8
_0-0_
 62
    7
 10
1184.0211181640629
 20
5410.2457275390625
 40
105
 41
0.8333333333333333
 50
90
  1
250
  0
TEXT
  8
_0-0_
 62
    7
 10
1184.1907348632814
 20
5227.1060791015625
 40
105
 41
0.8333333333333333
 50
90
  1
120
  0
LINE
  8
_0-0_
  6
CONTINUOUS
 62
    4
 10
1696.9746093750002
 20
5764.5314941406259
 11
1881.8009033203127
 21
5764.5314941406259
  0
LINE
  8
_0-0_
  6
CONTINUOUS
 62
    4
 10
1784.114013671875
 20
5612.7962646484375
 11
1968.9403076171875
 21
5612.7962646484375
  0
TEXT
  8
_0-0_
 62
    7
 10
1707.6572265625
 20
5763.189697265625
 40
87.5
 41
1
 50
0
  1
R=30
  0
TEXT
  8
_0-0_
 62
    7
 10
1794.7965087890627
 20
5611.4544677734375
 40
87.5
 41
1
 50
0
  1
R=20
  0
TEXT
  8
_0-0_
 62
    7
 10
1879.4780273437502
 20
5401.423095703125
 40
87.5
 41
1
 50
0
  1
6%
  0
TEXT
  8
_0-0_
 62
    7
 10
1718.0192871093754
 20
4592.035888671875
 40
105
 41
0.8333333333333333
 50
0
  1
715
  0
LINE
  8
_0-0_
  6
CONTINUOUS
 62
    4
 10
2376.7684326171875
 20
5262.7310791015625
 11
2363.180419921875
 21
5313.4422607421884
  0
LINE
  8
_0-0_
  6
CONTINUOUS
 62
    4
 10
2376.7684326171875
 20
5262.7310791015625
 11
2390.3564453125
 21
5313.4422607421884
  0
LINE
  8
_0-0_
  6
CONTINUOUS
 62
    4
 10
2376.7684326171875
 20
5262.7310791015625
 11
2363.180419921875
 21
5313.4422607421884
  0
LINE
  8
_0-0_
  6
CONTINUOUS
 62
    4
 10
2376.7684326171875
 20
5262.7310791015625
 11
2390.3564453125
 21
5313.4422607421884
  0
LINE
  8
_0-0_
  6
CONTINUOUS
 62
    4
 10
2376.7684326171875
 20
5232.7310791015625
 11
2390.3564453125
 21
5182.02001953125
  0
LINE
  8
_0-0_
  6
CONTINUOUS
 62
    4
 10
2376.7684326171875
 20
5232.7310791015625
 11
2363.180419921875
 21
5182.02001953125
  0
LINE
  8
_0-0_
  6
CONTINUOUS
 62
    4
 10
2376.7684326171875
 20
5232.7310791015625
 11
2376.7684326171875
 21
5102.7310791015625
  0
LINE
  8
_0-0_
  6
CONTINUOUS
 62
    4
 10
2376.7684326171875
 20
5262.7310791015625
 11
2376.7684326171875
 21
5362.7310791015625
  0
LINE
  8
_0-0_
  6
CONTINUOUS
 62
    4
 10
2576.7685546875
 20
5382.7310791015625
 11
2576.7685546875
 21
5232.7310791015625
  0
LINE
  8
_0-0_
  6
CONTINUOUS
 62
    4
 10
2576.7685546875
 20
5382.7310791015625
 11
2563.1804199218754
 21
5332.02001953125
  0
LINE
  8
_0-0_
  6
CONTINUOUS
 62
    4
 10
2576.7685546875
 20
5232.7310791015625
 11
2563.1804199218754
 21
5283.4422607421875
  0
TEXT
  8
_0-0_
 62
    7
 10
2369.2684326171879
 20
5112.7310791015634
 40
105
 41
0.8333333333333333
 50
90
  1
30
  0
TEXT
  8
_0-0_
 62
    7
 10
2569.2685546875004
 20
5242.1060791015625
 40
105
 41
0.8333333333333333
 50
90
  1
150
  0
LINE
  8
_0-0_
  6
CONTINUOUS
 62
    2
 10
8305.5880503144653
 20
4509.2425911949685
 11
9139.7540659394653
 21
4509.2425911949685
  0
LINE
  8
_0-0_
  6
CONTINUOUS
 62
    2
 10
8305.5880503144653
 20
4940.9085763023904
 11
8305.5880503144653
 21
4509.2425911949685
  0
LINE
  8
_0-0_
  6
CONTINUOUS
 62
    2
 10
8483.9070047822388
 20
4940.9085763023904
 11
8305.5880503144653
 21
4940.9085763023904
  0
LINE
  8
_0-0_
  6
CONTINUOUS
 62
    2
 10
8542.4611734834106
 20
4671.623328499656
 11
8518.7340158906372
 21
4909.3841317223113
  0
LINE
  8
_0-0_
  6
CONTINUOUS
 62
    2
 10
8514.5960916963013
 20
4589.0691979454568
 11
9131.5748056855609
 21
4626.0138924644998
  0
LINE
  8
_0-0_
  6
CONTINUOUS
 62
    2
 10
8431.10555214552
 20
4882.5755990074685
 11
8305.5880503144653
 21
4882.5755990074685
  0
LINE
  8
_0-0_
  6
CONTINUOUS
 62
    2
 10
8465.9325632539184
 20
4851.0511239098123
 11
8489.9837412324341
 21
4610.0434868858865
  0
ARC
  8
_0-0_
  6
CONTINUOUS
 62
    2
 10
8483.9070047822388
 20
4905.9085763023904
 40
35
 50
5.6989135742187508
 51
90.000000000000014
  0
ARC
  8
_0-0_
  6
CONTINUOUS
 62
    2
 10
8513.2014078584106
 20
4612.3604805992654
 40
23.333000183105468
 50
185.69891357421877
 51
273.42677307128906
  0
ARC
  8
_0-0_
  6
CONTINUOUS
 62
    2
 10
8431.10555214552
 20
4847.5755990074685
 40
35
 50
5.6989135742187508
 51
90.000000000000014
  0
TEXT
  8
_0-0_
 62
    7
 10
9370.7143930879046
 20
5381.5594435006387
 40
105
 41
0.8333333333333333
 50
90
  1
5
  0
LINE
  8
_0-0_
  6
CONTINUOUS
 62
    4
 10
9374.7540811982544
 20
5363.1616163522003
 11
9374.7540811982544
 21
5493.1616163522003
  0
LINE
  8
_0-0_
  6
CONTINUOUS
 62
    4
 10
9174.7540659394653
 20
5493.1616163522003
 11
9409.7540811982544
 21
5493.1616163522003
  0
LINE
  8
_0-0_
  6
CONTINUOUS
 62
    4
 10
9174.7540659394653
 20
5498.9946163522008
 11
9409.7540811982544
 21
5498.9946163522008
  0
LINE
  8
_0-0_
  6
CONTINUOUS
 62
    2
 10
9139.7540659394653
 20
5493.1616163522003
 11
9139.7540659394653
 21
5653.1616163522012
  0
LINE
  8
_0-0_
  6
CONTINUOUS
 62
    4
 10
9374.7540811982544
 20
5493.1616163522003
 11
9388.3420810661355
 21
5442.4505104720246
  0
LINE
  8
_0-0_
  6
CONTINUOUS
 62
    4
 10
9374.7540811982544
 20
5493.1616163522003
 11
9361.1660813303733
 21
5442.4505104720246
  0
LINE
  8
_0-0_
  6
CONTINUOUS
 62
    2
 10
8305.5880503144653
 20
5498.9946163522008
 11
9139.7540659394653
 21
5498.9946163522008
  0
LINE
  8
_0-0_
  6
CONTINUOUS
 62
    2
 10
8305.5880503144653
 20
5493.1616163522003
 11
9139.7540659394653
 21
5493.1616163522003
  0
LINE
  8
_0-0_
  6
CENTER1
 62
    4
 10
8255.5880503144653
 20
5653.1616163522012
 11
9189.7540659394653
 21
5653.1616163522012
  0
LINE
  8
_0-0_
  6
CONTINUOUS
 62
    2
 10
8515.5880503144653
 20
5493.1616163522003
 11
8515.5880503144653
 21
5653.1616163522012
  0
LINE
  8
_0-0_
  6
CONTINUOUS
 62
    2
 10
8544.7540503144646
 20
5493.1616163522003
 11
8544.7540503144646
 21
5653.1616163522012
  0
LINE
  8
_0-0_
  6
CONTINUOUS
 62
    2
 10
8305.5880503144653
 20
3737.7664994825254
 11
9139.7540503144646
 21
3737.7664994825254
  0
LINE
  8
_0-0_
  6
CONTINUOUS
 62
    2
 10
9128.0646798364432
 20
3913.1170766858376
 11
9139.7540503144646
 21
3737.7664994825254
  0
LINE
  8
_0-0_
  6
CONTINUOUS
 62
    4
 10
2141.690745547256
 20
3479.2286778417915
 11
2141.690745547256
 21
2985.6406779739099
  0
LINE
  8
_0-0_
  6
CONTINUOUS
 62
    4
 10
2141.690745547256
 20
3020.6406779739099
 11
1426.6907455472562
 21
3020.6406779739099
  0
LINE
  8
_0-0_
  6
CONTINUOUS
 62
    4
 10
2141.690745547256
 20
3020.6406779739099
 11
2090.9796396670799
 21
3007.0526781060275
  0
LINE
  8
_0-0_
  6
CONTINUOUS
 62
    4
 10
2141.690745547256
 20
3020.6406779739099
 11
2090.9796396670799
 21
3034.2286778417915
  0
TEXT
  8
_0-0_
 62
    7
 10
1718.8161976282872
 20
3028.0680312829031
 40
105
 41
0.8333333333333333
 50
0
  1
715
  0
LINE
  8
_0-0_
  6
CONTINUOUS
 62
    2
 10
2141.6907455472564
 20
3514.2286778417915
 11
1426.6907455472562
 21
3514.2286778417915
  0
LINE
  8
_0-0_
  6
CONTINUOUS
 62
    4
 10
2579.6907455472555
 20
3664.2288127395345
 11
2579.6907455472555
 21
3514.2288127395336
  0
LINE
  8
_0-0_
  6
CONTINUOUS
 62
    4
 10
2579.6907455472555
 20
3664.2288127395345
 11
2593.2786361722555
 21
3613.5176310989086
  0
LINE
  8
_0-0_
  6
CONTINUOUS
 62
    4
 10
2579.6907455472555
 20
3664.2288127395345
 11
2566.102732851943
 21
3613.5176310989086
  0
LINE
  8
_0-0_
  6
CONTINUOUS
 62
    4
 10
2579.6907455472555
 20
3514.2288127395336
 11
2566.102732851943
 21
3564.939994380159
  0
LINE
  8
_0-0_
  6
CONTINUOUS
 62
    4
 10
2579.6907455472555
 20
3514.2288127395336
 11
2593.2786361722555
 21
3564.939994380159
  0
LINE
  8
_0-0_
  6
CONTINUOUS
 62
    4
 10
2379.690745547256
 20
3514.2288127395336
 11
2393.2786361722555
 21
3463.517631098909
  0
LINE
  8
_0-0_
  6
CONTINUOUS
 62
    4
 10
2379.690745547256
 20
3514.2288127395336
 11
2366.1027328519426
 21
3463.517631098909
  0
LINE
  8
_0-0_
  6
CONTINUOUS
 62
    4
 10
2379.690745547256
 20
3544.2288127395336
 11
2366.1027328519426
 21
3594.9399943801595
  0
LINE
  8
_0-0_
  6
CONTINUOUS
 62
    4
 10
2379.690745547256
 20
3544.2288127395336
 11
2393.2786361722555
 21
3594.9399943801595
  0
LINE
  8
_0-0_
  6
CONTINUOUS
 62
    4
 10
2379.690745547256
 20
3544.2288127395336
 11
2366.1027328519426
 21
3594.9399943801595
  0
LINE
  8
_0-0_
  6
CONTINUOUS
 62
    4
 10
2379.690745547256
 20
3544.2288127395336
 11
2393.2786361722555
 21
3594.9399943801595
  0
LINE
  8
_0-0_
  6
CONTINUOUS
 62
    4
 10
2379.690745547256
 20
3544.2288127395336
 11
2379.690745547256
 21
3624.2288127395336
  0
LINE
  8
_0-0_
  6
CONTINUOUS
 62
    4
 10
2379.690745547256
 20
3514.2288127395336
 11
2379.690745547256
 21
3384.2288127395345
  0
TEXT
  8
_0-0_
 62
    7
 10
2372.190745547256
 20
3394.228812739534
 40
87.5
 41
1
 50
90
  1
30
  0
TEXT
  8
_0-0_
 62
    7
 10
2574.156374146386
 20
3523.0778448140263
 40
105
 41
0.8333333333333333
 50
90
  1
150
  0
LINE
  8
_0-0_
  6
CONTINUOUS
 62
    2
 10
2131.6907365540737
 20
3664.2288127395345
 11
2141.6907455472564
 21
3514.2286778417915
  0
TEXT
  8
_0-0_
 62
    7
 10
1947.0584079194422
 20
3688.8695424311104
 40
87.5
 41
1
 50
0
  1
6%
  0
LINE
  8
_0-0_
  6
CONTINUOUS
 62
    4
 10
1881.9763181996818
 20
3676.7951791967866
 11
2049.97631819968
 21
3686.8751791967865
  0
LINE
  8
_0-0_
  6
CONTINUOUS
 62
    4
 10
1881.9763181996818
 20
3676.7951791967866
 11
1931.7825733697018
 21
3693.3959908016063
  0
LINE
  8
_0-0_
  6
CONTINUOUS
 62
    4
 10
1881.9763181996818
 20
3676.7951791967866
 11
1933.410206246699
 21
3666.2687761849892
  0
LINE
  8
_0-0_
  6
CONTINUOUS
 62
    4
 10
2166.7684281036104
 20
3664.2288127395345
 11
2614.6907455472555
 21
3664.2288127395345
  0
LINE
  8
_0-0_
  6
CONTINUOUS
 62
    4
 10
2174.7684281036104
 20
3544.2288127395336
 11
2414.690745547256
 21
3544.2288127395336
  0
LINE
  8
_0-0_
  6
CONTINUOUS
 62
    4
 10
2176.7684281036108
 20
3514.2288127395336
 11
2614.6907455472555
 21
3514.2288127395336
  0
LINE
  8
_0-0_
  6
CONTINUOUS
 62
    2
 10
1606.6907455472567
 20
2379.1759390000484
 11
1606.6907455472567
 21
1379.1759390000486
  0
LINE
  8
_0-0_
  6
CONTINUOUS
 62
    2
 10
1631.6907455472564
 20
2379.1759390000484
 11
1631.6907455472564
 21
1379.1759390000486
  0
LINE
  8
_0-0_
  6
CONTINUOUS
 62
    4
 10
1191.6907348632817
 20
3634.228812739534
 11
1191.6907348632817
 21
3514.2288127395336
  0
LINE
  8
_0-0_
  6
CONTINUOUS
 62
    4
 10
991.69073486328147
 20
3514.2288127395336
 11
978.10275268554732
 21
3564.939994380159
  0
LINE
  8
_0-0_
  6
CONTINUOUS
 62
    4
 10
991.69073486328147
 20
3514.2288127395336
 11
1005.2787475585948
 21
3564.939994380159
  0
LINE
  8
_0-0_
  6
CONTINUOUS
 62
    4
 10
1191.6907348632817
 20
3634.228812739534
 11
1182.3125000000004
 21
3599.228812739534
  0
LINE
  8
_0-0_
  6
CONTINUOUS
 62
    4
 10
1191.6907348632817
 20
3634.228812739534
 11
1201.0689697265629
 21
3599.228812739534
  0
LINE
  8
_0-0_
  6
CONTINUOUS
 62
    4
 10
1191.6907348632817
 20
3514.2288127395336
 11
1201.0689697265629
 21
3549.2288127395336
  0
LINE
  8
_0-0_
  6
CONTINUOUS
 62
    4
 10
1191.6907348632817
 20
3514.2288127395336
 11
1182.3125000000004
 21
3549.2288127395336
  0
TEXT
  8
_0-0_
 62
    7
 10
1184.1907348632814
 20
3508.603812739534
 40
105
 41
0.8333333333333333
 50
90
  1
120
  0
LINE
  8
_0-0_
  6
CONTINUOUS
 62
    4
 10
991.69073486328147
 20
3664.228812739534
 11
991.69073486328147
 21
3514.2288127395336
  0
LINE
  8
_0-0_
  6
CONTINUOUS
 62
    4
 10
991.69073486328147
 20
3664.228812739534
 11
1005.2787347311639
 21
3613.5177068593579
  0
LINE
  8
_0-0_
  6
CONTINUOUS
 62
    4
 10
991.69073486328147
 20
3664.228812739534
 11
978.10273499539903
 21
3613.5177068593579
  0
TEXT
  8
_0-0_
 62
    7
 10
984.1907348632817
 20
3523.6038127395336
 40
105
 41
0.8333333333333333
 50
90
  1
150
  0
LINE
  8
_0-0_
  6
CONTINUOUS
 62
    4
 10
1191.6907348632817
 20
3664.228812739534
 11
1182.5030517578134
 21
3698.517631098909
  0
LINE
  8
_0-0_
  6
CONTINUOUS
 62
    4
 10
1191.6907348632817
 20
3664.228812739534
 11
1182.5030517578134
 21
3698.517631098909
  0
LINE
  8
_0-0_
  6
CONTINUOUS
 62
    4
 10
1191.6907348632817
 20
3664.228812739534
 11
1200.8784179687511
 21
3698.517631098909
  0
LINE
  8
_0-0_
  6
CONTINUOUS
 62
    4
 10
1191.6907348632817
 20
3664.228812739534
 11
1200.8784179687511
 21
3698.517631098909
  0
TEXT
  8
_0-0_
 62
    7
 10
1188.5792846679689
 20
3700.7625041457836
 40
105
 41
0.8333333333333333
 50
90
  1
30
  0
LINE
  8
_0-0_
  6
CONTINUOUS
 62
    4
 10
1191.6907348632817
 20
3664.228812739534
 11
1191.6907348632817
 21
3794.2288127395336
  0
LINE
  8
_0-0_
  6
CONTINUOUS
 62
    4
 10
1391.6907455472562
 20
3634.228812739534
 11
1156.6907348632817
 21
3634.228812739534
  0
LINE
  8
_0-0_
  6
CONTINUOUS
 62
    4
 10
1391.6907455472562
 20
3664.228812739534
 11
956.69073486328147
 21
3664.228812739534
  0
LINE
  8
_0-0_
  6
CONTINUOUS
 62
    4
 10
1391.6907455472562
 20
3514.2288127395336
 11
956.69073486328147
 21
3514.2288127395336
  0
LINE
  8
_0-0_
  6
CONTINUOUS
 62
    2
 10
1426.6907455472562
 20
3514.2286778417915
 11
1426.6907455472562
 21
3664.228677841791
  0
LINE
  8
_0-0_
  6
CONTINUOUS
 62
    4
 10
1426.6907455472562
 20
3969.2286778417915
 11
1256.690745547256
 21
3969.2286778417915
  0
LINE
  8
_0-0_
  6
CONTINUOUS
 62
    4
 10
1426.6907455472562
 20
3969.2286778417915
 11
1375.9796249417872
 21
3955.640543076166
  0
LINE
  8
_0-0_
  6
CONTINUOUS
 62
    4
 10
1426.6907455472562
 20
3969.2286778417915
 11
1375.9796249417872
 21
3982.8165684667906
  0
LINE
  8
_0-0_
  6
CONTINUOUS
 62
    4
 10
1658.6907455472564
 20
3969.2286778417915
 11
1659.494639590225
 21
3969.2286778417915
  0
TEXT
  8
_0-0_
 62
    7
 10
1279.190745547256
 20
3976.7286778417906
 40
105
 41
0.8333333333333333
 50
0
  1
30
  0
LINE
  8
_0-0_
  6
CONTINUOUS
 62
    4
 10
1456.6907455472564
 20
3969.2286778417915
 11
1507.4018514274323
 21
3982.8166777096739
  0
LINE
  8
_0-0_
  6
CONTINUOUS
 62
    4
 10
1456.6907455472564
 20
3969.2286778417915
 11
1507.4018514274323
 21
3955.640677973909
  0
LINE
  8
_0-0_
  6
CONTINUOUS
 62
    4
 10
1426.6907455472562
 20
3969.2286778417915
 11
1456.6907455472564
 21
3969.2286778417915
  0
TEXT
  8
_0-0_
 62
    7
 10
2201.6907975892304
 20
3976.7286778417906
 40
105
 41
0.8333333333333333
 50
0
  1
10
  0
LINE
  8
_0-0_
  6
CONTINUOUS
 62
    4
 10
2141.6907975892299
 20
3969.2286778417915
 11
2311.6907975892299
 21
3969.2286778417915
  0
LINE
  8
_0-0_
  6
CONTINUOUS
 62
    4
 10
2141.6907975892299
 20
3969.2286778417915
 11
2192.4018571595424
 21
3982.8165684667906
  0
LINE
  8
_0-0_
  6
CONTINUOUS
 62
    4
 10
2141.6907975892299
 20
3969.2286778417915
 11
2192.4018571595424
 21
3955.640543076166
  0
TEXT
  8
_0-0_
 62
    7
 10
1816.0657975892293
 20
3976.7286778417906
 40
105
 41
0.8333333333333333
 50
0
  1
500
  0
LINE
  8
_0-0_
  6
CONTINUOUS
 62
    4
 10
2131.6907975892304
 20
3969.2286778417915
 11
2080.9796159486045
 21
3982.8165684667906
  0
LINE
  8
_0-0_
  6
CONTINUOUS
 62
    4
 10
2131.6907975892304
 20
3969.2286778417915
 11
2080.9796159486045
 21
3955.640543076166
  0
LINE
  8
_0-0_
  6
CONTINUOUS
 62
    4
 10
1632.4946305970424
 20
3969.2286778417915
 11
2131.6907975892304
 21
3969.2286778417915
  0
LINE
  8
_0-0_
  6
CONTINUOUS
 62
    4
 10
1632.4946305970424
 20
3969.2286778417915
 11
1683.205812237667
 21
3982.8165684667906
  0
LINE
  8
_0-0_
  6
CONTINUOUS
 62
    4
 10
1632.4946305970424
 20
3969.2286778417915
 11
1683.205812237667
 21
3955.640543076166
  0
LINE
  8
_0-0_
  6
CONTINUOUS
 62
    4
 10
1456.6907455472564
 20
3969.2286778417915
 11
1632.4946305970424
 21
3969.2286778417915
  0
LINE
  8
_0-0_
  6
CONTINUOUS
 62
    4
 10
1632.4946305970424
 20
3969.2286778417915
 11
1581.7835247168663
 21
3955.640677973909
  0
LINE
  8
_0-0_
  6
CONTINUOUS
 62
    4
 10
1632.4946305970424
 20
3969.2286778417915
 11
1581.7835247168663
 21
3982.8166777096735
  0
TEXT
  8
_0-0_
 62
    7
 10
1478.0136560378059
 20
3975.4363591893625
 40
105
 41
0.8333333333333333
 50
0
  1
175
  0
LINE
  8
_0-0_
  6
CONTINUOUS
 62
    4
 10
1426.6907455472562
 20
4004.2286778417915
 11
1426.6907455472562
 21
3699.228677841791
  0
LINE
  8
_0-0_
  6
CONTINUOUS
 62
    4
 10
1456.6907455472564
 20
4004.2286778417915
 11
1456.6907455472564
 21
3699.228677841791
  0
LINE
  8
_0-0_
  6
CONTINUOUS
 62
    4
 10
2131.6907975892304
 20
4004.2286778417915
 11
2131.6907975892304
 21
3689.2286778417915
  0
LINE
  8
_0-0_
  6
CONTINUOUS
 62
    4
 10
2141.6907975892299
 20
3689.2286778417915
 11
2141.6907975892299
 21
4004.2286778417915
  0
LINE
  8
_0-0_
  6
CONTINUOUS
 62
    2
 10
1426.6907455472562
 20
3664.228677841791
 11
1456.6907455472564
 21
3664.228677841791
  0
LINE
  8
_0-0_
  6
CONTINUOUS
 62
    2
 10
1456.6907455472564
 20
3664.228677841791
 11
1631.6907365540739
 21
3634.228812739534
  0
LINE
  8
_0-0_
  6
CONTINUOUS
 62
    4
 10
1631.6907365540739
 20
4004.2286778417915
 11
1631.6907365540739
 21
3669.2917561413646
  0
LINE
  8
_0-0_
  6
CONTINUOUS
 62
    2
 10
8305.5880503144653
 20
3912.7664994825254
 11
8305.5880503144653
 21
3737.7664994825254
  0
LINE
  8
_0-0_
  6
CONTINUOUS
 62
    2
 10
8305.5880503144653
 20
3912.7664994825254
 11
8340.5880503144653
 21
3912.7664994825254
  0
LINE
  8
_0-0_
  6
CONTINUOUS
 62
    2
 10
8340.5880503144653
 20
3912.7664994825254
 11
8544.7546503144658
 21
3877.7664994825254
  0
LINE
  8
_0-0_
  6
CONTINUOUS
 62
    2
 10
8544.7546503144658
 20
3877.7664994825254
 11
9128.0646798364432
 21
3913.1170766858376
  0
LINE
  8
_0-0_
  6
CONTINUOUS
 62
    2
 10
8541.5485918830727
 20
3819.1321776410286
 11
9131.5933844575502
 21
3854.8909044546412
  0
LINE
  8
_0-0_
  6
CONTINUOUS
 62
    2
 10
8305.5880503144653
 20
3854.4334994825253
 11
8335.6242817149559
 21
3854.4334994825253
  0
LINE
  8
_0-0_
  6
CONTINUOUS
 62
    2
 10
8335.6242817149559
 20
3854.4334994825253
 11
8541.5485918830727
 21
3819.1321776410286
  0
TEXT
  8
_0-0_
 62
    7
 10
3831.6369072526076
 20
1260.2823371944909
 40
105
 41
1
 50
0
  1
0.119
  0
TEXT
  8
_0-0_
 62
    7
 10
3831.6369072526076
 20
1115.2823371944921
 40
105
 41
1
 50
0
  1
　285
  0
LINE
  8
_0-0_
  6
CONTINUOUS
 62
    4
 10
6965.9790145902288
 20
5197.7310791015625
 11
6965.9790145902288
 21
4562.7309570312509
  0
LINE
  8
_0-0_
  6
CONTINUOUS
 62
    4
 10
6965.9790145902288
 20
4847.7310791015625
 11
6915.267832949602
 21
4861.3189697265625
  0
LINE
  8
_0-0_
  6
CONTINUOUS
 62
    4
 10
6965.9790145902288
 20
4847.7310791015625
 11
6915.267832949602
 21
4834.14306640625
  0
LINE
  8
_0-0_
  6
CONTINUOUS
 62
    4
 10
6965.9790145902288
 20
4597.7309570312509
 11
6915.267832949602
 21
4611.319091796875
  0
LINE
  8
_0-0_
  6
CONTINUOUS
 62
    4
 10
6965.9790145902288
 20
4597.7309570312509
 11
6915.267832949602
 21
4584.14306640625
  0
LINE
  8
_0-0_
  6
CONTINUOUS
 62
    4
 10
6725.9790145902297
 20
5197.7310791015625
 11
6725.9790145902297
 21
4812.73095703125
  0
LINE
  8
_0-0_
  6
CONTINUOUS
 62
    4
 10
6965.9790145902288
 20
4847.7310791015625
 11
6725.9790145902297
 21
4847.7310791015625
  0
LINE
  8
_0-0_
  6
CONTINUOUS
 62
    4
 10
6725.9790145902297
 20
4847.7310791015625
 11
6776.6901204704045
 21
4834.1430792336805
  0
LINE
  8
_0-0_
  6
CONTINUOUS
 62
    4
 10
6725.9790145902297
 20
4847.7310791015625
 11
6776.6901204704045
 21
4861.3190789694453
  0
TEXT
  8
_0-0_
 62
    7
 10
6775.591727272098
 20
4856.1317048189976
 40
105
 41
0.8333333333333333
 50
0
  1
240
  0
LINE
  8
_0-0_
  6
CONTINUOUS
 62
    4
 10
5965.9790145902288
 20
5197.7310791015625
 11
5965.9790145902288
 21
4562.7309570312509
  0
LINE
  8
_0-0_
  6
CONTINUOUS
 62
    4
 10
6965.9790145902288
 20
4597.7309570312509
 11
5965.9790145902288
 21
4597.7309570312509
  0
TEXT
  8
_0-0_
 62
    7
 10
6367.9790145902306
 20
4605.2309570312509
 40
105
 41
0.8333333333333333
 50
0
  1
1000
  0
LINE
  8
_0-0_
  6
CONTINUOUS
 62
    4
 10
5965.9790145902288
 20
4597.7309570312509
 11
6016.6901204704045
 21
4584.142957163368
  0
LINE
  8
_0-0_
  6
CONTINUOUS
 62
    4
 10
5965.9790145902288
 20
4597.7309570312509
 11
6016.6901204704045
 21
4611.3189568991328
  0
LINE
  8
_0-0_
  6
CONTINUOUS
 62
    4
 10
5965.9790145902288
 20
4847.7310791015625
 11
6016.6901204704045
 21
4834.1430792336805
  0
LINE
  8
_0-0_
  6
CONTINUOUS
 62
    4
 10
5965.9790145902288
 20
4847.7310791015625
 11
6016.6901204704045
 21
4861.3190789694453
  0
LINE
  8
_0-0_
  6
CONTINUOUS
 62
    4
 10
6725.9790145902297
 20
4847.7310791015625
 11
6675.2679087100523
 21
4861.3190789694453
  0
LINE
  8
_0-0_
  6
CONTINUOUS
 62
    4
 10
6725.9790145902297
 20
4847.7310791015625
 11
6675.2679087100523
 21
4834.1430792336805
  0
LINE
  8
_0-0_
  6
CONTINUOUS
 62
    2
 10
6965.9790145902288
 20
5232.7310791015625
 11
5965.9790145902288
 21
5232.7310791015625
  0
LINE
  8
_0-0_
  6
CONTINUOUS
 62
    4
 10
6040.9790145902297
 20
5032.7310791015634
 11
6070.9790145902288
 21
5040.7695312500009
  0
LINE
  8
_0-0_
  6
CONTINUOUS
 62
    4
 10
6040.9790145902297
 20
5032.7310791015634
 11
6070.9790145902288
 21
5024.6925048828125
  0
LINE
  8
_0-0_
  6
CONTINUOUS
 62
    4
 10
6040.9790145902297
 20
5281.5626220703134
 11
6040.9790145902297
 21
4997.7310791015634
  0
TEXT
  8
_0-0_
 62
    7
 10
6078.0766708402297
 20
5040.3409423828125
 40
105
 41
0.8333333333333333
 50
0
  1
75
  0
LINE
  8
_0-0_
  6
CONTINUOUS
 62
    4
 10
6180.6938583402279
 20
5032.7310791015634
 11
6040.9790145902297
 21
5032.7310791015634
  0
LINE
  8
_0-0_
  6
CONTINUOUS
 62
    4
 10
5965.9790145902288
 20
5032.7310791015634
 11
5885.9790145902297
 21
5032.7310791015634
  0
LINE
  8
_0-0_
  6
CONTINUOUS
 62
    4
 10
5965.9790145902288
 20
5032.7310791015634
 11
5935.9790145902297
 21
5024.6925048828125
  0
LINE
  8
_0-0_
  6
CONTINUOUS
 62
    4
 10
5965.9790145902288
 20
5032.7310791015634
 11
5935.9790145902297
 21
5040.7695312500009
  0
LINE
  8
_0-0_
  6
DASHED1
 62
    2
 10
6965.9790145902288
 20
5352.7310791015634
 11
5965.9790145902288
 21
5352.7310791015634
  0
LINE
  8
_0-0_
  6
CONTINUOUS
 62
    2
 10
6965.9790145902288
 20
5352.7310791015634
 11
6961.4790145902288
 21
5357.2310791015634
  0
LINE
  8
_0-0_
  6
CONTINUOUS
 62
    2
 10
6965.9790145902288
 20
5352.7310791015634
 11
6965.9790145902288
 21
5232.7310791015625
  0
LINE
  8
_0-0_
  6
DASHED1
 62
    2
 10
6961.4790145902288
 20
5382.7310791015625
 11
5965.9790145902288
 21
5382.7310791015625
  0
LINE
  8
_0-0_
  6
CONTINUOUS
 62
    4
 10
6734.3575223736361
 20
5311.3218070872117
 11
6743.4740517011496
 21
5363.0242141203525
  0
LINE
  8
_0-0_
  6
CONTINUOUS
 62
    4
 10
6734.3575223736361
 20
5311.3218070872117
 11
6768.1038718821791
 21
5351.5391403509574
  0
LINE
  8
_0-0_
  6
CONTINUOUS
 62
    4
 10
5730.9790145902288
 20
5232.7310791015625
 11
5739.0175888089788
 21
5202.7310791015634
  0
LINE
  8
_0-0_
  6
CONTINUOUS
 62
    4
 10
5730.9790145902288
 20
5232.7310791015625
 11
5722.9409286527279
 21
5202.7310791015634
  0
LINE
  8
_0-0_
  6
CONTINUOUS
 62
    4
 10
5730.9790145902288
 20
5102.010009765625
 11
5730.9790145902288
 21
5232.7310791015625
  0
LINE
  8
_0-0_
  6
CONTINUOUS
 62
    4
 10
5730.9790145902288
 20
5302.7310791015625
 11
5722.9409286527279
 21
5332.7310791015625
  0
LINE
  8
_0-0_
  6
CONTINUOUS
 62
    4
 10
5730.9790145902288
 20
5302.7310791015625
 11
5739.0175888089788
 21
5332.7310791015625
  0
LINE
  8
_0-0_
  6
CONTINUOUS
 62
    4
 10
5730.9790145902288
 20
5302.7310791015625
 11
5730.9790145902288
 21
5373.5928955078125
  0
LINE
  8
_0-0_
  6
CONTINUOUS
 62
    4
 10
5545.9790145902288
 20
5232.7310791015625
 11
5559.5670144581108
 21
5283.442184981739
  0
LINE
  8
_0-0_
  6
CONTINUOUS
 62
    4
 10
5545.9790145902288
 20
5232.7310791015625
 11
5532.3910147223477
 21
5283.442184981739
  0
TEXT
  8
_0-0_
 62
    7
 10
5726.5390731839779
 20
5101.1346435546875
 40
105
 41
0.8333333333333333
 50
90
  1
70
  0
LINE
  8
_0-0_
  6
CONTINUOUS
 62
    4
 10
6014.8359481839788
 20
5302.7310791015625
 11
5695.9790145902288
 21
5302.7310791015625
  0
LINE
  8
_0-0_
  6
CONTINUOUS
 62
    4
 10
5930.9790145902288
 20
5232.7310791015625
 11
5510.9790145902288
 21
5232.7310791015625
  0
LINE
  8
_0-0_
  6
CONTINUOUS
 62
    4
 10
3481.9802352933543
 20
5197.7310791015625
 11
3481.9802352933543
 21
4562.7309570312509
  0
LINE
  8
_0-0_
  6
CONTINUOUS
 62
    4
 10
3481.9802352933543
 20
4847.7310791015625
 11
3532.6914169339797
 21
4861.3189697265625
  0
LINE
  8
_0-0_
  6
CONTINUOUS
 62
    4
 10
3481.9802352933543
 20
4847.7310791015625
 11
3532.6914169339797
 21
4834.14306640625
  0
LINE
  8
_0-0_
  6
CONTINUOUS
 62
    4
 10
3481.9802352933543
 20
4597.7309570312509
 11
3532.6914169339797
 21
4611.319091796875
  0
LINE
  8
_0-0_
  6
CONTINUOUS
 62
    4
 10
3481.9802352933543
 20
4597.7309570312509
 11
3532.6914169339797
 21
4584.14306640625
  0
LINE
  8
_0-0_
  6
CONTINUOUS
 62
    4
 10
3721.9802352933547
 20
5197.7310791015625
 11
3721.9802352933547
 21
4812.73095703125
  0
LINE
  8
_0-0_
  6
CONTINUOUS
 62
    4
 10
3481.9802352933543
 20
4847.7310791015625
 11
3721.9802352933547
 21
4847.7310791015625
  0
LINE
  8
_0-0_
  6
CONTINUOUS
 62
    4
 10
3721.9802352933547
 20
4847.7310791015625
 11
3671.2691294131782
 21
4834.1430792336805
  0
LINE
  8
_0-0_
  6
CONTINUOUS
 62
    4
 10
3721.9802352933547
 20
4847.7310791015625
 11
3671.2691294131782
 21
4861.3190789694453
  0
TEXT
  8
_0-0_
 62
    7
 10
3530.6175226114837
 20
4856.1317048189976
 40
105
 41
0.8333333333333333
 50
0
  1
240
  0
LINE
  8
_0-0_
  6
CONTINUOUS
 62
    4
 10
4481.9802352933538
 20
5197.7310791015625
 11
4481.9802352933538
 21
4562.7309570312509
  0
LINE
  8
_0-0_
  6
CONTINUOUS
 62
    4
 10
3481.9802352933543
 20
4597.7309570312509
 11
4481.9802352933538
 21
4597.7309570312509
  0
TEXT
  8
_0-0_
 62
    7
 10
3889.2302352933529
 20
4605.2309570312509
 40
105
 41
0.8333333333333333
 50
0
  1
1000
  0
LINE
  8
_0-0_
  6
CONTINUOUS
 62
    4
 10
4481.9802352933538
 20
4597.7309570312509
 11
4431.2691294131782
 21
4584.142957163368
  0
LINE
  8
_0-0_
  6
CONTINUOUS
 62
    4
 10
4481.9802352933538
 20
4597.7309570312509
 11
4431.2691294131782
 21
4611.3189568991328
  0
LINE
  8
_0-0_
  6
CONTINUOUS
 62
    4
 10
4481.9802352933538
 20
4847.7310791015625
 11
4431.2691294131782
 21
4834.1430792336805
  0
LINE
  8
_0-0_
  6
CONTINUOUS
 62
    4
 10
4481.9802352933538
 20
4847.7310791015625
 11
4431.2691294131782
 21
4861.3190789694453
  0
LINE
  8
_0-0_
  6
CONTINUOUS
 62
    4
 10
3721.9802352933547
 20
4847.7310791015625
 11
3772.6913411735308
 21
4861.3190789694453
  0
LINE
  8
_0-0_
  6
CONTINUOUS
 62
    4
 10
3721.9802352933547
 20
4847.7310791015625
 11
3772.6913411735308
 21
4834.1430792336805
  0
LINE
  8
_0-0_
  6
CONTINUOUS
 62
    2
 10
3481.9802352933543
 20
5232.7310791015625
 11
4481.9802352933538
 21
5232.7310791015625
  0
CIRCLE
  8
_0-0_
  6
CONTINUOUS
 62
    2
 10
3721.9802352933556
 20
5302.7310791015625
 40
12
  0
LINE
  8
_0-0_
  6
CONTINUOUS
 62
    4
 10
4406.9802352933529
 20
5032.7310791015634
 11
4376.9802352933538
 21
5040.7695312500009
  0
LINE
  8
_0-0_
  6
CONTINUOUS
 62
    4
 10
4406.9802352933529
 20
5032.7310791015634
 11
4376.9802352933538
 21
5024.6925048828125
  0
LINE
  8
_0-0_
  6
CONTINUOUS
 62
    4
 10
4406.9802352933529
 20
5281.5626220703134
 11
4406.9802352933529
 21
4997.7310791015634
  0
TEXT
  8
_0-0_
 62
    7
 10
4282.3825790433538
 20
5040.3409423828125
 40
105
 41
0.8333333333333333
 50
0
  1
75
  0
LINE
  8
_0-0_
  6
CONTINUOUS
 62
    4
 10
4267.2653915433547
 20
5032.7310791015634
 11
4406.9802352933529
 21
5032.7310791015634
  0
LINE
  8
_0-0_
  6
CONTINUOUS
 62
    4
 10
4481.9802352933538
 20
5032.7310791015634
 11
4561.9802352933538
 21
5032.7310791015634
  0
LINE
  8
_0-0_
  6
CONTINUOUS
 62
    4
 10
4481.9802352933538
 20
5032.7310791015634
 11
4511.9802352933529
 21
5024.6925048828125
  0
LINE
  8
_0-0_
  6
CONTINUOUS
 62
    4
 10
4481.9802352933538
 20
5032.7310791015634
 11
4511.9802352933529
 21
5040.7695312500009
  0
LINE
  8
_0-0_
  6
CONTINUOUS
 62
    4
 10
4751.9802352933538
 20
5232.7310791015625
 11
4743.9416610746047
 21
5202.7310791015634
  0
LINE
  8
_0-0_
  6
CONTINUOUS
 62
    4
 10
4751.9802352933538
 20
5232.7310791015625
 11
4760.0183212308547
 21
5202.7310791015634
  0
LINE
  8
_0-0_
  6
CONTINUOUS
 62
    4
 10
4751.9802352933538
 20
5102.010009765625
 11
4751.9802352933538
 21
5232.7310791015625
  0
TEXT
  8
_0-0_
 62
    7
 10
4747.5402938871029
 20
5101.1346435546875
 40
105
 41
0.8333333333333333
 50
90
  1
70
  0
LINE
  8
_0-0_
  6
CONTINUOUS
 62
    4
 10
4751.9802352933538
 20
5302.7310791015625
 11
4760.0183212308547
 21
5332.7310791015625
  0
LINE
  8
_0-0_
  6
CONTINUOUS
 62
    4
 10
4751.9802352933538
 20
5302.7310791015625
 11
4743.9416610746047
 21
5332.7310791015625
  0
LINE
  8
_0-0_
  6
CONTINUOUS
 62
    4
 10
4751.9802352933538
 20
5302.7310791015625
 11
4751.9802352933538
 21
5373.5928955078125
  0
LINE
  8
_0-0_
  6
CONTINUOUS
 62
    4
 10
4936.9802352933538
 20
5232.7310791015625
 11
4923.3922354254727
 21
5283.442184981739
  0
LINE
  8
_0-0_
  6
CONTINUOUS
 62
    4
 10
4936.9802352933538
 20
5232.7310791015625
 11
4950.5682351612349
 21
5283.442184981739
  0
LINE
  8
_0-0_
  6
CONTINUOUS
 62
    4
 10
4433.1233016996047
 20
5302.7310791015625
 11
4786.9802352933538
 21
5302.7310791015625
  0
LINE
  8
_0-0_
  6
CONTINUOUS
 62
    4
 10
4516.9802352933538
 20
5232.7310791015625
 11
4971.9802352933538
 21
5232.7310791015625
  0
LINE
  8
_0-0_
  6
CONTINUOUS
 62
    4
 10
3446.9802352933543
 20
5232.7310791015625
 11
3261.9802352933543
 21
5232.7310791015625
  0
LINE
  8
_0-0_
  6
CONTINUOUS
 62
    4
 10
4221.9802352933538
 20
5197.7310791015625
 11
4221.9802352933538
 21
4812.73095703125
  0
LINE
  8
_0-0_
  6
CONTINUOUS
 62
    4
 10
3721.9802352933547
 20
4847.7310791015625
 11
4221.9802352933538
 21
4847.7310791015625
  0
LINE
  8
_0-0_
  6
CONTINUOUS
 62
    4
 10
4221.9802352933538
 20
4847.7310791015625
 11
4171.2691294131782
 21
4834.1430792336805
  0
LINE
  8
_0-0_
  6
CONTINUOUS
 62
    4
 10
4221.9802352933538
 20
4847.7310791015625
 11
4171.2691294131782
 21
4861.3190789694453
  0
TEXT
  8
_0-0_
 62
    7
 10
3909.7035500785677
 20
4853.95875122719
 40
105
 41
0.8333333333333333
 50
0
  1
500
  0
LINE
  8
_0-0_
  6
CONTINUOUS
 62
    4
 10
4221.9802352933538
 20
4847.7310791015625
 11
4481.9802352933538
 21
4847.7310791015625
  0
LINE
  8
_0-0_
  6
CONTINUOUS
 62
    4
 10
4221.9802352933538
 20
4847.7310791015625
 11
4272.6913411735295
 21
4861.3190789694453
  0
LINE
  8
_0-0_
  6
CONTINUOUS
 62
    4
 10
4221.9802352933538
 20
4847.7310791015625
 11
4272.6913411735295
 21
4834.1430792336805
  0
TEXT
  8
_0-0_
 62
    7
 10
4280.1697886506535
 20
4856.2473240233393
 40
105
 41
0.8333333333333333
 50
0
  1
260
  0
TEXT
  8
_0-0_
 62
    7
 10
4426.2295628806095
 20
5694.4423591337326
 40
105
 41
1
 50
0
  1
吊ｲﾝｻｰﾄ 4箇所
  0
LINE
  8
_0-0_
  6
CONTINUOUS
 62
    4
 10
4404.9670112650574
 20
5685.7704465952019
 11
5168.789196761415
 21
5685.7704465952019
  0
LINE
  8
_0-0_
  6
CONTINUOUS
 62
    4
 10
4230.3587430767611
 20
5311.3218070872117
 11
4404.9670112650574
 21
5685.7704465952019
  0
LINE
  8
_0-0_
  6
CONTINUOUS
 62
    4
 10
4230.3587430767611
 20
5311.3218070872117
 11
4239.4752724042746
 21
5363.0242141203525
  0
LINE
  8
_0-0_
  6
CONTINUOUS
 62
    4
 10
4230.3587430767611
 20
5311.3218070872117
 11
4264.1050925853041
 21
5351.5391403509574
  0
CIRCLE
  8
_0-0_
  6
CONTINUOUS
 62
    2
 10
4221.9802352933547
 20
5302.7310791015625
 40
12
  0
LINE
  8
_0-0_
  6
CONTINUOUS
 62
    4
 10
6725.9790145902297
 20
4847.7310791015625
 11
6225.9790145902297
 21
4847.7310791015625
  0
LINE
  8
_0-0_
  6
CONTINUOUS
 62
    4
 10
6225.9790145902297
 20
4847.7310791015625
 11
6276.6901204704054
 21
4861.3190789694453
  0
LINE
  8
_0-0_
  6
CONTINUOUS
 62
    4
 10
6225.9790145902297
 20
4847.7310791015625
 11
6276.6901204704054
 21
4834.1430792336805
  0
LINE
  8
_0-0_
  6
CONTINUOUS
 62
    4
 10
6225.9790145902297
 20
5197.7310791015625
 11
6225.9790145902297
 21
4812.7310791015625
  0
LINE
  8
_0-0_
  6
CONTINUOUS
 62
    4
 10
6225.9790145902297
 20
4847.7310791015625
 11
5965.9790145902288
 21
4847.7310791015625
  0
TEXT
  8
_0-0_
 62
    7
 10
6404.0465946980921
 20
4854.7181727845018
 40
105
 41
0.8333333333333333
 50
0
  1
500
  0
LINE
  8
_0-0_
  6
CONTINUOUS
 62
    4
 10
6225.9790145902297
 20
4847.7310791015625
 11
6175.2679087100532
 21
4834.1430792336805
  0
LINE
  8
_0-0_
  6
CONTINUOUS
 62
    4
 10
6225.9790145902297
 20
4847.7310791015625
 11
6175.2679087100532
 21
4861.3190789694453
  0
TEXT
  8
_0-0_
 62
    7
 10
6024.6827249508432
 20
4856.1079120690128
 40
105
 41
0.8333333333333333
 50
0
  1
260
  0
LINE
  8
_0-0_
  6
CONTINUOUS
 62
    4
 10
6963.1893512754095
 20
5506.5452575683593
 11
6989.4393512754095
 21
5552.0115661621093
  0
LINE
  8
_0-0_
  6
CONTINUOUS
 62
    4
 10
6963.1893512754095
 20
5506.5452575683593
 11
7008.6556846646917
 21
5532.7952575683593
  0
LINE
  8
_0-0_
  6
DASHED1
 62
    2
 10
3481.9802352933543
 20
5382.7310791015625
 11
4477.4802352933538
 21
5382.7310791015625
  0
LINE
  8
_0-0_
  6
CONTINUOUS
 62
    4
 10
4544.1047012357366
 20
5508.2184753417968
 11
4828.0877182035101
 21
5508.2184753417968
  0
TEXT
  8
_0-0_
 62
    7
 10
4563.4547378568295
 20
5513.9855651855468
 40
87.5
 41
0.7199999999999999
 50
0
  1
シール溝
  0
LINE
  8
_0-0_
  6
CONTINUOUS
 62
    4
 10
3446.9802352933543
 20
5602.7310791015634
 11
3261.9802352933543
 21
5602.7310791015634
  0
LINE
  8
_0-0_
  6
CONTINUOUS
 62
    4
 10
3296.9802352933543
 20
5232.7310791015625
 11
3283.3922225980418
 21
5283.4422607421875
  0
LINE
  8
_0-0_
  6
CONTINUOUS
 62
    4
 10
3296.9802352933543
 20
5232.7310791015625
 11
3310.5682479886668
 21
5283.4422607421875
  0
LINE
  8
_0-0_
  6
CONTINUOUS
 62
    4
 10
3296.9802352933543
 20
5602.7310791015634
 11
3296.9802352933543
 21
5232.7310791015625
  0
LINE
  8
_0-0_
  6
CONTINUOUS
 62
    4
 10
3296.9802352933543
 20
5602.7310791015634
 11
3310.5682479886668
 21
5552.0200195312509
  0
LINE
  8
_0-0_
  6
CONTINUOUS
 62
    4
 10
3296.9802352933543
 20
5602.7310791015634
 11
3283.3922225980418
 21
5552.0200195312509
  0
TEXT
  8
_0-0_
 62
    7
 10
3288.5039169339797
 20
5353.3096923828125
 40
105
 41
0.8333333333333333
 50
90
  1
370
  0
LINE
  8
_0-0_
  6
CONTINUOUS
 62
    2
 10
3481.9802352933543
 20
5602.7310791015634
 11
3481.9802352933543
 21
5232.7310791015625
  0
LINE
  8
_0-0_
  6
CONTINUOUS
 62
    2
 10
6961.4790145902288
 20
5357.2310791015634
 11
6961.4790145902288
 21
5602.7310791015634
  0
LINE
  8
_0-0_
  6
CONTINUOUS
 62
    4
 10
6734.3575223736361
 20
5311.3218070872117
 11
6962.8528727366492
 21
5801.3316672449491
  0
TEXT
  8
_0-0_
 62
    7
 10
6995.2196854556641
 20
5810.003579783478
 40
105
 41
1
 50
0
  1
吊ｲﾝｻｰﾄ 4箇所
  0
LINE
  8
_0-0_
  6
CONTINUOUS
 62
    4
 10
6962.8528727366492
 20
5801.3316672449491
 11
7737.7793193364695
 21
5801.3316672449491
  0
LINE
  8
_0-0_
  6
CONTINUOUS
 62
    4
 10
6963.1893512754095
 20
5506.5452575683593
 11
7108.0144815741896
 21
5651.3703715191159
  0
LINE
  8
_0-0_
  6
CONTINUOUS
 62
    4
 10
7108.0144815741896
 20
5651.3703715191159
 11
7400.3925714789747
 21
5651.3703715191149
  0
TEXT
  8
_0-0_
 62
    7
 10
7135.759575873506
 20
5657.137461362864
 40
87.5
 41
0.7199999999999999
 50
-0.0000000000000542
  1
シール溝
  0
LINE
  8
_0-0_
  6
CONTINUOUS
 62
    4
 10
7255.9790145902279
 20
5232.7310791015625
 11
7242.3910171537054
 21
5283.4421844482421
  0
LINE
  8
_0-0_
  6
CONTINUOUS
 62
    4
 10
7255.9790145902279
 20
5232.7310791015625
 11
7269.5670120267513
 21
5283.4421844482421
  0
LINE
  8
_0-0_
  6
CONTINUOUS
 62
    4
 10
7255.9790145902279
 20
5602.7310791015634
 11
7255.9790145902279
 21
5232.7310791015625
  0
LINE
  8
_0-0_
  6
CONTINUOUS
 62
    4
 10
7255.9790145902279
 20
5602.7310791015634
 11
7269.5670144581108
 21
5552.0199732213868
  0
LINE
  8
_0-0_
  6
CONTINUOUS
 62
    4
 10
7255.9790145902279
 20
5602.7310791015634
 11
7242.3910147223459
 21
5552.0199732213868
  0
TEXT
  8
_0-0_
 62
    7
 10
7247.5026962308547
 20
5353.3096923828125
 40
105
 41
0.8333333333333333
 50
90
  1
370
  0
LINE
  8
_0-0_
  6
CONTINUOUS
 62
    4
 10
6996.4790145902288
 20
5602.7310791015634
 11
7290.9790145902279
 21
5602.7310791015634
  0
LINE
  8
_0-0_
  6
CONTINUOUS
 62
    4
 10
7000.9790145902288
 20
5232.7310791015625
 11
7290.9790145902279
 21
5232.7310791015625
  0
LINE
  8
_0-0_
  6
CONTINUOUS
 62
    4
 10
4516.9802352933538
 20
5382.7310791015625
 11
4971.9802352933538
 21
5382.7310791015625
  0
LINE
  8
_0-0_
  6
CONTINUOUS
 62
    4
 10
4936.9802352933538
 20
5232.7310791015625
 11
4936.9802352933538
 21
5382.7310791015625
  0
LINE
  8
_0-0_
  6
CONTINUOUS
 62
    4
 10
4936.9802352933538
 20
5382.7310791015625
 11
4950.5682351612358
 21
5332.0199732213868
  0
LINE
  8
_0-0_
  6
CONTINUOUS
 62
    4
 10
4936.9802352933538
 20
5382.7310791015625
 11
4923.3922354254718
 21
5332.0199732213868
  0
TEXT
  8
_0-0_
 62
    7
 10
4930.2815322256419
 20
5243.350537426576
 40
105
 41
0.8333333333333333
 50
90
  1
150
  0
LINE
  8
_0-0_
  6
CONTINUOUS
 62
    4
 10
5930.9790145902288
 20
5382.7310791015625
 11
5510.9790145902288
 21
5382.7310791015625
  0
LINE
  8
_0-0_
  6
CONTINUOUS
 62
    4
 10
5545.9790145902288
 20
5232.7310791015625
 11
5545.9790145902288
 21
5382.7310791015625
  0
LINE
  8
_0-0_
  6
CONTINUOUS
 62
    4
 10
5545.9790145902288
 20
5382.7310791015625
 11
5559.5670144581117
 21
5332.0199732213868
  0
LINE
  8
_0-0_
  6
CONTINUOUS
 62
    4
 10
5545.9790145902288
 20
5382.7310791015625
 11
5532.3910147223468
 21
5332.0199732213868
  0
TEXT
  8
_0-0_
 62
    7
 10
5539.2803115225178
 20
5243.350537426576
 40
105
 41
0.8333333333333333
 50
90
  1
150
  0
LINE
  8
_0-0_
  6
CONTINUOUS
 62
    2
 10
5965.9790145902288
 20
5232.7310791015625
 11
5965.9790145902288
 21
5382.7310791015625
  0
CIRCLE
  8
_0-0_
  6
CONTINUOUS
 62
    2
 10
3556.9802352933543
 20
5302.7310791015625
 40
7.5
  0
LINE
  8
_0-0_
  6
CONTINUOUS
 62
    4
 10
3562.2835361522534
 20
5308.0343799604615
 11
3571.4000654797669
 21
5359.7367869936024
  0
LINE
  8
_0-0_
  6
CONTINUOUS
 62
    4
 10
3562.2835361522534
 20
5308.0343799604615
 11
3596.0298856607969
 21
5348.2517132242082
  0
LINE
  8
_0-0_
  6
CONTINUOUS
 62
    4
 10
3562.2835361522534
 20
5308.0343799604615
 11
3830.2275048376304
 21
5882.642075115049
  0
TEXT
  8
_0-0_
 62
    7
 10
3851.4900564531831
 20
5891.3139876535788
 40
105
 41
1
 50
0
  1
ｲﾝｻｰﾄ M12
  0
LINE
  8
_0-0_
  6
CONTINUOUS
 62
    4
 10
3830.2275048376304
 20
5882.642075115049
 11
4377.7612984738625
 21
5882.642075115049
  0
TEXT
  8
_0-0_
 62
    7
 10
6470.0868829021374
 20
5991.3139876535788
 40
105
 41
1
 50
0
  1
ｲﾝｻｰﾄ M12
  0
LINE
  8
_0-0_
  6
CONTINUOUS
 62
    4
 10
6435.7672498440224
 20
5982.6420751150481
 11
6996.3581249228154
 21
5982.6420751150481
  0
LINE
  8
_0-0_
  6
CONTINUOUS
 62
    4
 10
6046.282315449127
 20
5308.0343799604615
 11
6435.7672498440224
 21
5982.6420751150481
  0
LINE
  8
_0-0_
  6
CONTINUOUS
 62
    4
 10
6046.282315449127
 20
5308.0343799604615
 11
6059.8703153170108
 21
5358.7454858406381
  0
LINE
  8
_0-0_
  6
CONTINUOUS
 62
    4
 10
6046.282315449127
 20
5308.0343799604615
 11
6083.4054214614234
 21
5345.1574859727561
  0
CIRCLE
  8
_0-0_
  6
CONTINUOUS
 62
    2
 10
4406.9802352933538
 20
5302.7310791015625
 40
7.5
  0
CIRCLE
  8
_0-0_
  6
CONTINUOUS
 62
    2
 10
6040.9790145902288
 20
5302.7310791015625
 40
7.5
  0
CIRCLE
  8
_0-0_
  6
CONTINUOUS
 62
    2
 10
6890.9790145902288
 20
5302.7310791015625
 40
7.5
  0
LINE
  8
_0-0_
  6
CONTINUOUS
 62
    5
 10
3506.9802352933547
 20
5269.3326417535208
 11
4456.9802352933538
 21
5269.3326417535208
  0
LINE
  8
_0-0_
  6
CONTINUOUS
 62
    5
 10
6940.9790145902279
 20
5269.3326417535208
 11
5990.9790145902297
 21
5269.3326417535208
  0
LINE
  8
_0-0_
  6
CONTINUOUS
 62
    2
 10
4481.9802352933538
 20
5332.7310791015625
 11
4477.4802352933538
 21
5337.2310791015625
  0
LINE
  8
_0-0_
  6
CONTINUOUS
 62
    2
 10
4481.9802352933538
 20
5232.7310791015625
 11
4481.9802352933538
 21
5332.7310791015625
  0
LINE
  8
_0-0_
  6
CONTINUOUS
 62
    2
 10
4477.4802352933538
 20
5337.2310791015625
 11
4477.4802352933538
 21
5382.7310791015625
  0
LINE
  8
_0-0_
  6
DASHED1
 62
    2
 10
3481.9802352933543
 20
5352.7310791015634
 11
4477.4802352933538
 21
5352.7310791015634
  0
CIRCLE
  8
_0-0_
  6
CONTINUOUS
 62
    2
 10
6225.9790145902297
 20
5302.7310791015625
 40
10
  0
CIRCLE
  8
_0-0_
  6
CONTINUOUS
 62
    2
 10
6725.9790145902297
 20
5302.7310791015625
 40
10
  0
TEXT
  8
_0-0_
 62
    7
 10
8292.8877096436044
 20
6034.1727987421381
 40
112
 41
1
 50
0
  1
ｼﾞｮｲﾝﾄ部詳細図
  0
LINE
  8
_0-0_
  6
CONTINUOUS
 62
    3
 10
8253.5628586871061
 20
6036.0012128906246
 11
9118.5162863429595
 21
6036.0012128906246
  0
LINE
  8
_0-0_
  6
CONTINUOUS
 62
    2
 10
1451.6907958984375
 20
5308.8364639282226
 11
1426.6907958984375
 21
5308.8364639282226
  0
LINE
  8
_0-0_
  6
CONTINUOUS
 62
    2
 10
1451.6907958984375
 20
5296.8364639282226
 11
1426.6907958984375
 21
5296.8364639282226
  0
LINE
  8
_0-0_
  6
CONTINUOUS
 62
    2
 10
1451.6907958984375
 20
5296.8364639282226
 11
1451.6907958984375
 21
5308.8364639282226
  0
LINE
  8
_0-0_
  6
CONTINUOUS
 62
    2
 10
1451.690745547256
 20
3590.3340626684512
 11
1426.6907455472562
 21
3590.3340626684512
  0
LINE
  8
_0-0_
  6
CONTINUOUS
 62
    2
 10
1451.690745547256
 20
3578.3340626684512
 11
1426.6907455472562
 21
3578.3340626684512
  0
LINE
  8
_0-0_
  6
CONTINUOUS
 62
    2
 10
1451.690745547256
 20
3578.3340626684512
 11
1451.690745547256
 21
3590.3340626684512
  0
LINE
  8
_0-0_
  6
CONTINUOUS
 62
    2
 10
1451.6907455472564
 20
2310.1759390000484
 11
1426.6907455472567
 21
2310.1759390000484
  0
LINE
  8
_0-0_
  6
CONTINUOUS
 62
    2
 10
1451.6907455472564
 20
2298.1759390000484
 11
1426.6907455472567
 21
2298.1759390000484
  0
LINE
  8
_0-0_
  6
CONTINUOUS
 62
    2
 10
1451.6907455472564
 20
2298.1759390000484
 11
1451.6907455472564
 21
2310.1759390000484
  0
LINE
  8
_0-0_
  6
CONTINUOUS
 62
    2
 10
1451.6907455472564
 20
1460.1759390000486
 11
1426.6907455472567
 21
1460.1759390000486
  0
LINE
  8
_0-0_
  6
CONTINUOUS
 62
    2
 10
1451.6907455472564
 20
1448.1759390000486
 11
1426.6907455472567
 21
1448.1759390000486
  0
LINE
  8
_0-0_
  6
CONTINUOUS
 62
    2
 10
1451.6907455472564
 20
1448.1759390000486
 11
1451.6907455472564
 21
1460.1759390000486
  0
TEXT
  8
_0-0_
 62
    7
 10
5080.3103542017333
 20
569.42350065855839
 40
87.5
 41
1
 50
0
  1
1. 材質SS400または同等以上のもの
  0
TEXT
  8
_0-0_
 62
    7
 10
4967.4120321903637
 20
733.6108789109146
 40
87.5
 41
0.9199999999999999
 50
0
  1
連結プレート､ボルト､ワッシャー､インサートの仕様
  0
TEXT
  8
_0-0_
 62
    7
 10
5080.3103542017333
 20
439.42350065855856
 40
87.5
 41
1
 50
0
  1
2. 電気亜鉛ﾒｯｷ(JIS H 8610)2種3級または同等以上のもの
  0
TEXT
  8
_0-0_
 62
    7
 10
8610.77345051068
 20
2136.8280310521427
 40
38.5
 41
1.1818181818181816
 50
0
  1
2
  0
TEXT
  8
_0-0_
 62
    7
 10
8610.77345051068
 20
2436.8280310521427
 40
38.5
 41
1.1818181818181816
 50
0
  1
2
  0
LINE
  8
_0-0_
  6
CONTINUOUS
 62
    4
 10
5147.9897313510891
 20
2440.7920597484276
 11
5355.2505498325344
 21
2440.7920597484276
  0
TEXT
  8
_0-0_
 62
    7
 10
5147.241653958511
 20
2445.5482881953876
 40
105
 41
0.8333333333333333
 50
0
  1
φ
  0
TEXT
  8
_0-0_
 62
    7
 10
5233.5500798618322
 20
2444.706155150191
 40
105
 41
0.8333333333333333
 50
0
  1
15
  0
TEXT
  8
_0-0_
 62
    7
 10
1279.1907455472564
 20
921.67593900004806
 40
105
 41
0.8333333333333333
 50
0
  1
35
  0
LINE
  8
_0-0_
  6
CONTINUOUS
 62
    4
 10
1461.6907455472567
 20
1344.1759390000486
 11
1461.6907455472567
 21
879.17593900004783
  0
LINE
  8
_0-0_
  6
CONTINUOUS
 62
    4
 10
1461.6907455472567
 20
914.17593900004783
 11
1512.4018514274321
 21
927.76393886793027
  0
LINE
  8
_0-0_
  6
CONTINUOUS
 62
    4
 10
1461.6907455472567
 20
914.17593900004783
 11
1512.4018514274321
 21
900.58793913216538
  0
LINE
  8
_0-0_
  6
CONTINUOUS
 62
    4
 10
1561.6907455472569
 20
914.17593900004783
 11
1461.6907455472567
 21
914.17593900004783
  0
LINE
  8
_0-0_
  6
CONTINUOUS
 62
    2
 10
2131.6907455472551
 20
2379.1759390000484
 11
2131.6907455472551
 21
1379.1759390000479
  0
LINE
  8
_0-0_
  6
CONTINUOUS
 62
    2
 10
2141.690745547256
 20
2379.1759390000484
 11
1426.6907455472567
 21
2379.1759390000484
  0
LINE
  8
_0-0_
  6
CONTINUOUS
 62
    2
 10
2141.690745547256
 20
1384.1759390000488
 11
1426.6907455472567
 21
1384.1759390000488
  0
LINE
  8
_0-0_
  6
CONTINUOUS
 62
    2
 10
1426.6907455472567
 20
2379.1759390000484
 11
1426.6907455472567
 21
1379.1759390000486
  0
LINE
  8
_0-0_
  6
CONTINUOUS
 62
    2
 10
2141.690745547256
 20
1379.1759390000486
 11
1426.6907455472567
 21
1379.1759390000486
  0
LINE
  8
_0-0_
  6
CONTINUOUS
 62
    2
 10
2141.690745547256
 20
2379.1759390000484
 11
2141.690745547256
 21
1379.1759390000486
  0
LINE
  8
_0-0_
  6
CONTINUOUS
 62
    4
 10
2311.690745547256
 20
914.17593900004783
 11
2141.690745547256
 21
914.17593900004783
  0
LINE
  8
_0-0_
  6
CONTINUOUS
 62
    4
 10
2141.690745547256
 20
914.17593900004783
 11
2192.4018514274312
 21
927.76393886793027
  0
LINE
  8
_0-0_
  6
CONTINUOUS
 62
    4
 10
2141.690745547256
 20
914.17593900004783
 11
2192.4018514274312
 21
900.58793913216538
  0
TEXT
  8
_0-0_
 62
    7
 10
2204.7380741340857
 20
922.28785907365067
 40
105
 41
0.8333333333333333
 50
0
  1
35
  0
LINE
  8
_0-0_
  6
CONTINUOUS
 62
    4
 10
2106.690745547256
 20
914.17593900004783
 11
2006.6907455472555
 21
914.17593900004783
  0
LINE
  8
_0-0_
  6
CONTINUOUS
 62
    4
 10
2106.690745547256
 20
914.17593900004783
 11
2055.9796396670794
 21
900.58793913216538
  0
LINE
  8
_0-0_
  6
CONTINUOUS
 62
    4
 10
2106.690745547256
 20
914.17593900004783
 11
2055.9796396670794
 21
927.76393886793027
  0
LINE
  8
_0-0_
  6
CONTINUOUS
 62
    4
 10
2106.690745547256
 20
1344.1759390000486
 11
2106.690745547256
 21
879.17593900004783
  0
LINE
  8
_0-0_
  6
CONTINUOUS
 62
    4
 10
2141.690745547256
 20
1344.1759390000486
 11
2141.690745547256
 21
879.17593900004783
  0
TEXT
  8
_0-0_
 62
    7
 10
2375.6510574369049
 20
1267.5737661484861
 40
105
 41
0.8333333333333333
 50
90
  1
5
  0
LINE
  8
_0-0_
  6
CONTINUOUS
 62
    4
 10
2379.6907455472555
 20
1249.1759390000481
 11
2379.6907455472555
 21
1379.1759390000486
  0
LINE
  8
_0-0_
  6
CONTINUOUS
 62
    4
 10
2379.6907455472555
 20
1379.1759390000486
 11
2393.278745415138
 21
1328.4648331198725
  0
LINE
  8
_0-0_
  6
CONTINUOUS
 62
    4
 10
2379.6907455472555
 20
1379.1759390000486
 11
2366.1027456793731
 21
1328.4648331198725
  0
LINE
  8
_0-0_
  6
CONTINUOUS
 62
    4
 10
2379.690745547256
 20
1384.1759390000484
 11
2366.1027456793735
 21
1434.8870448802242
  0
LINE
  8
_0-0_
  6
CONTINUOUS
 62
    4
 10
2379.690745547256
 20
1384.1759390000484
 11
2393.2787454151384
 21
1434.8870448802242
  0
LINE
  8
_0-0_
  6
CONTINUOUS
 62
    4
 10
2379.690745547256
 20
1384.1759390000484
 11
2379.690745547256
 21
1474.6759390000484
  0
LINE
  8
_0-0_
  6
CONTINUOUS
 62
    4
 10
2176.690745547256
 20
1379.1759390000486
 11
2414.6907455472551
 21
1379.1759390000486
  0
LINE
  8
_0-0_
  6
CONTINUOUS
 62
    4
 10
2176.690745547256
 20
1384.1759390000484
 11
2414.6907455472551
 21
1384.1759390000484
  0
LINE
  8
_0-0_
  6
CONTINUOUS
 62
    5
 10
2106.690745547256
 20
2354.1759390000488
 11
2106.690745547256
 21
1404.1759390000484
  0
LINE
  8
_0-0_
  6
CONTINUOUS
 62
    5
 10
1451.6907455472564
 20
1414.1759390000486
 11
2116.690745547256
 21
1414.1759390000486
  0
LINE
  8
_0-0_
  6
CONTINUOUS
 62
    5
 10
1451.6907455472564
 20
2344.1759390000484
 11
2116.690745547256
 21
2344.1759390000484
  0
LINE
  8
_0-0_
  6
CONTINUOUS
 62
    5
 10
1622.9407455472564
 20
2354.1759390000479
 11
1622.9407455472564
 21
1404.1759390000484
  0
LINE
  8
_0-0_
  6
CONTINUOUS
 62
    5
 10
1784.190745547256
 20
2354.1759390000479
 11
1784.190745547256
 21
1404.1759390000484
  0
LINE
  8
_0-0_
  6
CONTINUOUS
 62
    5
 10
1945.4407455472555
 20
2354.1759390000479
 11
1945.4407455472555
 21
1404.1759390000484
  0
TEXT
  8
_0-0_
 62
    7
 10
1453.1212421439624
 20
3542.7897482765411
 40
17.5
 41
1
 50
0
  1
●
  0
TEXT
  8
_0-0_
 62
    7
 10
1614.1154118276613
 20
3542.7897482765415
 40
17.5
 41
1
 50
0
  1
●
  0
TEXT
  8
_0-0_
 62
    7
 10
1775.525587117778
 20
3542.9977510797507
 40
17.5
 41
1
 50
0
  1
●
  0
TEXT
  8
_0-0_
 62
    7
 10
2097.9607740798978
 20
3542.5165907193882
 40
17.5
 41
1
 50
0
  1
●
  0
LINE
  8
_0-0_
  6
CONTINUOUS
 62
    5
 10
2116.690745547256
 20
3544.228677841791
 11
1451.6907455472564
 21
3544.228677841791
  0
LINE
  8
_0-0_
  6
CONTINUOUS
 62
    5
 10
2116.690745547256
 20
5262.7310791015625
 11
1451.6907455472564
 21
5262.7310791015625
  0
TEXT
  8
_0-0_
 62
    7
 10
2098.0111513102165
 20
5261.5733979317756
 40
17.5
 41
1
 50
0
  1
●
  0
TEXT
  8
_0-0_
 62
    7
 10
1936.7475175722981
 20
5261.405938291341
 40
17.5
 41
1
 50
0
  1
●
  0
TEXT
  8
_0-0_
 62
    7
 10
1775.4838838343812
 20
5260.9035593700391
 40
17.5
 41
1
 50
0
  1
●
  0
TEXT
  8
_0-0_
 62
    7
 10
1614.2202500964631
 20
5261.0710190104728
 40
17.5
 41
1
 50
0
  1
●
  0
TEXT
  8
_0-0_
 62
    7
 10
1452.9566163585457
 20
5261.0710190104737
 40
17.5
 41
1
 50
0
  1
●
  0
LINE
  8
_0-0_
  6
CONTINUOUS
 62
    4
 10
1542.3157455472569
 20
3544.228677841791
 11
1542.3157455472569
 21
3235.6406779739095
  0
LINE
  8
_0-0_
  6
CONTINUOUS
 62
    4
 10
1542.3157455472569
 20
3544.228677841791
 11
1528.7277456793744
 21
3493.5175719616149
  0
LINE
  8
_0-0_
  6
CONTINUOUS
 62
    4
 10
1542.3157455472569
 20
3544.228677841791
 11
1555.9037454151391
 21
3493.5175719616149
  0
LINE
  8
_0-0_
  6
CONTINUOUS
 62
    4
 10
1728.3157455472569
 20
3235.6406779739095
 11
1629.9170636505161
 21
3553.2449005224116
  0
LINE
  8
_0-0_
  6
CONTINUOUS
 62
    4
 10
1629.9170636505161
 20
3553.2449005224116
 11
1657.9037570103034
 21
3508.8264922350226
  0
LINE
  8
_0-0_
  6
CONTINUOUS
 62
    4
 10
1629.9170636505161
 20
3553.2449005224116
 11
1631.9450469243226
 21
3500.7840838699694
  0
LINE
  8
_0-0_
  6
CONTINUOUS
 62
    4
 10
1728.3157455472569
 20
3235.6406779739095
 11
1777.0493781870388
 21
3552.7832205525082
  0
LINE
  8
_0-0_
  6
CONTINUOUS
 62
    4
 10
1777.0493781870388
 20
3552.7832205525082
 11
1782.7776325102086
 21
3500.5966599989606
  0
LINE
  8
_0-0_
  6
CONTINUOUS
 62
    4
 10
1777.0493781870388
 20
3552.7832205525082
 11
1755.9169116734676
 21
3504.7242062154164
  0
LINE
  8
_0-0_
  6
CONTINUOUS
 62
    4
 10
1542.3157455472569
 20
5262.7310791015625
 11
1555.9037582425692
 21
5212.02001953125
  0
LINE
  8
_0-0_
  6
CONTINUOUS
 62
    4
 10
1542.3157455472569
 20
5262.7310791015625
 11
1542.3157455472569
 21
4834.14306640625
  0
LINE
  8
_0-0_
  6
CONTINUOUS
 62
    4
 10
1542.3157455472569
 20
5262.7310791015625
 11
1528.7277328519444
 21
5212.02001953125
  0
LINE
  8
_0-0_
  6
CONTINUOUS
 62
    4
 10
1728.3157455472569
 20
4834.14306640625
 11
1629.7431765433125
 21
5271.3164954175026
  0
LINE
  8
_0-0_
  6
CONTINUOUS
 62
    4
 10
1728.3157455472569
 20
4834.14306640625
 11
1777.0474172622607
 21
5271.2909521638584
  0
LINE
  8
_0-0_
  6
CONTINUOUS
 62
    4
 10
1777.0474172622607
 20
5271.2909521638584
 11
1784.9334770156619
 21
5219.3866164917226
  0
LINE
  8
_0-0_
  6
CONTINUOUS
 62
    4
 10
1777.0474172622607
 20
5271.2909521638584
 11
1757.9247775083999
 21
5222.3974490285327
  0
LINE
  8
_0-0_
  6
CONTINUOUS
 62
    4
 10
1629.7431765433125
 20
5271.3164954175026
 11
1654.1525727396742
 21
5224.8360546135572
  0
LINE
  8
_0-0_
  6
CONTINUOUS
 62
    4
 10
1629.7431765433125
 20
5271.3164954175026
 11
1627.6421133384285
 21
5218.8585548040064
  0
LINE
  8
_0-0_
  6
CONTINUOUS
 62
    4
 10
9374.7540811982544
 20
5498.9946163522008
 11
9361.1660813303733
 21
5549.7057222323765
  0
LINE
  8
_0-0_
  6
CONTINUOUS
 62
    4
 10
9374.7540811982544
 20
5498.9946163522008
 11
9374.7540811982544
 21
5589.4946163522017
  0
LINE
  8
_0-0_
  6
CONTINUOUS
 62
    4
 10
9374.7540811982544
 20
5498.9946163522008
 11
9388.3420810661355
 21
5549.7057222323765
  0
LINE
  8
_0-0_
  6
CONTINUOUS
 62
    2
 10
9128.0880503144635
 20
4684.2425911949685
 11
9139.7540659394653
 21
4509.2425911949685
  0
LINE
  8
_0-0_
  6
CONTINUOUS
 62
    2
 10
8567.0735239472778
 20
4650.6490395592254
 11
9128.0880503144635
 21
4684.2425911949685
  0
ARC
  8
_0-0_
  6
CONTINUOUS
 62
    2
 10
8565.6788401093872
 20
4673.9403145836404
 40
23.333000183105468
 50
185.69891357421877
 51
273.42677307128906
  0
LINE
  8
_0-0_
  6
CONTINUOUS
 62
    4
 10
9017.8652241179261
 20
4788.8605425945552
 11
9025.2502949187091
 21
4678.084666072491
  0
LINE
  8
_0-0_
  6
CONTINUOUS
 62
    4
 10
9025.2502949187091
 20
4678.084666072491
 11
9013.5435688444886
 21
4712.4450171581538
  0
LINE
  8
_0-0_
  6
CONTINUOUS
 62
    4
 10
9025.2502949187091
 20
4678.084666072491
 11
9032.2672016569904
 21
4713.5685523144038
  0
LINE
  8
_0-0_
  6
CONTINUOUS
 62
    4
 10
9029.1304142424396
 20
4619.8795474163325
 11
9022.1134464690003
 21
4584.3954165569575
  0
LINE
  8
_0-0_
  6
CONTINUOUS
 62
    4
 10
9029.1304142424396
 20
4619.8795474163325
 11
9040.8371403166565
 21
4585.5189517132084
  0
LINE
  8
_0-0_
  6
CONTINUOUS
 62
    4
 10
9029.1304142424396
 20
4619.8795474163325
 11
9032.7890446135334
 21
4565.0001528850825
  0
LINE
  8
_0-0_
  6
CONTINUOUS
 62
    4
 10
8763.6857883879456
 20
4866.6398165813716
 11
8673.3327000090393
 21
4632.2933848491938
  0
LINE
  8
_0-0_
  6
CONTINUOUS
 62
    4
 10
8673.3327000090393
 20
4632.2933848491938
 11
8678.8972752043537
 21
4684.4977311483662
  0
LINE
  8
_0-0_
  6
CONTINUOUS
 62
    4
 10
8673.3327000090393
 20
4632.2933848491938
 11
8704.2539036223206
 21
4674.7213643184932
  0
LINE
  8
_0-0_
  6
CONTINUOUS
 62
    4
 10
8763.6857883879456
 20
4866.6398165813716
 11
9057.5955555388263
 21
4866.6398165813716
  0
TEXT
  8
_0-0_
 62
    7
 10
8792.9625828215393
 20
4872.4068911663325
 40
87.5
 41
0.7199999999999999
 50
0
  1
シール溝
  0
TEXT
  8
_0-0_
 62
    7
 10
9021.7438649642044
 20
4705.6604594925784
 40
105
 41
0.8333333333333333
 50
93.999999890000097
  1
50
  0
LINE
  8
_0-0_
  6
CONTINUOUS
 62
    4
 10
9017.8418536399058
 20
4017.7350280854243
 11
9025.2269244406852
 21
3906.9591515633601
  0
LINE
  8
_0-0_
  6
CONTINUOUS
 62
    4
 10
9025.2269244406852
 20
3906.9591515633601
 11
9013.5201983664683
 21
3941.3195026490229
  0
LINE
  8
_0-0_
  6
CONTINUOUS
 62
    4
 10
9025.2269244406852
 20
3906.9591515633601
 11
9032.2438311789683
 21
3942.4430378052734
  0
LINE
  8
_0-0_
  6
CONTINUOUS
 62
    4
 10
9029.1070437644175
 20
3848.7540329072016
 11
9022.0900759909782
 21
3813.2699020478271
  0
LINE
  8
_0-0_
  6
CONTINUOUS
 62
    4
 10
9029.1070437644175
 20
3848.7540329072016
 11
9040.8137698386344
 21
3814.3934372040771
  0
LINE
  8
_0-0_
  6
CONTINUOUS
 62
    4
 10
9029.1070437644175
 20
3848.7540329072016
 11
9032.7656741355112
 21
3793.8746383759516
  0
LINE
  8
_0-0_
  6
CONTINUOUS
 62
    4
 10
8763.6624179099253
 20
4095.5143020722407
 11
8673.3093295310172
 21
3861.167870340063
  0
LINE
  8
_0-0_
  6
CONTINUOUS
 62
    4
 10
8673.3093295310172
 20
3861.167870340063
 11
8678.8739047263297
 21
3913.3722166392349
  0
LINE
  8
_0-0_
  6
CONTINUOUS
 62
    4
 10
8673.3093295310172
 20
3861.167870340063
 11
8704.2305331443003
 21
3903.5958498093623
  0
LINE
  8
_0-0_
  6
CONTINUOUS
 62
    4
 10
8763.6624179099253
 20
4095.5143020722407
 11
9057.5721850608042
 21
4095.5143020722407
  0
TEXT
  8
_0-0_
 62
    7
 10
8792.9392123435191
 20
4101.2813766572016
 40
87.5
 41
0.7199999999999999
 50
0
  1
シール溝
  0
TEXT
  8
_0-0_
 62
    7
 10
9021.7204944861823
 20
3934.5349449834479
 40
105
 41
0.8333333333333333
 50
93.999999890000097
  1
50
  0
LINE
  8
_0-0_
  6
CONTINUOUS
 62
    4
 10
1631.6907455472564
 20
1995.4259390000486
 11
1632.9407455472567
 21
1995.4259390000486
  0
TEXT
  8
_0-0_
 62
    7
 10
3508.201891049563
 20
5253.1179409005271
 40
17.5
 41
1
 50
0
  1
●
  0
TEXT
  8
_0-0_
 62
    7
 10
4438.2018910495626
 20
5253.1179409005271
 40
17.5
 41
1
 50
0
  1
●
  0
LINE
  8
_0-0_
  6
CONTINUOUS
 62
    4
 10
1542.3157455472569
 20
4834.14306640625
 11
1312.3157455472569
 21
4834.14306640625
  0
LINE
  8
_0-0_
  6
CONTINUOUS
 62
    4
 10
1978.3157455472567
 20
4834.14306640625
 11
1728.3157455472569
 21
4834.14306640625
  0
TEXT
  8
_0-0_
 62
    7
 10
1314.8223555519039
 20
4841.4387624790861
 40
105
 41
0.8333333333333333
 50
0
  1
6-D6
  0
TEXT
  8
_0-0_
 62
    7
 10
1777.2686634536564
 20
4840.5394301339965
 40
105
 41
0.8333333333333333
 50
0
  1
5-D6
  0
LINE
  8
_0-0_
  6
CONTINUOUS
 62
    4
 10
1542.3157455472569
 20
3235.6406779739095
 11
1312.3157455472569
 21
3235.6406779739095
  0
TEXT
  8
_0-0_
 62
    7
 10
1314.8223555519039
 20
3242.9363740467451
 40
105
 41
0.8333333333333333
 50
0
  1
6-D6
  0
LINE
  8
_0-0_
  6
CONTINUOUS
 62
    4
 10
1978.3157455472567
 20
3235.6406779739095
 11
1728.3157455472569
 21
3235.6406779739095
  0
TEXT
  8
_0-0_
 62
    7
 10
1777.2686634536564
 20
3242.037041701657
 40
105
 41
0.8333333333333333
 50
0
  1
5-D6
  0
LINE
  8
_0-0_
  6
CONTINUOUS
 62
    5
 10
1451.6907455472564
 20
2158.1759390000484
 11
2116.690745547256
 21
2158.1759390000484
  0
LINE
  8
_0-0_
  6
CONTINUOUS
 62
    5
 10
1451.6907455472564
 20
1972.1759390000484
 11
2116.690745547256
 21
1972.1759390000484
  0
LINE
  8
_0-0_
  6
CONTINUOUS
 62
    5
 10
1451.6907455472564
 20
1786.1759390000481
 11
2116.690745547256
 21
1786.1759390000481
  0
LINE
  8
_0-0_
  6
CONTINUOUS
 62
    5
 10
1451.6907455472564
 20
1600.1759390000481
 11
2116.690745547256
 21
1600.1759390000481
  0
LINE
  8
_0-0_
  6
CONTINUOUS
 62
    4
 10
1241.6907455472569
 20
2079.1759390000484
 11
1241.6907455472569
 21
1879.1759390000481
  0
TEXT
  8
_0-0_
 62
    7
 10
1233.8882861635242
 20
1882.2672661361034
 40
105
 41
0.8333333333333333
 50
90
  1
6-D6
  0
LINE
  8
_0-0_
  6
CONTINUOUS
 62
    4
 10
1693.0657455472571
 20
1879.1759390000481
 11
1241.6907455472569
 21
1879.1759390000481
  0
ARC
  8
_0-0_
  6
CONTINUOUS
 62
    4
 10
1693.0657455472571
 20
1909.1759390000481
 40
30
 50
270
 51
0
  0
ARC
  8
_0-0_
  6
CONTINUOUS
 62
    4
 10
1693.0657455472571
 20
1849.1759390000484
 40
30
 50
0
 51
90.000000000000014
  0
LINE
  8
_0-0_
  6
CONTINUOUS
 62
    4
 10
1723.0657455472571
 20
2344.1759390000484
 11
1723.0657455472571
 21
2158.1759390000484
  0
LINE
  8
_0-0_
  6
CONTINUOUS
 62
    4
 10
1723.0657455472571
 20
2158.1759390000484
 11
1736.6537454151396
 21
2107.4648331198723
  0
LINE
  8
_0-0_
  6
CONTINUOUS
 62
    4
 10
1723.0657455472571
 20
2158.1759390000484
 11
1709.4777456793747
 21
2107.4648331198723
  0
LINE
  8
_0-0_
  6
CONTINUOUS
 62
    4
 10
1723.0657455472571
 20
2158.1759390000484
 11
1723.0657455472571
 21
1972.1759390000484
  0
LINE
  8
_0-0_
  6
CONTINUOUS
 62
    4
 10
1723.0657455472571
 20
1972.1759390000484
 11
1709.4777456793747
 21
1921.464833119872
  0
LINE
  8
_0-0_
  6
CONTINUOUS
 62
    4
 10
1723.0657455472571
 20
1972.1759390000484
 11
1736.6537454151396
 21
1921.464833119872
  0
LINE
  8
_0-0_
  6
CONTINUOUS
 62
    4
 10
1723.0657455472571
 20
1909.1759390000481
 11
1723.0657455472571
 21
1972.1759390000484
  0
LINE
  8
_0-0_
  6
CONTINUOUS
 62
    4
 10
1723.0657455472571
 20
1849.1759390000484
 11
1723.0657455472571
 21
1786.1759390000481
  0
LINE
  8
_0-0_
  6
CONTINUOUS
 62
    4
 10
1723.0657455472571
 20
1786.1759390000481
 11
1709.4777456793747
 21
1836.8870448802244
  0
LINE
  8
_0-0_
  6
CONTINUOUS
 62
    4
 10
1723.0657455472571
 20
1786.1759390000481
 11
1736.6537454151396
 21
1836.8870448802244
  0
LINE
  8
_0-0_
  6
CONTINUOUS
 62
    4
 10
1723.0657455472571
 20
1600.1759390000481
 11
1723.0657455472571
 21
1414.1759390000486
  0
LINE
  8
_0-0_
  6
CONTINUOUS
 62
    4
 10
1723.0657455472571
 20
1600.1759390000481
 11
1723.0657455472571
 21
1786.1759390000481
  0
LINE
  8
_0-0_
  6
CONTINUOUS
 62
    4
 10
1723.0657455472571
 20
1600.1759390000481
 11
1709.4777456793747
 21
1650.887044880224
  0
LINE
  8
_0-0_
  6
CONTINUOUS
 62
    4
 10
1723.0657455472571
 20
1600.1759390000481
 11
1736.6537454151396
 21
1650.887044880224
  0
LINE
  8
_0-0_
  6
CONTINUOUS
 62
    4
 10
2374.6907455472569
 20
2285.1759390000484
 11
2374.6907455472569
 21
2065.1759390000484
  0
TEXT
  8
_0-0_
 62
    7
 10
2365.4929973802495
 20
2091.4893001029072
 40
105
 41
0.8333333333333333
 50
90
  1
5-D6
  0
LINE
  8
_0-0_
  6
CONTINUOUS
 62
    4
 10
2106.690745547256
 20
2065.1759390000484
 11
2374.6907455472569
 21
2065.1759390000484
  0
LINE
  8
_0-0_
  6
CONTINUOUS
 62
    4
 10
2106.690745547256
 20
2065.1759390000484
 11
2157.4018514274316
 21
2078.7639388679308
  0
LINE
  8
_0-0_
  6
CONTINUOUS
 62
    4
 10
2106.690745547256
 20
2065.1759390000484
 11
2157.4018514274316
 21
2051.5879391321659
  0
LINE
  8
_0-0_
  6
CONTINUOUS
 62
    4
 10
1945.4407455472562
 20
2065.1759390000484
 11
2106.690745547256
 21
2065.1759390000484
  0
LINE
  8
_0-0_
  6
CONTINUOUS
 62
    4
 10
1945.4407455472562
 20
2065.1759390000484
 11
1996.1518514274321
 21
2051.5879391321659
  0
LINE
  8
_0-0_
  6
CONTINUOUS
 62
    4
 10
1945.4407455472562
 20
2065.1759390000484
 11
1996.1518514274321
 21
2078.7639388679308
  0
LINE
  8
_0-0_
  6
CONTINUOUS
 62
    4
 10
1784.190745547256
 20
2065.1759390000484
 11
1834.9018514274321
 21
2051.5879391321659
  0
LINE
  8
_0-0_
  6
CONTINUOUS
 62
    4
 10
1784.190745547256
 20
2065.1759390000484
 11
1834.9018514274321
 21
2078.7639388679308
  0
LINE
  8
_0-0_
  6
CONTINUOUS
 62
    4
 10
1784.190745547256
 20
2065.1759390000484
 11
1945.4407455472562
 21
2065.1759390000484
  0
LINE
  8
_0-0_
  6
CONTINUOUS
 62
    4
 10
1622.9407455472564
 20
2065.1759390000484
 11
1784.190745547256
 21
2065.1759390000484
  0
LINE
  8
_0-0_
  6
CONTINUOUS
 62
    4
 10
1622.9407455472564
 20
2065.1759390000484
 11
1673.6518514274323
 21
2078.7639388679308
  0
LINE
  8
_0-0_
  6
CONTINUOUS
 62
    4
 10
1622.9407455472564
 20
2065.1759390000484
 11
1673.6518514274323
 21
2051.5879391321659
  0
LINE
  8
_0-0_
  6
CONTINUOUS
 62
    4
 10
1461.6907455472567
 20
2065.1759390000484
 11
1622.9407455472564
 21
2065.1759390000484
  0
LINE
  8
_0-0_
  6
CONTINUOUS
 62
    4
 10
1461.6907455472567
 20
2065.1759390000484
 11
1512.4018514274328
 21
2078.7639388679308
  0
LINE
  8
_0-0_
  6
CONTINUOUS
 62
    4
 10
1461.6907455472567
 20
2065.1759390000484
 11
1512.4018514274328
 21
2051.5879391321659
  0
TEXT
  8
_0-0_
 62
    7
 10
4252.2018910495626
 20
5253.1179409005271
 40
17.5
 41
1
 50
0
  1
●
  0
TEXT
  8
_0-0_
 62
    7
 10
4066.2018910495621
 20
5253.1179409005271
 40
17.5
 41
1
 50
0
  1
●
  0
TEXT
  8
_0-0_
 62
    7
 10
3880.2018910495626
 20
5253.1179409005271
 40
17.5
 41
1
 50
0
  1
●
  0
TEXT
  8
_0-0_
 62
    7
 10
3694.201891049563
 20
5253.1179409005271
 40
17.5
 41
1
 50
0
  1
●
  0
TEXT
  8
_0-0_
 62
    7
 10
5992.2006703464376
 20
5253.1179409005271
 40
17.5
 41
1
 50
0
  1
●
  0
TEXT
  8
_0-0_
 62
    7
 10
6922.2006703464376
 20
5253.1179409005271
 40
17.5
 41
1
 50
0
  1
●
  0
TEXT
  8
_0-0_
 62
    7
 10
6736.2006703464367
 20
5253.1179409005271
 40
17.5
 41
1
 50
0
  1
●
  0
TEXT
  8
_0-0_
 62
    7
 10
6550.2006703464367
 20
5253.1179409005271
 40
17.5
 41
1
 50
0
  1
●
  0
TEXT
  8
_0-0_
 62
    7
 10
6364.2006703464367
 20
5253.1179409005271
 40
17.5
 41
1
 50
0
  1
●
  0
TEXT
  8
_0-0_
 62
    7
 10
6178.2006703464376
 20
5253.1179409005271
 40
17.5
 41
1
 50
0
  1
●
  0
TEXT
  8
_0-0_
 62
    7
 10
788.5625
 20
6496.25
 40
157.5
 41
1
 50
0
  1
Ｌ型街渠－Ｃ(横断歩道切り下げ)
  0
LINE
  8
_0-0_
  6
CONTINUOUS
 62
    5
 10
733.5625
 20
6490
 11
3183.5625
 21
6490
  0
LINE
  8
_0-0_
  6
CONTINUOUS
 62
    2
 10
4481.9802352933538
 20
5332.7310791015625
 11
4481.9802352933538
 21
5381.7366039634416
  0
LINE
  8
_0-0_
  6
CONTINUOUS
 62
    2
 10
3481.9802352933543
 20
5602.7310791015634
 11
4481.9802352933538
 21
5381.7366039634416
  0
LINE
  8
_0-0_
  6
CONTINUOUS
 62
    4
 10
4480.0086370712215
 20
5370.764020914873
 11
4544.1047012357366
 21
5508.2184753417968
  0
LINE
  8
_0-0_
  6
CONTINUOUS
 62
    4
 10
4480.0086370712215
 20
5370.764020914873
 11
4489.1251662188342
 21
5422.4664279797361
  0
LINE
  8
_0-0_
  6
CONTINUOUS
 62
    4
 10
4480.0086370712215
 20
5370.764020914873
 11
4513.754986439826
 21
5410.9813542960418
  0
LINE
  8
_0-0_
  6
CONTINUOUS
 62
    2
 10
5965.9790145902288
 20
5382.7310791015625
 11
6965.9790145902288
 21
5603.7255542396851
  0
LINE
  8
_0-0_
  6
CONTINUOUS
 62
    2
 10
6965.9790145902288
 20
5352.7310791015634
 11
6965.9790145902288
 21
5603.7255542396851
  0
ENDSEC
  0
EOF
