  0
SECTION
  2
HEADER
  9
$ACADVER
  1
AC1009
  9
$INSBASE
 10
0
 20
0
 30
0
  9
$EXTMIN
 10
0
 20
0
  9
$EXTMAX
 10
8400
 20
5940
  9
$LIMMIN
 10
0
 20
0
  9
$LIMMAX
 10
8400
 20
5940
  9
$LTSCALE
 40
20
  0
ENDSEC
  0
SECTION
  2
TABLES
  0
TABLE
  2
LTYPE
 70
     9
  0
LTYPE
  2
CONTINUOUS
 70
    64
  3
実線
 72
    65
 73
     0
 40
0.0
  0
LTYPE
  2
DASHED1
 70
    64
  3
--  --  --  --  --  --  --  --  
 72
    65
 73
     2
 40
2.5
 49
1.25
 49
-1.25
  0
LTYPE
  2
DASHED2
 70
    64
  3
----    ----    ----    ----    
 72
    65
 73
     2
 40
5.0
 49
2.5
 49
-2.5
  0
LTYPE
  2
DASHED3
 70
    64
  3
------  ------  ------  ------  
 72
    65
 73
     2
 40
5.0
 49
3.75
 49
-1.25
  0
LTYPE
  2
CENTER1
 70
    64
  3
----- - ----- - ----- - ----- - 
 72
    65
 73
     4
 40
10.0
 49
6.25
 49
-1.25
 49
1.25
 49
-1.25
  0
LTYPE
  2
CENTER2
 70
    64
  3
----------  --  ----------  --  
 72
    65
 73
     4
 40
20.0
 49
12.5
 49
-2.5
 49
2.5
 49
-2.5
  0
LTYPE
  2
PHANTOM1
 70
    64
  3
--- - - --- - - --- - - --- - - 
 72
    65
 73
     6
 40
10.0
 49
3.25
 49
-1.25
 49
1.25
 49
-1.25
 49
1.25
 49
-1.25
  0
LTYPE
  2
PHANTOM2
 70
    64
  3
--------  -  -  --------  -  -  
 72
    65
 73
     6
 40
20.0
 49
10.0
 49
-2.5
 49
1.25
 49
-2.5
 49
1.25
 49
-2.5
  0
LTYPE
  2
DOT
 70
    64
  3
-   -   -   -   -   -   -   -   
 72
    65
 73
     2
 40
2.5
 49
0.625
 49
-1.875
  0
LTYPE
  2
DUMMY
 70
    64
  3
ダミー
 72
    65
 73
     0
 40
0.0
  0
LTYPE
  2
RAND1
 70
    64
  3
ランダム線1
 72
    65
 73
     4
 40
10.0
 49
1.0
 49
-2.0
 49
3.0
 49
-4.0
  0
LTYPE
  2
RAND2
 70
    64
  3
ランダム線2
 72
    65
 73
     4
 40
14.0
 49
2.0
 49
-3.0
 49
4.0
 49
-5.0
  0
LTYPE
  2
RAND3
 70
    64
  3
ランダム線3
 72
    65
 73
     4
 40
18.0
 49
3.0
 49
-4.0
 49
5.0
 49
-6.0
  0
LTYPE
  2
RAND4
 70
    64
  3
ランダム線4
 72
    65
 73
     4
 40
22.0
 49
4.0
 49
-5.0
 49
6.0
 49
-7.0
  0
LTYPE
  2
RAND5
 70
    64
  3
ランダム線5
 72
    65
 73
     4
 40
26.0
 49
5.0
 49
-6.0
 49
7.0
 49
-8.0
  0
LTYPE
  2
LONG1
 70
    64
  3
----------  --  ----------  --  
 72
    65
 73
     4
 40
40.0
 49
32.5
 49
-2.5
 49
2.5
 49
-2.5
  0
LTYPE
  2
LONG2
 70
    64
  3
--------  -  -  --------  -  -  
 72
    65
 73
     6
 40
40.0
 49
30.0
 49
-2.5
 49
1.25
 49
-2.5
 49
1.25
 49
-2.5
  0
LTYPE
  2
LONG3
 70
    64
  3
+++++++++++++++..+++++++++++++++
 72
    65
 73
     2
 40
40.0
 49
37.5
 49
-2.5
  0
LTYPE
  2
LONG4
 70
    64
  3
+++++++++++++++..+++++++++++++++
 72
    65
 73
     2
 40
80.0
 49
75.0
 49
-5.0
  0
LTYPE
  2
LONG5
 70
    64
  3
----------  --  ----------  --  
 72
    65
 73
     4
 40
60.0
 49
37.5
 49
-7.5
 49
7.5
 49
-7.5
  0
LTYPE
  2
dashed
 70
   64
  3
-------   -------------   ------
 72
   65
 73
    2
 40
7.5
 49
6
 49
-1.5
  0
LTYPE
  2
dashed_spaced
 70
   64
  3
----        --------        ----
 72
   65
 73
    2
 40
12
 49
6
 49
-6
  0
LTYPE
  2
long_dashed_dotted
 70
   64
  3
------------- --- --------------
 72
   65
 73
    4
 40
15.25
 49
12
 49
-1.5
 49
0.25
 49
-1.5
  0
LTYPE
  2
long_dashed_double-dotted
 70
   64
  3
----------- --- --- ------------
 72
   65
 73
    6
 40
17
 49
12
 49
-1.5
 49
0.25
 49
-1.5
 49
0.25
 49
-1.5
  0
LTYPE
  2
long_dashed_triplicate-dotted
 70
   64
  3
--------- --- --- --- ----------
 72
   65
 73
    8
 40
18.75
 49
12
 49
-1.5
 49
0.25
 49
-1.5
 49
0.25
 49
-1.5
 49
0.25
 49
-1.5
  0
LTYPE
  2
dotted
 70
   64
  3
   -       -       -       -    
 72
   65
 73
    2
 40
1.75
 49
0.25
 49
-1.5
  0
LTYPE
  2
chain
 70
   64
  3
-------------- -- --------------
 72
   65
 73
    4
 40
18.5
 49
12
 49
-1.5
 49
3.5
 49
-1.5
  0
LTYPE
  2
chain_double_dash
 70
   64
  3
------------ -- -- -------------
 72
   65
 73
    6
 40
23.5
 49
12
 49
-1.5
 49
3.5
 49
-1.5
 49
3.5
 49
-1.5
  0
LTYPE
  2
dashed_dotted
 70
   64
  3
-----------     -     ----------
 72
   65
 73
    4
 40
9.25
 49
6
 49
-1.5
 49
0.25
 49
-1.5
  0
LTYPE
  2
double-dashed_dotted
 70
   64
  3
------   -----------   -   -----
 72
   65
 73
    6
 40
16.75
 49
6
 49
-1.5
 49
6
 49
-1.5
 49
0.25
 49
-1.5
  0
LTYPE
  2
dashed_double-dotted
 70
   64
  3
---------    -    -    ---------
 72
   65
 73
    6
 40
11
 49
6
 49
-1.5
 49
0.25
 49
-1.5
 49
0.25
 49
-1.5
  0
LTYPE
  2
double-dashed_double-dotted
 70
   64
  3
-----   ---------   -   -   ----
 72
   65
 73
    8
 40
18.5
 49
6
 49
-1.5
 49
6
 49
-1.5
 49
0.25
 49
-1.5
 49
0.25
 49
-1.5
  0
LTYPE
  2
dashed_triplicate-dotted
 70
   64
  3
-------    -    -    -    ------
 72
   65
 73
    8
 40
12.75
 49
6
 49
-1.5
 49
0.25
 49
-1.5
 49
0.25
 49
-1.5
 49
0.25
 49
-1.5
  0
LTYPE
  2
double-dashed_triplicate-dotted
 70
   64
  3
-----  ---------  -  -  -  -----
 72
   65
 73
   10
 40
20.25
 49
6
 49
-1.5
 49
6
 49
-1.5
 49
0.25
 49
-1.5
 49
0.25
 49
-1.5
 49
0.25
 49
-1.5
  0
LTYPE
  2
undefined
 70
   64
  3
--------------------------------
 72
   65
 73
    0
 40
0
  0
LTYPE
  2
_
 70
   64
  3
                                
 72
   65
 73
    0
 40
0
  0
LTYPE
  2
__18
 70
   64
  3
                                
 72
   65
 73
    0
 40
0
  0
LTYPE
  2
__19
 70
   64
  3
                                
 72
   65
 73
    0
 40
0
  0
LTYPE
  2
__20
 70
   64
  3
                                
 72
   65
 73
    0
 40
0
  0
LTYPE
  2
__21
 70
   64
  3
                                
 72
   65
 73
    0
 40
0
  0
LTYPE
  2
__22
 70
   64
  3
                                
 72
   65
 73
    0
 40
0
  0
LTYPE
  2
__23
 70
   64
  3
                                
 72
   65
 73
    0
 40
0
  0
LTYPE
  2
__24
 70
   64
  3
                                
 72
   65
 73
    0
 40
0
  0
LTYPE
  2
__25
 70
   64
  3
                                
 72
   65
 73
    0
 40
0
  0
LTYPE
  2
__26
 70
   64
  3
                                
 72
   65
 73
    0
 40
0
  0
LTYPE
  2
__27
 70
   64
  3
                                
 72
   65
 73
    0
 40
0
  0
LTYPE
  2
__28
 70
   64
  3
                                
 72
   65
 73
    0
 40
0
  0
LTYPE
  2
__29
 70
   64
  3
                                
 72
   65
 73
    0
 40
0
  0
LTYPE
  2
__30
 70
   64
  3
                                
 72
   65
 73
    0
 40
0
  0
LTYPE
  2
__31
 70
   64
  3
                                
 72
   65
 73
    0
 40
0
  0
LTYPE
  2
__32
 70
   64
  3
                                
 72
   65
 73
    0
 40
0
  0
ENDTAB
  0
TABLE
  2
STYLE
  5
3
100
AcDbSymbolTable
 70
     1
  0
STYLE
  5
10
100
AcDbSymbolTableRecord
100
AcDbTextStyleTableRecord
  2
STANDARD
 70
     0
 40
0.0
 41
1.0
 50
0.0
 71
     0
 42
0.2
  3
txt
  4
bigfont.shx
  0
STYLE
  5
26
100
AcDbSymbolTableRecord
100
AcDbTextStyleTableRecord
  2
TATEGAKI
 70
    68
 40
0.0
 41
1.0
 50
0.0
 71
     0
 42
1.0
  3
txt
  4
bigfont.shx
  0
ENDTAB
  0
TABLE
  2
LAYER
 70
    2
  0
LAYER
  2
_0-0_
 70
   64
 62
    7
  6
CONTINUOUS
  0
LAYER
  2
ADD_LINE
 70
   64
 62
    7
  6
CONTINUOUS
  0
ENDTAB
  0
ENDSEC
  0
SECTION
  2
BLOCKS
  0
ENDSEC
  0
SECTION
  2
ENTITIES
  0
LINE
  8
_0-0_
  6
CONTINUOUS
 62
    4
 10
1818.9615574102447
 20
2207.0108912081186
 11
1847.9393321989166
 21
2214.7754625611942
  0
LINE
  8
_0-0_
  6
CONTINUOUS
 62
    4
 10
1818.9615574102447
 20
2207.0108912081186
 11
1847.9393321989166
 21
2199.2463198550426
  0
LINE
  8
_0-0_
  6
CONTINUOUS
 62
    4
 10
1818.9615574102447
 20
2207.0108912081186
 11
1968.9615574102447
 21
2207.0108912081186
  0
LINE
  8
_0-0_
  6
DASHED2
 62
    5
 10
1687.5810874121646
 20
2888.8481724866014
 11
1737.2159789848551
 21
2894.9425708538178
  0
LINE
  8
_0-0_
  6
CONTINUOUS
 62
    2
 10
1096.5918316367958
 20
4130.8313245488043
 11
1096.5918316367958
 21
4142.8313245488043
  0
LINE
  8
_0-0_
  6
CONTINUOUS
 62
    4
 10
2429.8165969316596
 20
4136.8313245488034
 11
2299.8165969316596
 21
4136.8313245488034
  0
LINE
  8
_0-0_
  6
CONTINUOUS
 62
  136
 10
3980
 20
5550
 11
360
 21
5550
  0
LINE
  8
_0-0_
  6
CONTINUOUS
 62
  136
 10
360
 20
5550
 11
360
 21
250
  0
LINE
  8
_0-0_
  6
CONTINUOUS
 62
  136
 10
360
 20
250
 11
3980
 21
250
  0
LINE
  8
_0-0_
  6
CONTINUOUS
 62
  136
 10
3980
 20
250
 11
3980
 21
5550
  0
LINE
  8
_0-0_
  6
CONTINUOUS
 62
    4
 10
901.59183163679585
 20
4236.8313245488043
 11
901.59183163679585
 21
4333.602507397707
  0
TEXT
  8
_0-0_
 62
    7
 10
738.68527663490908
 20
4111.7656549575858
 40
80
 41
1
 50
90
  1
ｇ
  0
LINE
  8
_0-0_
  6
CONTINUOUS
 62
    4
 10
1071.5918316367958
 20
3846.8313245488034
 11
1761.5918316367956
 21
3846.8313245488034
  0
LINE
  8
_0-0_
  6
CONTINUOUS
 62
    4
 10
1071.5918316367958
 20
3846.8313245488034
 11
1100.5696064254675
 21
3854.5958959018798
  0
LINE
  8
_0-0_
  6
CONTINUOUS
 62
    4
 10
1071.5918316367958
 20
3846.8313245488034
 11
1100.5696064254675
 21
3839.0667531957287
  0
LINE
  8
_0-0_
  6
CONTINUOUS
 62
    4
 10
1761.5918316367956
 20
3846.8313245488034
 11
1732.6140568481237
 21
3839.0667531957287
  0
LINE
  8
_0-0_
  6
CONTINUOUS
 62
    4
 10
1761.5918316367956
 20
3846.8313245488034
 11
1732.6140568481237
 21
3854.5958959018798
  0
LINE
  8
_0-0_
  6
CONTINUOUS
 62
    4
 10
1071.5918316367958
 20
3826.8313245488034
 11
1071.5918316367958
 21
4046.8313245488034
  0
LINE
  8
_0-0_
  6
CONTINUOUS
 62
    4
 10
1761.5918316367956
 20
3826.8313245488034
 11
1761.5918316367956
 21
4046.8313245488034
  0
LINE
  8
_0-0_
  6
CONTINUOUS
 62
    4
 10
1051.5918316367958
 20
4066.8313245488034
 11
731.59183163679585
 21
4066.8313245488034
  0
LINE
  8
_0-0_
  6
CONTINUOUS
 62
    4
 10
1051.5918316367958
 20
4236.8313245488043
 11
731.59183163679585
 21
4236.8313245488043
  0
LINE
  8
_0-0_
  6
CONTINUOUS
 62
    4
 10
751.59183163679585
 20
4066.8313245488034
 11
751.59183163679585
 21
4236.8313245488043
  0
LINE
  8
_0-0_
  6
CONTINUOUS
 62
    4
 10
901.59183163679585
 20
4066.8313245488034
 11
901.59183163679585
 21
4206.8313245488043
  0
LINE
  8
_0-0_
  6
CONTINUOUS
 62
    4
 10
901.59183163679585
 20
4206.8313245488043
 11
909.35640298987095
 21
4177.8535497601315
  0
LINE
  8
_0-0_
  6
CONTINUOUS
 62
    4
 10
901.59183163679585
 20
4206.8313245488043
 11
893.82726028371962
 21
4177.8535497601315
  0
LINE
  8
_0-0_
  6
CONTINUOUS
 62
    4
 10
901.59183163679585
 20
4066.8313245488034
 11
893.82726028371962
 21
4095.8090993374757
  0
LINE
  8
_0-0_
  6
CONTINUOUS
 62
    4
 10
901.59183163679585
 20
4066.8313245488034
 11
909.35640298987095
 21
4095.8090993374757
  0
LINE
  8
_0-0_
  6
CONTINUOUS
 62
    4
 10
901.59183163679585
 20
4236.8313245488043
 11
893.82726028371962
 21
4265.8090993374762
  0
LINE
  8
_0-0_
  6
CONTINUOUS
 62
    4
 10
901.59183163679585
 20
4236.8313245488043
 11
909.35640298987095
 21
4265.8090993374762
  0
LINE
  8
_0-0_
  6
CONTINUOUS
 62
    4
 10
1051.5918316367958
 20
4206.8313245488043
 11
881.59183163679585
 21
4206.8313245488043
  0
LINE
  8
_0-0_
  6
CONTINUOUS
 62
    4
 10
751.59183163679585
 20
4236.8313245488043
 11
759.35640298987095
 21
4207.8535497601315
  0
LINE
  8
_0-0_
  6
CONTINUOUS
 62
    4
 10
751.59183163679585
 20
4236.8313245488043
 11
743.82726028371962
 21
4207.8535497601315
  0
LINE
  8
_0-0_
  6
CONTINUOUS
 62
    4
 10
751.59183163679585
 20
4066.8313245488034
 11
743.82726028371962
 21
4095.8090993374757
  0
LINE
  8
_0-0_
  6
CONTINUOUS
 62
    4
 10
751.59183163679585
 20
4066.8313245488034
 11
759.35640298987095
 21
4095.8090993374757
  0
LINE
  8
_0-0_
  6
CONTINUOUS
 62
    4
 10
1781.5918316367956
 20
4066.8313245488034
 11
2001.5918316367956
 21
4066.8313245488034
  0
LINE
  8
_0-0_
  6
CONTINUOUS
 62
    4
 10
1981.5918316367956
 20
4066.8313245488034
 11
1981.5918316367956
 21
4216.8313245488043
  0
LINE
  8
_0-0_
  6
CONTINUOUS
 62
    4
 10
1981.5918316367956
 20
4216.8313245488043
 11
1989.3564029898711
 21
4187.8535497601315
  0
LINE
  8
_0-0_
  6
CONTINUOUS
 62
    4
 10
1981.5918316367956
 20
4216.8313245488043
 11
1973.8272602837198
 21
4187.8535497601315
  0
LINE
  8
_0-0_
  6
CONTINUOUS
 62
    4
 10
1981.5918316367956
 20
4066.8313245488034
 11
1973.8272602837198
 21
4095.8090993374757
  0
LINE
  8
_0-0_
  6
CONTINUOUS
 62
    4
 10
1981.5918316367956
 20
4066.8313245488034
 11
1989.3564029898711
 21
4095.8090993374757
  0
LINE
  8
_0-0_
  6
CONTINUOUS
 62
    5
 10
1071.5918316367958
 20
4066.8313245488034
 11
1071.5918316367958
 21
4236.8313245488043
  0
LINE
  8
_0-0_
  6
CONTINUOUS
 62
    5
 10
1071.5918316367958
 20
4066.8313245488034
 11
1761.5918316367956
 21
4066.8313245488034
  0
LINE
  8
_0-0_
  6
CONTINUOUS
 62
    5
 10
1071.5918316367958
 20
4236.8313245488043
 11
1101.5918316367958
 21
4236.8313245488043
  0
LINE
  8
_0-0_
  6
CONTINUOUS
 62
    5
 10
1101.5918316367958
 20
4236.8313245488043
 11
1251.5918316367958
 21
4206.8313245488043
  0
LINE
  8
_0-0_
  6
CONTINUOUS
 62
    5
 10
1751.5918316367956
 20
4216.8313245488043
 11
1761.5918316367956
 21
4066.8313245488034
  0
LINE
  8
_0-0_
  6
CONTINUOUS
 62
    5
 10
1751.5918316367956
 20
4216.8313245488043
 11
1251.5918316367958
 21
4206.8313245488043
  0
TEXT
  8
_0-0_
 62
    7
 10
1981.5918316367956
 20
4101.8313245488034
 40
80
 41
1
 50
90
  1
ｈ
  0
TEXT
  8
_0-0_
 62
    7
 10
901.59183163679585
 20
4096.8313245488034
 40
80
 41
1
 50
90
  1
ｅ
  0
TEXT
  8
_0-0_
 62
    7
 10
901.54298570632363
 20
4259.2517680901128
 40
80
 41
1
 50
90
  1
ｆ
  0
TEXT
  8
_0-0_
 62
    7
 10
1376.4611660774676
 20
3847.0009974608706
 40
80
 41
1
 50
0
  1
ｄ
  0
LINE
  8
_0-0_
  6
CONTINUOUS
 62
    4
 10
1771.6362268079594
 20
4216.8313245488043
 11
2001.5918316367956
 21
4216.8313245488043
  0
LINE
  8
_0-0_
  6
CONTINUOUS
 62
    5
 10
2449.8165969316596
 20
4066.8313245488034
 11
3748.8165969316596
 21
4066.8313245488034
  0
LINE
  8
_0-0_
  6
CONTINUOUS
 62
    4
 10
2319.8165969316596
 20
4066.8313245488034
 11
2312.0520255785831
 21
4095.8090993374757
  0
LINE
  8
_0-0_
  6
CONTINUOUS
 62
    4
 10
2319.8165969316596
 20
4066.8313245488034
 11
2327.5811682847347
 21
4095.8090993374757
  0
LINE
  8
_0-0_
  6
CONTINUOUS
 62
    4
 10
2319.8165969316596
 20
4066.8313245488034
 11
2319.8165969316596
 21
4136.8313245488034
  0
LINE
  8
_0-0_
  6
CONTINUOUS
 62
    4
 10
2319.8165969316596
 20
4136.8313245488034
 11
2327.5811682847352
 21
4107.8535497601315
  0
LINE
  8
_0-0_
  6
CONTINUOUS
 62
    4
 10
2319.8165969316596
 20
4136.8313245488034
 11
2312.0520255785841
 21
4107.8535497601315
  0
TEXT
  8
_0-0_
 62
    7
 10
2312.1046811079872
 20
4066.3210634512979
 40
80
 41
0.875
 50
90
  1
70
  0
LINE
  8
_0-0_
  6
CONTINUOUS
 62
    4
 10
2429.8165969316596
 20
4066.8313245488034
 11
2299.8165969316596
 21
4066.8313245488034
  0
CIRCLE
  8
_0-0_
  6
CONTINUOUS
 62
    5
 10
2767.8165969316596
 20
4136.8313245488034
 40
15
  0
CIRCLE
  8
_0-0_
  6
CONTINUOUS
 62
    5
 10
3430.8165969316596
 20
4136.8313245488034
 40
15
  0
LINE
  8
_0-0_
  6
CONTINUOUS
 62
    5
 10
2449.8165969316596
 20
4216.8313245488034
 11
3748.8165969316596
 21
4216.8313245488034
  0
LINE
  8
_0-0_
  6
CONTINUOUS
 62
    5
 10
2581.7665969316594
 20
4216.8313245488034
 11
2628.3665969316598
 21
4236.8313245488034
  0
LINE
  8
_0-0_
  6
CONTINUOUS
 62
    5
 10
3570.2665969316599
 20
4236.8313245488034
 11
3616.8665969316593
 21
4216.8313245488034
  0
LINE
  8
_0-0_
  6
CONTINUOUS
 62
    5
 10
3748.8165969316596
 20
4066.8313245488034
 11
3748.8165969316596
 21
4216.8313245488034
  0
LINE
  8
_0-0_
  6
CONTINUOUS
 62
    5
 10
2628.3665969316598
 20
4236.8313245488034
 11
3570.2665969316599
 21
4236.8313245488034
  0
LINE
  8
_0-0_
  6
CONTINUOUS
 62
    5
 10
2449.8165969316596
 20
4066.8313245488034
 11
2449.8165969316596
 21
4216.8313245488034
  0
LINE
  8
_0-0_
  6
CONTINUOUS
 62
    4
 10
2767.4517200143191
 20
4386.8313245488034
 11
2767.4517200143191
 21
4151.8268860533025
  0
LINE
  8
_0-0_
  6
CONTINUOUS
 62
    4
 10
2767.4517200143191
 20
4151.8268860533025
 11
2759.6871486612426
 21
4180.8046608419736
  0
LINE
  8
_0-0_
  6
CONTINUOUS
 62
    4
 10
2767.4517200143191
 20
4151.8268860533025
 11
2775.2162913673942
 21
4180.8046608419736
  0
LINE
  8
_0-0_
  6
CONTINUOUS
 62
    4
 10
2114.8165969316596
 20
4011.0917077613466
 11
2107.0520255785841
 21
4040.0694825500195
  0
LINE
  8
_0-0_
  6
CONTINUOUS
 62
    4
 10
2114.8165969316596
 20
4011.0917077613466
 11
2122.5811682847352
 21
4040.0694825500195
  0
LINE
  8
_0-0_
  6
CONTINUOUS
 62
    4
 10
2114.8165969316596
 20
4101.8313245488034
 11
2114.8165969316596
 21
4011.0917077613466
  0
LINE
  8
_0-0_
  6
CONTINUOUS
 62
    4
 10
2114.8165969316596
 20
4101.8313245488034
 11
2199.8165969316596
 21
4101.8313245488034
  0
TEXT
  8
_0-0_
 62
    7
 10
2129.6192597778695
 20
4010.9234637049298
 40
80
 41
0.875
 50
0
  1
Ｂ
  0
LINE
  8
_0-0_
  6
CONTINUOUS
 62
    5
 10
3030
 20
5109.9999999999981
 11
1290
 21
5109.9999999999981
  0
LINE
  8
_0-0_
  6
CONTINUOUS
 62
    5
 10
3030
 20
5107.9999999999981
 11
1290
 21
5107.9999999999981
  0
LINE
  8
_0-0_
  6
CONTINUOUS
 62
    5
 10
3030
 20
5105.9999999999981
 11
1290
 21
5105.9999999999981
  0
LINE
  8
_0-0_
  6
CONTINUOUS
 62
    5
 10
3030
 20
5103.9999999999981
 11
1290
 21
5103.9999999999981
  0
LINE
  8
_0-0_
  6
CONTINUOUS
 62
    5
 10
3030
 20
5101.9999999999981
 11
1290
 21
5101.9999999999981
  0
TEXT
  8
_0-0_
 62
    2
 10
1330
 20
5119.9999999999981
 40
140
 41
0.7142857142857143
 50
0
  1
Ｌ型街渠歩道切下げＲブロック
  0
LINE
  8
_0-0_
  6
CONTINUOUS
 62
    4
 10
1411.5918316367958
 20
4230.0353241488837
 11
1440.4085522305069
 21
4238.3777826728437
  0
LINE
  8
_0-0_
  6
CONTINUOUS
 62
    4
 10
1411.5918316367958
 20
4230.0353241488837
 11
1440.7190729866879
 21
4222.8517448637958
  0
LINE
  8
_0-0_
  6
CONTINUOUS
 62
    4
 10
1567.9900578712749
 20
4233.1632886735733
 11
1411.5918316367958
 21
4230.0353241488837
  0
TEXT
  8
_0-0_
 62
    7
 10
1448.8292878569177
 20
4235.4364679345908
 40
60
 41
1
 50
1.9999999999999882
  1
２％
  0
LINE
  8
_0-0_
  6
CONTINUOUS
 62
    4
 10
1101.5918316367958
 20
4436.8313245488043
 11
1251.5918316367958
 21
4436.8313245488043
  0
LINE
  8
_0-0_
  6
CONTINUOUS
 62
    4
 10
1751.5918316367956
 20
4436.8313245488043
 11
1251.5918316367958
 21
4436.8313245488043
  0
LINE
  8
_0-0_
  6
CONTINUOUS
 62
    4
 10
1761.5918316367956
 20
4436.8313245488043
 11
1790.5696064254675
 21
4444.5958959018798
  0
LINE
  8
_0-0_
  6
CONTINUOUS
 62
    4
 10
1761.5918316367956
 20
4436.8313245488043
 11
1790.5696064254675
 21
4429.0667531957287
  0
LINE
  8
_0-0_
  6
CONTINUOUS
 62
    4
 10
1751.5918316367956
 20
4436.8313245488043
 11
1722.6140568481237
 21
4429.0667531957287
  0
LINE
  8
_0-0_
  6
CONTINUOUS
 62
    4
 10
1751.5918316367956
 20
4436.8313245488043
 11
1722.6140568481237
 21
4444.5958959018798
  0
LINE
  8
_0-0_
  6
CONTINUOUS
 62
    4
 10
1751.5918316367956
 20
4436.8313245488043
 11
1722.6140568481237
 21
4429.0667531957287
  0
LINE
  8
_0-0_
  6
CONTINUOUS
 62
    4
 10
1751.5918316367956
 20
4436.8313245488043
 11
1722.6140568481237
 21
4444.5958959018798
  0
LINE
  8
_0-0_
  6
CONTINUOUS
 62
    4
 10
1251.5918316367958
 20
4436.8313245488043
 11
1280.5696064254675
 21
4444.5958959018798
  0
LINE
  8
_0-0_
  6
CONTINUOUS
 62
    4
 10
1251.5918316367958
 20
4436.8313245488043
 11
1280.5696064254675
 21
4429.0667531957287
  0
LINE
  8
_0-0_
  6
CONTINUOUS
 62
    4
 10
1251.5918316367958
 20
4436.8313245488043
 11
1222.614056848123
 21
4429.0667531957287
  0
LINE
  8
_0-0_
  6
CONTINUOUS
 62
    4
 10
1251.5918316367958
 20
4436.8313245488043
 11
1222.614056848123
 21
4444.5958959018798
  0
LINE
  8
_0-0_
  6
CONTINUOUS
 62
    4
 10
1101.5918316367958
 20
4436.8313245488043
 11
1130.5696064254675
 21
4444.5958959018798
  0
LINE
  8
_0-0_
  6
CONTINUOUS
 62
    4
 10
1101.5918316367958
 20
4436.8313245488043
 11
1130.5696064254675
 21
4429.0667531957287
  0
LINE
  8
_0-0_
  6
CONTINUOUS
 62
    4
 10
1071.5918316367958
 20
4436.8313245488043
 11
1042.614056848123
 21
4429.0667531957287
  0
LINE
  8
_0-0_
  6
CONTINUOUS
 62
    4
 10
1071.5918316367958
 20
4436.8313245488043
 11
1042.614056848123
 21
4444.5958959018798
  0
TEXT
  8
_0-0_
 62
    7
 10
1461.5918316367958
 20
4436.8313245488043
 40
80
 41
1
 50
0
  1
ａ
  0
TEXT
  8
_0-0_
 62
    7
 10
1136.5918316367958
 20
4436.8313245488043
 40
80
 41
1
 50
0
  1
ｃ
  0
TEXT
  8
_0-0_
 62
    7
 10
961.59183163679585
 20
4436.8313245488043
 40
80
 41
1
 50
0
  1
ｂ
  0
TEXT
  8
_0-0_
 62
    7
 10
1800.2757752768704
 20
4436.9767304208753
 40
80
 41
1
 50
0
  1
10
  0
LINE
  8
_0-0_
  6
CONTINUOUS
 62
    4
 10
1071.5918316367958
 20
4256.8313245488043
 11
1071.5918316367958
 21
4456.8313245488043
  0
LINE
  8
_0-0_
  6
CONTINUOUS
 62
    4
 10
1101.5918316367958
 20
4256.8313245488043
 11
1101.5918316367958
 21
4456.8313245488043
  0
LINE
  8
_0-0_
  6
CONTINUOUS
 62
    4
 10
1251.5918316367958
 20
4226.8353241488839
 11
1251.5918316367958
 21
4456.8313245488043
  0
LINE
  8
_0-0_
  6
CONTINUOUS
 62
    4
 10
1751.5918316367956
 20
4236.8353241488839
 11
1751.5918316367956
 21
4456.8313245488043
  0
LINE
  8
_0-0_
  6
CONTINUOUS
 62
    4
 10
1761.5918316367956
 20
4086.8313245488034
 11
1761.5918316367956
 21
4456.8313245488043
  0
LINE
  8
_0-0_
  6
CONTINUOUS
 62
    4
 10
1891.5918316367956
 20
4436.8313245488043
 11
1761.5918316367956
 21
4436.8313245488043
  0
LINE
  8
_0-0_
  6
CONTINUOUS
 62
    4
 10
1071.5918316367958
 20
4436.8313245488043
 11
961.59183163679585
 21
4436.8313245488043
  0
TEXT
  8
_0-0_
 62
    7
 10
3803.2620220223111
 20
4010.8011563539798
 40
80
 41
0.875
 50
0
  1
Ｂ
  0
LINE
  8
_0-0_
  6
CONTINUOUS
 62
    4
 10
3798.105460728279
 20
4101.8313245488034
 11
3883.105460728279
 21
4101.8313245488034
  0
LINE
  8
_0-0_
  6
CONTINUOUS
 62
    4
 10
3883.105460728279
 20
4011.0917077613466
 11
3875.340889375203
 21
4040.0694825500195
  0
LINE
  8
_0-0_
  6
CONTINUOUS
 62
    4
 10
3883.105460728279
 20
4011.0917077613466
 11
3890.8700320813545
 21
4040.0694825500195
  0
LINE
  8
_0-0_
  6
CONTINUOUS
 62
    4
 10
3883.105460728279
 20
4101.8313245488034
 11
3883.105460728279
 21
4011.0917077613466
  0
TEXT
  8
_0-0_
 62
    7
 10
3420
 20
4984.7512437810946
 40
80
 41
1
 50
0
  1
単位
  0
TEXT
  8
_0-0_
 62
    7
 10
3610
 20
4984.7512437810946
 40
80
 41
1
 50
0
  1
ｍ
  0
TEXT
  8
_0-0_
 62
    7
 10
3684.2839116962427
 20
4984.9438062968065
 40
80
 41
1
 50
0
  1
ｍ
  0
LINE
  8
_0-0_
  6
DASHED1
 62
    5
 10
2628.3665969316598
 20
4066.8313245488034
 11
2628.3665969316598
 21
4236.8313245488034
  0
LINE
  8
_0-0_
  6
DASHED1
 62
    5
 10
3570.2665969316599
 20
4066.8313245488034
 11
3570.2665969316599
 21
4236.8313245488034
  0
LINE
  8
_0-0_
  6
DASHED1
 62
    5
 10
2449.8165969316596
 20
4206.8313245488043
 11
3748.8165969316596
 21
4206.8313245488043
  0
LINE
  8
_0-0_
  6
DASHED3
 62
    1
 10
1101.2165540456919
 20
4093.8313245488043
 11
1733.2801168287894
 21
4093.8313245488043
  0
TEXT
  8
_0-0_
 62
    7
 10
1098.0216220148117
 20
4092.5249809435917
 40
18
 41
1
 50
0
  1
●
  0
TEXT
  8
_0-0_
 62
    7
 10
1253.0216220148117
 20
4092.5249809435917
 40
18
 41
1
 50
0
  1
●
  0
TEXT
  8
_0-0_
 62
    7
 10
1408.0216220148117
 20
4092.5249809435917
 40
18
 41
1
 50
0
  1
●
  0
TEXT
  8
_0-0_
 62
    7
 10
1563.0216220148117
 20
4092.5249809435917
 40
18
 41
1
 50
0
  1
●
  0
TEXT
  8
_0-0_
 62
    7
 10
1718.0216220148111
 20
4092.5249809435917
 40
18
 41
1
 50
0
  1
●
  0
TEXT
  8
_0-0_
 62
    7
 10
758.32089552238755
 20
4676.8313245488043
 40
80
 41
1
 50
0
  1
Ａ-Ａ断面
  0
TEXT
  8
_0-0_
 62
    7
 10
2469.7165969316592
 20
4676.8313245488043
 40
80
 41
1
 50
0
  1
側面図(車道側)
  0
LINE
  8
_0-0_
  6
CONTINUOUS
 62
    5
 10
3450.5267464273561
 20
3195.4832635983261
 11
2784.0285112405726
 21
3016.9332635983264
  0
TEXT
  8
_0-0_
 62
    7
 10
1342.3335758542793
 20
3282.0477694751225
 40
80
 41
1
 50
14.999999999999984
  1
ａ
  0
LINE
  8
_0-0_
  6
CONTINUOUS
 62
    5
 10
1676.1020399056742
 20
3195.4832635983261
 11
1009.6038047188903
 21
3016.9332635983264
  0
LINE
  8
_0-0_
  6
CONTINUOUS
 62
    5
 10
1009.6038047188903
 20
2075.0332635983263
 11
1676.1020399056742
 21
1896.4832635983266
  0
ARC
  8
_0-0_
  6
CONTINUOUS
 62
    5
 10
-748.40816836320414
 20
2545.9832635983266
 40
2510
 50
345.00320931171165
 51
14.996790688288355
  0
ARC
  8
_0-0_
  6
CONTINUOUS
 62
    5
 10
-748.40816836320414
 20
2545.9832635983266
 40
1820
 50
345.00328072677802
 51
14.996719273221945
  0
LINE
  8
_0-0_
  6
CONTINUOUS
 62
    4
 10
1593.2962428048422
 20
3504.5838944072847
 11
926.79800761805779
 21
3326.0338944072846
  0
LINE
  8
_0-0_
  6
CONTINUOUS
 62
    4
 10
921.62264529925607
 20
3345.3526838328443
 11
1004.4284424000881
 21
3036.2520530238862
  0
LINE
  8
_0-0_
  6
CONTINUOUS
 62
    4
 10
989.41604682861111
 20
3208.2248066193483
 11
1033.406626538428
 21
3044.0150965020893
  0
LINE
  8
_0-0_
  6
CONTINUOUS
 62
    4
 10
1134.30696752031
 20
3247.0400240103626
 11
1178.2975472301268
 21
3082.8303138931041
  0
LINE
  8
_0-0_
  6
CONTINUOUS
 62
    4
 10
1617.276703159307
 20
3376.4240819804131
 11
1661.2672828691238
 21
3212.2143718631537
  0
LINE
  8
_0-0_
  6
CONTINUOUS
 62
    4
 10
1632.1114601958572
 20
3359.6929737155851
 11
1658.0922223093903
 21
3374.6929737155851
  0
LINE
  8
_0-0_
  6
CONTINUOUS
 62
    4
 10
1632.1114601958572
 20
3359.6929737155851
 11
1662.1114601958572
 21
3359.6929737155851
  0
TEXT
  8
_0-0_
 62
    7
 10
1669.4396466115545
 20
3369.8455663564368
 40
80
 41
1
 50
14.999999999999984
  1
10
  0
LINE
  8
_0-0_
  6
CONTINUOUS
 62
    4
 10
965.61322500907294
 20
3181.1429737155858
 11
939.63246289553921
 21
3166.1429737155849
  0
LINE
  8
_0-0_
  6
CONTINUOUS
 62
    4
 10
965.61322500907294
 20
3181.1429737155858
 11
935.61322500907238
 21
3181.1429737155849
  0
TEXT
  8
_0-0_
 62
    7
 10
859.3613841172754
 20
3152.6728787543083
 40
80
 41
1
 50
15.000000000000033
  1
ｂ
  0
LINE
  8
_0-0_
  6
CONTINUOUS
 62
    4
 10
1622.4520654781088
 20
3357.1052925548528
 11
1139.4823298391115
 21
3227.7212345848033
  0
LINE
  8
_0-0_
  6
CONTINUOUS
 62
    4
 10
1139.4823298391115
 20
3227.7212345848033
 11
994.59140914741283
 21
3188.9060171937881
  0
LINE
  8
_0-0_
  6
CONTINUOUS
 62
    4
 10
994.59140914741283
 20
3188.9060171937881
 11
1020.5729621054774
 21
3203.9046473274793
  0
LINE
  8
_0-0_
  6
CONTINUOUS
 62
    4
 10
994.59140914741283
 20
3188.9060171937881
 11
1024.5914091057136
 21
3188.9044354324996
  0
LINE
  8
_0-0_
  6
CONTINUOUS
 62
    4
 10
1139.4823298391115
 20
3227.7212345848033
 11
1113.5007768810469
 21
3212.7226044511121
  0
LINE
  8
_0-0_
  6
CONTINUOUS
 62
    4
 10
1139.4823298391115
 20
3227.7212345848033
 11
1109.4823298808114
 21
3227.7228163460922
  0
LINE
  8
_0-0_
  6
CONTINUOUS
 62
    4
 10
1139.4823298391115
 20
3227.7212345848033
 11
1165.4638827971762
 21
3242.7198647184945
  0
LINE
  8
_0-0_
  6
CONTINUOUS
 62
    4
 10
1139.4823298391115
 20
3227.7212345848033
 11
1169.4823297974119
 21
3227.7196528235144
  0
LINE
  8
_0-0_
  6
CONTINUOUS
 62
    4
 10
1622.4520654781088
 20
3357.1052925548528
 11
1596.4705125200441
 21
3342.1066624211616
  0
LINE
  8
_0-0_
  6
CONTINUOUS
 62
    4
 10
1622.4520654781088
 20
3357.1052925548528
 11
1592.4520655198084
 21
3357.1068743161422
  0
TEXT
  8
_0-0_
 62
    7
 10
1028.4076823103316
 20
3197.9315798168036
 40
80
 41
1
 50
15.000000000000179
  1
ｃ
  0
LINE
  8
_0-0_
  6
CONTINUOUS
 62
    4
 10
1593.2962428048422
 20
3504.5838944072847
 11
1567.3146898467775
 21
3489.5852642735926
  0
LINE
  8
_0-0_
  6
CONTINUOUS
 62
    4
 10
1593.2962428048422
 20
3504.5838944072847
 11
1563.2962428465418
 21
3504.5854761685732
  0
LINE
  8
_0-0_
  6
CONTINUOUS
 62
    4
 10
926.79800761805779
 20
3326.0338944072846
 11
952.77956057612243
 21
3341.0325245409758
  0
LINE
  8
_0-0_
  6
CONTINUOUS
 62
    4
 10
926.79800761805779
 20
3326.0338944072846
 11
956.79800757635803
 21
3326.0323126459957
  0
TEXT
  8
_0-0_
 62
    7
 10
1221.2446718641081
 20
3405.0686347553078
 40
80
 41
1
 50
14.999999999999774
  1
ｄ
  0
LINE
  8
_0-0_
  6
CONTINUOUS
 62
    4
 10
1588.1208804860398
 20
3523.9026838328441
 11
1670.926677586872
 21
3214.8020530238864
  0
LINE
  8
_0-0_
  6
CONTINUOUS
 62
    4
 10
1249.0902671806134
 20
2645.9832635983266
 11
1220.112492391941
 21
2638.2186922452506
  0
LINE
  8
_0-0_
  6
CONTINUOUS
 62
    4
 10
1249.0902671806134
 20
2645.9832635983266
 11
1220.112492391941
 21
2653.7478349514021
  0
LINE
  8
_0-0_
  6
CONTINUOUS
 62
    4
 10
1027.5177554858407
 20
2147.8788639731574
 11
998.53998069716851
 21
2140.1142926200818
  0
LINE
  8
_0-0_
  6
CONTINUOUS
 62
    4
 10
1027.5177554858407
 20
2147.8788639731574
 11
998.53998069716851
 21
2155.6434353262329
  0
LINE
  8
_0-0_
  6
CONTINUOUS
 62
    4
 10
1027.5177554858407
 20
2147.8788639731574
 11
919.11455809718631
 21
2147.8788639731574
  0
TEXT
  8
_0-0_
 62
    7
 10
914.75993947836457
 20
2153.6257650199399
 40
80
 41
1
 50
90
  1
ｲﾝｻｰﾄ
  0
TEXT
  8
_0-0_
 62
    7
 10
914.78246696550456
 20
2380.935175815628
 40
80
 41
1
 50
90
  1
M12
  0
LINE
  8
_0-0_
  6
CONTINUOUS
 62
    4
 10
919.11455809718631
 20
2147.8788639731574
 11
919.11455809718631
 21
2505.796144843402
  0
LINE
  8
_0-0_
  6
CONTINUOUS
 62
    4
 10
884.14256512817644
 20
2645.9832635983266
 11
1249.0902671806134
 21
2645.9832635983266
  0
TEXT
  8
_0-0_
 62
    7
 10
893.66608897265564
 20
2650.803309754584
 40
80
 41
1
 50
0
  1
Ｒ
  0
TEXT
  8
_0-0_
 62
    7
 10
790.97593262340467
 20
2500.7625893241847
 40
80
 41
1
 50
90
  1
Ｌ
  0
TEXT
  8
_0-0_
 62
    7
 10
790.97593262340467
 20
2574.7625893241847
 40
40
 41
1.25
 50
90
  1
1
  0
ARC
  8
_0-0_
  6
CONTINUOUS
 62
    4
 10
-1023.4081683632041
 20
2545.9832635983266
 40
1820
 50
345.00328072677802
 51
14.996719273221945
  0
LINE
  8
_0-0_
  6
CONTINUOUS
 62
    4
 10
990.28499182787868
 20
3016.9332635983264
 11
713.89033721952955
 21
3016.9332635983264
  0
LINE
  8
_0-0_
  6
CONTINUOUS
 62
    4
 10
990.28499182787868
 20
2075.0332635983263
 11
713.89033721952955
 21
2075.0332635983263
  0
LINE
  8
_0-0_
  6
CONTINUOUS
 62
    4
 10
734.60380471889038
 20
3016.9332635983264
 11
749.60231704926513
 21
2990.9516426351224
  0
LINE
  8
_0-0_
  6
CONTINUOUS
 62
    4
 10
734.60380471889038
 20
3016.9332635983264
 11
734.60208693436754
 21
2986.933263647506
  0
LINE
  8
_0-0_
  6
CONTINUOUS
 62
    4
 10
734.60380471889038
 20
2075.0332635983263
 11
734.60208693436754
 21
2105.0332635491467
  0
LINE
  8
_0-0_
  6
CONTINUOUS
 62
    4
 10
734.60380471889038
 20
2075.0332635983263
 11
749.60231704926513
 21
2101.0148845615303
  0
TEXT
  8
_0-0_
 62
    7
 10
2100.8728996187523
 20
2500.7625893241847
 40
80
 41
1
 50
90
  1
Ｌ
  0
TEXT
  8
_0-0_
 62
    7
 10
2100.8728996187523
 20
2574.7625893241847
 40
40
 41
1.25
 50
90
  1
2
  0
ARC
  8
_0-0_
  6
CONTINUOUS
 62
    4
 10
-403.51120136785652
 20
2545.9832635983266
 40
2510
 50
344.88087209389271
 51
15.119127906107294
  0
LINE
  8
_0-0_
  6
CONTINUOUS
 62
    4
 10
2019.6066771380305
 20
1891.3079647935455
 11
2019.6690523188669
 21
1921.307899949089
  0
LINE
  8
_0-0_
  6
CONTINUOUS
 62
    4
 10
2019.6066771380305
 20
1891.3079647935455
 11
2034.6606632069722
 21
1917.2574831597137
  0
LINE
  8
_0-0_
  6
CONTINUOUS
 62
    4
 10
2019.6066771380305
 20
3200.6585624031072
 11
2034.6606632069722
 21
3174.7090440369393
  0
LINE
  8
_0-0_
  6
CONTINUOUS
 62
    4
 10
2019.6066771380305
 20
3200.6585624031072
 11
2019.6690523188669
 21
3170.6586272475633
  0
LINE
  8
_0-0_
  6
CONTINUOUS
 62
    4
 10
1695.4208463460636
 20
3200.6585624031072
 11
2040.3178133414112
 21
3200.6585624031072
  0
LINE
  8
_0-0_
  6
CONTINUOUS
 62
    4
 10
1695.4208463460636
 20
1891.3079647935455
 11
2040.3178133414112
 21
1891.3079647935455
  0
TEXT
  8
_0-0_
 62
    7
 10
670.97593262340467
 20
2500.7625893241847
 40
80
 41
1
 50
90
  1
Ｌ
  0
ARC
  8
_0-0_
  6
CONTINUOUS
 62
    4
 10
-1323.4081683632041
 20
2545.9832635983266
 40
2000
 50
345.00325734610629
 51
14.996742653893683
  0
LINE
  8
_0-0_
  6
CONTINUOUS
 62
    4
 10
1162.7601913584692
 20
3063.51152446798
 11
587.76019135846922
 21
3063.51152446798
  0
LINE
  8
_0-0_
  6
CONTINUOUS
 62
    4
 10
1162.7601913584692
 20
2028.4550027286727
 11
587.76019135846922
 21
2028.4550027286727
  0
LINE
  8
_0-0_
  6
CONTINUOUS
 62
    4
 10
608.47290955055598
 20
3063.51152446798
 11
623.47143248324186
 21
3037.5299096252165
  0
LINE
  8
_0-0_
  6
CONTINUOUS
 62
    4
 10
608.47290955055598
 20
3063.51152446798
 11
608.471204008124
 21
3033.5115245164611
  0
LINE
  8
_0-0_
  6
CONTINUOUS
 62
    4
 10
608.47290955055598
 20
2028.4550027286727
 11
608.471204008124
 21
2058.4550026801916
  0
LINE
  8
_0-0_
  6
CONTINUOUS
 62
    4
 10
608.47290955055598
 20
2028.4550027286727
 11
623.47143248324186
 21
2054.4366175714358
  0
TEXT
  8
_0-0_
 62
    7
 10
463.15508966804031
 20
2547.665008291874
 40
80
 41
0.875
 50
0
  1
Ａ
  0
LINE
  8
_0-0_
  6
CONTINUOUS
 62
    4
 10
452.30454982888261
 20
2636.7228803857833
 11
460.06912118195828
 21
2607.7451055971114
  0
LINE
  8
_0-0_
  6
CONTINUOUS
 62
    4
 10
452.30454982888261
 20
2636.7228803857833
 11
444.53997847580694
 21
2607.7451055971114
  0
LINE
  8
_0-0_
  6
CONTINUOUS
 62
    4
 10
452.30454982888261
 20
2545.9832635983266
 11
452.30454982888261
 21
2636.7228803857833
  0
LINE
  8
_0-0_
  6
CONTINUOUS
 62
    4
 10
537.30454982888261
 20
2545.9832635983266
 11
452.30454982888261
 21
2545.9832635983266
  0
LINE
  8
_0-0_
  6
CONTINUOUS
 62
    4
 10
2019.6066771380305
 20
3200.6585624031072
 11
2034.6606632069722
 21
3174.7090440369393
  0
LINE
  8
_0-0_
  6
CONTINUOUS
 62
    4
 10
2019.6066771380305
 20
3200.6585624031072
 11
2019.6690523188669
 21
3170.6586272475633
  0
TEXT
  8
_0-0_
 62
    7
 10
3116.7582823759621
 20
3282.0477694751225
 40
80
 41
1
 50
14.999999999999984
  1
ａ
  0
LINE
  8
_0-0_
  6
CONTINUOUS
 62
    5
 10
2784.0285112405726
 20
2075.0332635983263
 11
3450.5267464273561
 21
1896.4832635983266
  0
ARC
  8
_0-0_
  6
CONTINUOUS
 62
    5
 10
1026.0165381584772
 20
2545.9832635983266
 40
2510
 50
345.00320931171165
 51
14.996790688288355
  0
ARC
  8
_0-0_
  6
CONTINUOUS
 62
    5
 10
1026.0165381584772
 20
2545.9832635983266
 40
1820
 50
345.00328072677802
 51
14.996719273221945
  0
LINE
  8
_0-0_
  6
CONTINUOUS
 62
    4
 10
3367.720949326524
 20
3504.5838944072847
 11
2701.2227141397397
 21
3326.0338944072846
  0
LINE
  8
_0-0_
  6
CONTINUOUS
 62
    4
 10
2696.0473518209382
 20
3345.3526838328443
 11
2778.8531489217702
 21
3036.2520530238862
  0
LINE
  8
_0-0_
  6
CONTINUOUS
 62
    4
 10
2763.8407533502936
 20
3208.2248066193483
 11
2807.8313330601099
 21
3044.0150965020893
  0
LINE
  8
_0-0_
  6
CONTINUOUS
 62
    4
 10
2908.7316740419919
 20
3247.0400240103626
 11
2952.7222537518091
 21
3082.8303138931041
  0
LINE
  8
_0-0_
  6
CONTINUOUS
 62
    4
 10
3391.7014096809898
 20
3376.4240819804131
 11
3435.6919893908061
 21
3212.2143718631537
  0
LINE
  8
_0-0_
  6
CONTINUOUS
 62
    4
 10
3406.5361667175397
 20
3359.6929737155851
 11
3432.5169288310726
 21
3374.6929737155851
  0
LINE
  8
_0-0_
  6
CONTINUOUS
 62
    4
 10
3406.5361667175397
 20
3359.6929737155851
 11
3436.5361667175397
 21
3359.6929737155851
  0
TEXT
  8
_0-0_
 62
    7
 10
3443.8643531332363
 20
3369.8455663564368
 40
80
 41
1
 50
14.999999999999984
  1
10
  0
LINE
  8
_0-0_
  6
CONTINUOUS
 62
    4
 10
2740.0379315307554
 20
3181.1429737155858
 11
2714.0571694172217
 21
3166.1429737155849
  0
LINE
  8
_0-0_
  6
CONTINUOUS
 62
    4
 10
2740.0379315307554
 20
3181.1429737155858
 11
2710.0379315307545
 21
3181.1429737155849
  0
TEXT
  8
_0-0_
 62
    7
 10
2633.7860906389573
 20
3152.6728787543083
 40
80
 41
1
 50
15.000000000000033
  1
ｂ
  0
LINE
  8
_0-0_
  6
CONTINUOUS
 62
    4
 10
3396.8767719997913
 20
3357.1052925548528
 11
2913.9070363607934
 21
3227.7212345848033
  0
LINE
  8
_0-0_
  6
CONTINUOUS
 62
    4
 10
2913.9070363607934
 20
3227.7212345848033
 11
2769.0161156690955
 21
3188.9060171937881
  0
LINE
  8
_0-0_
  6
CONTINUOUS
 62
    4
 10
2769.0161156690955
 20
3188.9060171937881
 11
2794.9976686271602
 21
3203.9046473274793
  0
LINE
  8
_0-0_
  6
CONTINUOUS
 62
    4
 10
2769.0161156690955
 20
3188.9060171937881
 11
2799.0161156273961
 21
3188.9044354324996
  0
LINE
  8
_0-0_
  6
CONTINUOUS
 62
    4
 10
2913.9070363607934
 20
3227.7212345848033
 11
2887.9254834027287
 21
3212.7226044511121
  0
LINE
  8
_0-0_
  6
CONTINUOUS
 62
    4
 10
2913.9070363607934
 20
3227.7212345848033
 11
2883.9070364024937
 21
3227.7228163460922
  0
LINE
  8
_0-0_
  6
CONTINUOUS
 62
    4
 10
2913.9070363607934
 20
3227.7212345848033
 11
2939.888589318858
 21
3242.7198647184945
  0
LINE
  8
_0-0_
  6
CONTINUOUS
 62
    4
 10
2913.9070363607934
 20
3227.7212345848033
 11
2943.9070363190944
 21
3227.7196528235144
  0
LINE
  8
_0-0_
  6
CONTINUOUS
 62
    4
 10
3396.8767719997913
 20
3357.1052925548528
 11
3370.8952190417267
 21
3342.1066624211616
  0
LINE
  8
_0-0_
  6
CONTINUOUS
 62
    4
 10
3396.8767719997913
 20
3357.1052925548528
 11
3366.8767720414907
 21
3357.1068743161422
  0
TEXT
  8
_0-0_
 62
    7
 10
2802.8323888320142
 20
3197.9315798168036
 40
80
 41
1
 50
15.000000000000179
  1
ｃ
  0
LINE
  8
_0-0_
  6
CONTINUOUS
 62
    4
 10
3367.720949326524
 20
3504.5838944072847
 11
3341.7393963684594
 21
3489.5852642735926
  0
LINE
  8
_0-0_
  6
CONTINUOUS
 62
    4
 10
3367.720949326524
 20
3504.5838944072847
 11
3337.7209493682244
 21
3504.5854761685732
  0
LINE
  8
_0-0_
  6
CONTINUOUS
 62
    4
 10
2701.2227141397397
 20
3326.0338944072846
 11
2727.2042670978044
 21
3341.0325245409758
  0
LINE
  8
_0-0_
  6
CONTINUOUS
 62
    4
 10
2701.2227141397397
 20
3326.0338944072846
 11
2731.2227140980403
 21
3326.0323126459957
  0
TEXT
  8
_0-0_
 62
    7
 10
2995.6693783857908
 20
3405.0686347553078
 40
80
 41
1
 50
14.999999999999774
  1
ｄ
  0
LINE
  8
_0-0_
  6
CONTINUOUS
 62
    4
 10
3362.5455870077221
 20
3523.9026838328441
 11
3445.3513841085541
 21
3214.8020530238864
  0
TEXT
  8
_0-0_
 62
    7
 10
2685.4006391450866
 20
2500.7625893241847
 40
80
 41
1
 50
90
  1
Ｌ
  0
TEXT
  8
_0-0_
 62
    7
 10
2685.4006391450866
 20
2574.7625893241847
 40
40
 41
1.25
 50
90
  1
1
  0
ARC
  8
_0-0_
  6
CONTINUOUS
 62
    4
 10
871.01653815847726
 20
2545.9832635983266
 40
1820
 50
345.00328072677802
 51
14.996719273221945
  0
LINE
  8
_0-0_
  6
CONTINUOUS
 62
    4
 10
2629.0285112405726
 20
3016.9332635983264
 11
2644.0270235709476
 21
2990.9516426351224
  0
LINE
  8
_0-0_
  6
CONTINUOUS
 62
    4
 10
2629.0285112405726
 20
3016.9332635983264
 11
2629.0267934560497
 21
2986.933263647506
  0
LINE
  8
_0-0_
  6
CONTINUOUS
 62
    4
 10
2629.0285112405726
 20
2075.0332635983263
 11
2629.0267934560497
 21
2105.0332635491467
  0
LINE
  8
_0-0_
  6
CONTINUOUS
 62
    4
 10
2629.0285112405726
 20
2075.0332635983263
 11
2644.0270235709476
 21
2101.0148845615303
  0
TEXT
  8
_0-0_
 62
    7
 10
2565.4006391450866
 20
2500.7625893241847
 40
80
 41
1
 50
90
  1
Ｌ
  0
ARC
  8
_0-0_
  6
CONTINUOUS
 62
    4
 10
571.01653815847726
 20
2545.9832635983266
 40
2000
 50
345.00325734610629
 51
14.996742653893683
  0
LINE
  8
_0-0_
  6
CONTINUOUS
 62
    4
 10
2502.8976160722381
 20
3063.51152446798
 11
2517.8961390049239
 21
3037.5299096252165
  0
LINE
  8
_0-0_
  6
CONTINUOUS
 62
    4
 10
2502.8976160722381
 20
3063.51152446798
 11
2502.8959105298063
 21
3033.5115245164611
  0
LINE
  8
_0-0_
  6
CONTINUOUS
 62
    4
 10
2502.8976160722381
 20
2028.4550027286727
 11
2502.8959105298063
 21
2058.4550026801916
  0
LINE
  8
_0-0_
  6
CONTINUOUS
 62
    4
 10
2502.8976160722381
 20
2028.4550027286727
 11
2517.8961390049239
 21
2054.4366175714358
  0
LINE
  8
_0-0_
  6
CONTINUOUS
 62
    4
 10
2764.7096983495612
 20
3016.9332635983264
 11
2608.3150437412123
 21
3016.9332635983264
  0
LINE
  8
_0-0_
  6
CONTINUOUS
 62
    4
 10
2764.7096983495612
 20
2075.0332635983263
 11
2608.3150437412123
 21
2075.0332635983263
  0
LINE
  8
_0-0_
  6
CONTINUOUS
 62
    4
 10
2937.1848978801517
 20
3063.51152446798
 11
2482.1848978801517
 21
3063.51152446798
  0
LINE
  8
_0-0_
  6
CONTINUOUS
 62
    4
 10
2937.1848978801517
 20
2028.4550027286727
 11
2482.1848978801517
 21
2028.4550027286727
  0
ARC
  8
_0-0_
  6
CONTINUOUS
 62
    5
 10
-748.40816836320414
 20
2545.9832635983266
 40
2500
 50
345.00321006519232
 51
14.996789934807654
  0
LINE
  8
_0-0_
  6
CONTINUOUS
 62
    5
 10
1010.8976452985911
 20
2079.862960954716
 11
1677.3958804853748
 21
1901.3129609547161
  0
LINE
  8
_0-0_
  6
CONTINUOUS
 62
    4
 10
1264.7606930715505
 20
2006.6786003596459
 11
1264.7606930715505
 21
1728.6339906561679
  0
TEXT
  8
_0-0_
 62
    7
 10
1296.4921753308412
 20
1732.7587733620841
 40
80
 41
0.875
 50
0
  1
シール溝
  0
LINE
  8
_0-0_
  6
CONTINUOUS
 62
    4
 10
1264.7606930715505
 20
2006.6786003596459
 11
1272.5252644246261
 21
1977.7008255709738
  0
LINE
  8
_0-0_
  6
CONTINUOUS
 62
    4
 10
1264.7606930715505
 20
2006.6786003596459
 11
1256.996121718475
 21
1977.7008255709738
  0
LINE
  8
_0-0_
  6
CONTINUOUS
 62
    4
 10
2881.0165381584774
 20
2323.5735432572064
 11
3017.1465482885532
 21
2323.5735432572064
  0
LINE
  8
_0-0_
  6
CONTINUOUS
 62
    4
 10
3153.276558418629
 20
2323.5735432572064
 11
3289.4065685487057
 21
2323.5735432572064
  0
LINE
  8
_0-0_
  6
CONTINUOUS
 62
    4
 10
3017.1465482885532
 20
2323.5735432572064
 11
3153.276558418629
 21
2323.5735432572064
  0
LINE
  8
_0-0_
  6
CONTINUOUS
 62
    4
 10
3289.4065685487057
 20
2323.5735432572064
 11
3425.5365786787815
 21
2323.5735432572064
  0
LINE
  8
_0-0_
  6
CONTINUOUS
 62
    4
 10
2881.0165381584774
 20
2323.5735432572064
 11
2909.9943129471489
 21
2331.3381146102819
  0
LINE
  8
_0-0_
  6
CONTINUOUS
 62
    4
 10
2881.0165381584774
 20
2323.5735432572064
 11
2909.9943129471489
 21
2315.8089719041304
  0
LINE
  8
_0-0_
  6
CONTINUOUS
 62
    4
 10
3017.1465482885532
 20
2323.5735432572064
 11
3046.1243230772251
 21
2331.3381146102819
  0
LINE
  8
_0-0_
  6
CONTINUOUS
 62
    4
 10
3017.1465482885532
 20
2323.5735432572064
 11
3046.1243230772251
 21
2315.8089719041304
  0
LINE
  8
_0-0_
  6
CONTINUOUS
 62
    4
 10
3153.276558418629
 20
2323.5735432572064
 11
3182.2543332073014
 21
2331.3381146102819
  0
LINE
  8
_0-0_
  6
CONTINUOUS
 62
    4
 10
3153.276558418629
 20
2323.5735432572064
 11
3182.2543332073014
 21
2315.8089719041304
  0
LINE
  8
_0-0_
  6
CONTINUOUS
 62
    4
 10
3289.4065685487057
 20
2323.5735432572064
 11
3318.3843433373772
 21
2331.3381146102819
  0
LINE
  8
_0-0_
  6
CONTINUOUS
 62
    4
 10
3289.4065685487057
 20
2323.5735432572064
 11
3318.3843433373772
 21
2315.8089719041304
  0
LINE
  8
_0-0_
  6
CONTINUOUS
 62
    4
 10
3425.5365786787815
 20
2323.5735432572064
 11
3454.5143534674534
 21
2331.3381146102819
  0
LINE
  8
_0-0_
  6
CONTINUOUS
 62
    4
 10
3425.5365786787815
 20
2323.5735432572064
 11
3454.5143534674534
 21
2315.8089719041304
  0
LINE
  8
_0-0_
  6
CONTINUOUS
 62
    4
 10
3425.5365786787815
 20
2323.5735432572064
 11
3697.4132302695725
 21
2323.5735432572064
  0
LINE
  8
_0-0_
  6
CONTINUOUS
 62
    4
 10
3697.4132302695725
 20
2323.5735432572064
 11
3697.4132302695725
 21
2602.2222007872733
  0
LINE
  8
_0-0_
  6
CONTINUOUS
 62
    4
 10
3221.3415634836674
 20
3097.8520757279793
 11
3221.3415634836674
 21
2990.802704280567
  0
LINE
  8
_0-0_
  6
CONTINUOUS
 62
    4
 10
3221.3415634836674
 20
2842.5295573864868
 11
3221.3415634836674
 21
2694.2564104924067
  0
LINE
  8
_0-0_
  6
CONTINUOUS
 62
    4
 10
3221.3415634836674
 20
2545.9832635983266
 11
3221.3415634836674
 21
2397.7101167042465
  0
LINE
  8
_0-0_
  6
CONTINUOUS
 62
    4
 10
3221.3415634836674
 20
2249.4369698101663
 11
3221.3415634836674
 21
2101.1638229160862
  0
LINE
  8
_0-0_
  6
CONTINUOUS
 62
    4
 10
3221.3415634836674
 20
2990.802704280567
 11
3221.3415634836674
 21
2842.5295573864868
  0
LINE
  8
_0-0_
  6
CONTINUOUS
 62
    4
 10
3221.3415634836674
 20
2694.2564104924067
 11
3221.3415634836674
 21
2545.9832635983266
  0
LINE
  8
_0-0_
  6
CONTINUOUS
 62
    4
 10
3221.3415634836674
 20
2397.7101167042465
 11
3221.3415634836674
 21
2249.4369698101663
  0
LINE
  8
_0-0_
  6
CONTINUOUS
 62
    4
 10
3221.3415634836674
 20
2101.1638229160862
 11
3221.3415634836674
 21
1994.1144514686734
  0
LINE
  8
_0-0_
  6
CONTINUOUS
 62
    4
 10
3221.3415634836674
 20
3097.8520757279793
 11
3229.1061348367429
 21
3068.8743009393074
  0
LINE
  8
_0-0_
  6
CONTINUOUS
 62
    4
 10
3221.3415634836674
 20
3097.8520757279793
 11
3213.5769921305918
 21
3068.8743009393074
  0
LINE
  8
_0-0_
  6
CONTINUOUS
 62
    4
 10
3221.3415634836674
 20
2990.802704280567
 11
3229.1061348367429
 21
2961.824929491895
  0
LINE
  8
_0-0_
  6
CONTINUOUS
 62
    4
 10
3221.3415634836674
 20
2990.802704280567
 11
3213.5769921305918
 21
2961.824929491895
  0
LINE
  8
_0-0_
  6
CONTINUOUS
 62
    4
 10
3221.3415634836674
 20
2842.5295573864868
 11
3229.1061348367429
 21
2813.5517825978149
  0
LINE
  8
_0-0_
  6
CONTINUOUS
 62
    4
 10
3221.3415634836674
 20
2842.5295573864868
 11
3213.5769921305918
 21
2813.5517825978149
  0
LINE
  8
_0-0_
  6
CONTINUOUS
 62
    4
 10
3221.3415634836674
 20
2694.2564104924067
 11
3229.1061348367429
 21
2665.2786357037348
  0
LINE
  8
_0-0_
  6
CONTINUOUS
 62
    4
 10
3221.3415634836674
 20
2694.2564104924067
 11
3213.5769921305918
 21
2665.2786357037348
  0
LINE
  8
_0-0_
  6
CONTINUOUS
 62
    4
 10
3221.3415634836674
 20
2545.9832635983266
 11
3229.1061348367429
 21
2517.0054888096542
  0
LINE
  8
_0-0_
  6
CONTINUOUS
 62
    4
 10
3221.3415634836674
 20
2545.9832635983266
 11
3213.5769921305918
 21
2517.0054888096542
  0
LINE
  8
_0-0_
  6
CONTINUOUS
 62
    4
 10
3221.3415634836674
 20
2397.7101167042465
 11
3229.1061348367429
 21
2368.7323419155741
  0
LINE
  8
_0-0_
  6
CONTINUOUS
 62
    4
 10
3221.3415634836674
 20
2397.7101167042465
 11
3213.5769921305918
 21
2368.7323419155741
  0
LINE
  8
_0-0_
  6
CONTINUOUS
 62
    4
 10
3221.3415634836674
 20
2249.4369698101663
 11
3229.1061348367429
 21
2220.4591950214939
  0
LINE
  8
_0-0_
  6
CONTINUOUS
 62
    4
 10
3221.3415634836674
 20
2249.4369698101663
 11
3213.5769921305918
 21
2220.4591950214939
  0
LINE
  8
_0-0_
  6
CONTINUOUS
 62
    4
 10
3221.3415634836674
 20
2101.1638229160862
 11
3229.1061348367429
 21
2072.1860481274138
  0
LINE
  8
_0-0_
  6
CONTINUOUS
 62
    4
 10
3221.3415634836674
 20
2101.1638229160862
 11
3213.5769921305918
 21
2072.1860481274138
  0
LINE
  8
_0-0_
  6
CONTINUOUS
 62
    4
 10
3221.3415634836674
 20
1994.1144514686734
 11
3229.1061348367429
 21
1965.1366766800015
  0
LINE
  8
_0-0_
  6
CONTINUOUS
 62
    4
 10
3221.3415634836674
 20
1994.1144514686734
 11
3213.5769921305918
 21
1965.1366766800015
  0
LINE
  8
_0-0_
  6
CONTINUOUS
 62
    4
 10
3221.3415634836674
 20
1994.1144514686734
 11
3221.3415634836674
 21
1728.6339906561679
  0
LINE
  8
_0-0_
  6
CONTINUOUS
 62
    4
 10
3221.3415634836674
 20
1728.6339906561679
 11
3499.9902210137342
 21
1728.6339906561679
  0
LINE
  8
_0-0_
  6
DASHED3
 62
    1
 10
3435.5365786787815
 20
3155.2333528927561
 11
2816.9130310242553
 21
2989.5086313520296
  0
LINE
  8
_0-0_
  6
DASHED3
 62
    1
 10
2881.0165381584774
 20
2074.932419811329
 11
2881.0165381584774
 21
3017.0341073853242
  0
LINE
  8
_0-0_
  6
DASHED3
 62
    1
 10
3483.1867185978589
 20
2842.5295573864868
 11
2847.0287005672034
 21
2842.5295573864868
  0
LINE
  8
_0-0_
  6
DASHED3
 62
    1
 10
3496.5711467251708
 20
2694.2564104924067
 11
2865.048912509219
 21
2694.2564104924067
  0
LINE
  8
_0-0_
  6
DASHED3
 62
    1
 10
3501.0165381584774
 20
2545.9832635983266
 11
2871.0165381584774
 21
2545.9832635983266
  0
LINE
  8
_0-0_
  6
DASHED3
 62
    1
 10
3496.5711467251708
 20
2397.7101167042465
 11
2865.048912509219
 21
2397.7101167042465
  0
LINE
  8
_0-0_
  6
DASHED3
 62
    1
 10
3483.1867185978589
 20
2249.4369698101663
 11
2847.0287005672034
 21
2249.4369698101663
  0
LINE
  8
_0-0_
  6
DASHED3
 62
    1
 10
2816.9130310242553
 20
2102.4578958446231
 11
3435.5365786787806
 21
1936.7331743038967
  0
LINE
  8
_0-0_
  6
DASHED3
 62
    1
 10
3017.1465482885532
 20
2038.4641862504201
 11
3017.1465482885532
 21
3053.5023409462328
  0
LINE
  8
_0-0_
  6
DASHED3
 62
    1
 10
3153.276558418629
 20
2001.9959526895115
 11
3153.276558418629
 21
3089.9705745071414
  0
LINE
  8
_0-0_
  6
DASHED3
 62
    1
 10
3017.1465482885532
 20
2101.1638229160862
 11
3460.7158348255502
 21
2101.1638229160862
  0
LINE
  8
_0-0_
  6
DASHED3
 62
    1
 10
3289.4065685487057
 20
1965.5277191286029
 11
3289.4065685487057
 21
3126.5893999442878
  0
LINE
  8
_0-0_
  6
DASHED3
 62
    1
 10
3425.5365786787815
 20
3162.9070416289587
 11
3425.5365786787815
 21
1929.0594855676943
  0
LINE
  8
_0-0_
  6
CONTINUOUS
 62
    4
 10
1757.6818177879767
 20
3393.3394496256814
 11
1632.1114601958572
 21
3359.6929737155851
  0
LINE
  8
_0-0_
  6
CONTINUOUS
 62
    4
 10
965.61322500907294
 20
3181.1429737155858
 11
859.36138396958767
 21
3152.6728787147349
  0
LINE
  8
_0-0_
  6
CONTINUOUS
 62
    4
 10
2740.0379315307554
 20
3181.1429737155858
 11
2633.786090491269
 21
3152.6728787147349
  0
LINE
  8
_0-0_
  6
CONTINUOUS
 62
    4
 10
3532.1065243096586
 20
3393.3394496256814
 11
3406.5361667175397
 21
3359.6929737155851
  0
LINE
  8
_0-0_
  6
CONTINUOUS
 62
    4
 10
2265.0665262253819
 20
2636.7228803857833
 11
2272.8310975784575
 21
2607.7451055971114
  0
LINE
  8
_0-0_
  6
CONTINUOUS
 62
    4
 10
2265.0665262253819
 20
2636.7228803857833
 11
2257.3019548723059
 21
2607.7451055971114
  0
LINE
  8
_0-0_
  6
CONTINUOUS
 62
    4
 10
2265.0665262253819
 20
2545.9832635983266
 11
2265.0665262253819
 21
2636.7228803857833
  0
TEXT
  8
_0-0_
 62
    7
 10
2185.3263398133012
 20
2547.5790058079269
 40
80
 41
0.875
 50
0
  1
Ａ
  0
LINE
  8
_0-0_
  6
CONTINUOUS
 62
    4
 10
2265.0665262253819
 20
2545.9832635983266
 11
2180.0665262253819
 21
2545.9832635983266
  0
LINE
  8
_0-0_
  6
CONTINUOUS
 62
    4
 10
1264.7606930715505
 20
1728.6339906561679
 11
1587.8557213930348
 21
1728.6339906561679
  0
TEXT
  8
_0-0_
 62
    7
 10
3270.0023337470429
 20
1731.9731300851817
 40
80
 41
1
 50
0
  1
D10-9
  0
TEXT
  8
_0-0_
 62
    7
 10
3697.7595355495068
 20
2367.5444191701012
 40
80
 41
1
 50
90
  1
D10-5
  0
TEXT
  8
_0-0_
 62
    7
 10
3835.2976061404342
 20
2500.7625893241847
 40
80
 41
1
 50
90
  1
Ｌ
  0
TEXT
  8
_0-0_
 62
    7
 10
3835.2976061404342
 20
2574.7625893241847
 40
40
 41
1.25
 50
90
  1
2
  0
ARC
  8
_0-0_
  6
CONTINUOUS
 62
    4
 10
1330.9135051538248
 20
2545.9832635983266
 40
2510
 50
344.88087209389271
 51
15.119127906107294
  0
LINE
  8
_0-0_
  6
CONTINUOUS
 62
    4
 10
3754.0313836597124
 20
1891.3079647935455
 11
3754.0937588405495
 21
1921.307899949089
  0
LINE
  8
_0-0_
  6
CONTINUOUS
 62
    4
 10
3754.0313836597124
 20
1891.3079647935455
 11
3769.0853697286547
 21
1917.2574831597137
  0
LINE
  8
_0-0_
  6
CONTINUOUS
 62
    4
 10
3754.0313836597124
 20
3200.6585624031072
 11
3769.0853697286547
 21
3174.7090440369393
  0
LINE
  8
_0-0_
  6
CONTINUOUS
 62
    4
 10
3754.0313836597124
 20
3200.6585624031072
 11
3754.0937588405495
 21
3170.6586272475633
  0
LINE
  8
_0-0_
  6
CONTINUOUS
 62
    4
 10
3754.0313836597124
 20
3200.6585624031072
 11
3769.0853697286547
 21
3174.7090440369393
  0
LINE
  8
_0-0_
  6
CONTINUOUS
 62
    4
 10
3754.0313836597124
 20
3200.6585624031072
 11
3754.0937588405495
 21
3170.6586272475633
  0
LINE
  8
_0-0_
  6
CONTINUOUS
 62
    4
 10
3754.0313836597119
 20
3200.6585624031072
 11
3769.0853697286538
 21
3174.7090440369393
  0
LINE
  8
_0-0_
  6
CONTINUOUS
 62
    4
 10
3754.0313836597119
 20
3200.6585624031072
 11
3754.0937588405486
 21
3170.6586272475633
  0
LINE
  8
_0-0_
  6
CONTINUOUS
 62
    4
 10
3469.8455528677459
 20
3200.6585624031072
 11
3774.7425198630926
 21
3200.6585624031072
  0
LINE
  8
_0-0_
  6
CONTINUOUS
 62
    4
 10
3469.8455528677459
 20
1891.3079647935455
 11
3774.7425198630926
 21
1891.3079647935455
  0
LINE
  8
_0-0_
  6
DASHED3
 62
    1
 10
3017.1465482885532
 20
2990.802704280567
 11
3460.7158348255502
 21
2990.802704280567
  0
ARC
  8
_0-0_
  6
CONTINUOUS
 62
    5
 10
-748.40816836320414
 20
2545.9832635983266
 40
1850
 50
345.00327651404438
 51
14.996723485955588
  0
ARC
  8
_0-0_
  6
CONTINUOUS
 62
    5
 10
-748.40816836320414
 20
2545.9832635983266
 40
2000
 50
345.00325734610629
 51
14.996742653893683
  0
TEXT
  8
_0-0_
 62
    7
 10
2454.7165969316592
 20
3581.1429737155858
 40
80
 41
1
 50
0
  1
Ｂ-Ｂ断面
  0
TEXT
  8
_0-0_
 62
    7
 10
745.82089552238755
 20
3581.1429737155858
 40
80
 41
1
 50
0
  1
平面図
  0
ARC
  8
_0-0_
  6
DASHED1
 62
    5
 10
1026.0165381584772
 20
2545.9832635983266
 40
2500
 50
345.00321006519232
 51
14.996789934807653
  0
ARC
  8
_0-0_
  6
DASHED1
 62
    5
 10
1026.0165381584772
 20
2545.9832635983266
 40
1850
 50
345.00327651404438
 51
14.996723485955588
  0
ARC
  8
_0-0_
  6
DASHED1
 62
    5
 10
1026.0165381584772
 20
2545.9832635983266
 40
2000
 50
345.00325734610629
 51
14.996742653893683
  0
LINE
  8
_0-0_
  6
CONTINUOUS
 62
    7
 10
2402.2165969316592
 20
3576.1429737155858
 11
2902.2165969316592
 21
3576.1429737155858
  0
LINE
  8
_0-0_
  6
CONTINUOUS
 62
    7
 10
2402.2165969316592
 20
4671.8313245488043
 11
3151.973611111111
 21
4671.8313245488043
  0
LINE
  8
_0-0_
  6
CONTINUOUS
 62
    7
 10
705.82089552238755
 20
4671.8313245488043
 11
1205.8208955223876
 21
4671.8313245488043
  0
LINE
  8
_0-0_
  6
CONTINUOUS
 62
    7
 10
705.82089552238755
 20
3576.1429737155858
 11
1105.8208955223876
 21
3576.1429737155858
  0
TEXT
  8
_0-0_
 62
    7
 10
3583
 20
940
 40
80
 41
1
 50
0
  1
242
  0
TEXT
  8
_0-0_
 62
    7
 10
3583
 20
780
 40
80
 41
1
 50
0
  1
235
  0
TEXT
  8
_0-0_
 62
    7
 10
3583
 20
620
 40
80
 41
1
 50
0
  1
232
  0
TEXT
  8
_0-0_
 62
    7
 10
3583
 20
460
 40
80
 41
1
 50
0
  1
231
  0
TEXT
  8
_0-0_
 62
    7
 10
655.50000000000068
 20
940
 40
80
 41
1.125
 50
0
  1
2
  0
TEXT
  8
_0-0_
 62
    7
 10
655.50000000000068
 20
780
 40
80
 41
1.125
 50
0
  1
3
  0
TEXT
  8
_0-0_
 62
    7
 10
655.50000000000068
 20
620
 40
80
 41
1.125
 50
0
  1
4
  0
TEXT
  8
_0-0_
 62
    7
 10
655.50000000000068
 20
460
 40
80
 41
1.125
 50
0
  1
5
  0
TEXT
  8
_0-0_
 62
    7
 10
3287.0000000000004
 20
940
 40
80
 41
1
 50
0
  1
1314
  0
TEXT
  8
_0-0_
 62
    7
 10
3287.0000000000004
 20
780
 40
80
 41
1
 50
0
  1
1103
  0
TEXT
  8
_0-0_
 62
    7
 10
3287.0000000000004
 20
620
 40
80
 41
1
 50
0
  1
1181
  0
TEXT
  8
_0-0_
 62
    7
 10
3287.0000000000004
 20
460
 40
80
 41
1
 50
0
  1
1082
  0
LINE
  8
_0-0_
  6
CONTINUOUS
 62
    2
 10
560
 20
420
 11
3820
 21
420
  0
LINE
  8
_0-0_
  6
CONTINUOUS
 62
    3
 10
560
 20
580
 11
3820
 21
580
  0
LINE
  8
_0-0_
  6
CONTINUOUS
 62
    3
 10
560
 20
740
 11
3820
 21
740
  0
LINE
  8
_0-0_
  6
CONTINUOUS
 62
    3
 10
560
 20
900
 11
3820
 21
900
  0
TEXT
  8
_0-0_
 62
    7
 10
3082.0000000000004
 20
780
 40
80
 41
1
 50
0
  1
 886
  0
TEXT
  8
_0-0_
 62
    7
 10
3082.0000000000004
 20
620
 40
80
 41
1
 50
0
  1
1000
  0
TEXT
  8
_0-0_
 62
    7
 10
3082.0000000000004
 20
460
 40
80
 41
1
 50
0
  1
 946
  0
TEXT
  8
_0-0_
 62
    7
 10
2872
 20
460
 40
80
 41
1
 50
0
  1
 980
  0
TEXT
  8
_0-0_
 62
    7
 10
2872
 20
620
 40
80
 41
1
 50
0
  1
1047
  0
TEXT
  8
_0-0_
 62
    7
 10
2872
 20
780
 40
80
 41
1
 50
0
  1
 942
  0
TEXT
  8
_0-0_
 62
    7
 10
2872
 20
940
 40
80
 41
1
 50
0
  1
1047
  0
TEXT
  8
_0-0_
 62
    7
 10
2662
 20
460
 40
80
 41
1
 50
0
  1
5000
  0
TEXT
  8
_0-0_
 62
    7
 10
2662
 20
620
 40
80
 41
1
 50
0
  1
4000
  0
TEXT
  8
_0-0_
 62
    7
 10
2662
 20
780
 40
80
 41
1
 50
0
  1
3000
  0
TEXT
  8
_0-0_
 62
    7
 10
2662
 20
940
 40
80
 41
1
 50
0
  1
2000
  0
TEXT
  8
_0-0_
 62
    7
 10
2473
 20
460
 40
80
 41
1
 50
0
  1
150
  0
TEXT
  8
_0-0_
 62
    7
 10
2473
 20
620
 40
80
 41
1
 50
0
  1
150
  0
TEXT
  8
_0-0_
 62
    7
 10
2473
 20
780
 40
80
 41
1
 50
0
  1
150
  0
TEXT
  8
_0-0_
 62
    7
 10
2473
 20
940
 40
80
 41
1
 50
0
  1
150
  0
TEXT
  8
_0-0_
 62
    7
 10
1003.0000000000001
 20
460
 40
80
 41
1
 50
0
  1
500
  0
TEXT
  8
_0-0_
 62
    7
 10
1003.0000000000001
 20
620
 40
80
 41
1
 50
0
  1
500
  0
TEXT
  8
_0-0_
 62
    7
 10
1003.0000000000001
 20
780
 40
80
 41
1
 50
0
  1
500
  0
TEXT
  8
_0-0_
 62
    7
 10
1003.0000000000001
 20
940
 40
80
 41
1
 50
0
  1
500
  0
TEXT
  8
_0-0_
 62
    7
 10
1233.9999999999997
 20
460
 40
80
 41
1
 50
0
  1
30
  0
TEXT
  8
_0-0_
 62
    7
 10
1233.9999999999997
 20
620
 40
80
 41
1
 50
0
  1
30
  0
TEXT
  8
_0-0_
 62
    7
 10
1233.9999999999997
 20
780
 40
80
 41
1
 50
0
  1
30
  0
TEXT
  8
_0-0_
 62
    7
 10
1233.9999999999997
 20
940
 40
80
 41
1
 50
0
  1
30
  0
TEXT
  8
_0-0_
 62
    7
 10
1423
 20
460
 40
80
 41
1
 50
0
  1
150
  0
TEXT
  8
_0-0_
 62
    7
 10
1423
 20
620
 40
80
 41
1
 50
0
  1
150
  0
TEXT
  8
_0-0_
 62
    7
 10
1423
 20
780
 40
80
 41
1
 50
0
  1
150
  0
TEXT
  8
_0-0_
 62
    7
 10
1423
 20
940
 40
80
 41
1
 50
0
  1
150
  0
TEXT
  8
_0-0_
 62
    7
 10
1633
 20
460
 40
80
 41
1
 50
0
  1
690
  0
TEXT
  8
_0-0_
 62
    7
 10
1633
 20
620
 40
80
 41
1
 50
0
  1
690
  0
TEXT
  8
_0-0_
 62
    7
 10
1633
 20
780
 40
80
 41
1
 50
0
  1
690
  0
TEXT
  8
_0-0_
 62
    7
 10
1633
 20
940
 40
80
 41
1
 50
0
  1
690
  0
TEXT
  8
_0-0_
 62
    7
 10
1843
 20
460
 40
80
 41
1
 50
0
  1
140
  0
TEXT
  8
_0-0_
 62
    7
 10
1843
 20
620
 40
80
 41
1
 50
0
  1
140
  0
TEXT
  8
_0-0_
 62
    7
 10
1843
 20
780
 40
80
 41
1
 50
0
  1
140
  0
TEXT
  8
_0-0_
 62
    7
 10
1843
 20
940
 40
80
 41
1
 50
0
  1
140
  0
TEXT
  8
_0-0_
 62
    7
 10
2074
 20
940
 40
80
 41
1
 50
0
  1
30
  0
TEXT
  8
_0-0_
 62
    7
 10
2074
 20
780
 40
80
 41
1
 50
0
  1
30
  0
TEXT
  8
_0-0_
 62
    7
 10
2074
 20
620
 40
80
 41
1
 50
0
  1
30
  0
TEXT
  8
_0-0_
 62
    7
 10
2074
 20
460
 40
80
 41
1
 50
0
  1
30
  0
TEXT
  8
_0-0_
 62
    7
 10
2263
 20
460
 40
80
 41
1
 50
0
  1
170
  0
TEXT
  8
_0-0_
 62
    7
 10
2263
 20
620
 40
80
 41
1
 50
0
  1
170
  0
TEXT
  8
_0-0_
 62
    7
 10
2263
 20
780
 40
80
 41
1
 50
0
  1
170
  0
TEXT
  8
_0-0_
 62
    7
 10
2263
 20
940
 40
80
 41
1
 50
0
  1
170
  0
TEXT
  8
_0-0_
 62
    7
 10
706.00000000000079
 20
460
 40
80
 41
1
 50
0
  1
.
  0
TEXT
  8
_0-0_
 62
    7
 10
706.00000000000079
 20
620
 40
80
 41
1
 50
0
  1
.
  0
TEXT
  8
_0-0_
 62
    7
 10
706.00000000000079
 20
780
 40
80
 41
1
 50
0
  1
.
  0
TEXT
  8
_0-0_
 62
    7
 10
706.00000000000079
 20
940
 40
80
 41
1
 50
0
  1
.
  0
TEXT
  8
_0-0_
 62
    7
 10
798.00000000000125
 20
940
 40
80
 41
1
 50
0
  1
Ｒ
  0
TEXT
  8
_0-0_
 62
    7
 10
798.00000000000125
 20
460
 40
80
 41
1
 50
0
  1
Ｒ
  0
TEXT
  8
_0-0_
 62
    7
 10
798.00000000000125
 20
620
 40
80
 41
1
 50
0
  1
Ｒ
  0
TEXT
  8
_0-0_
 62
    7
 10
798.00000000000125
 20
780
 40
80
 41
1
 50
0
  1
Ｒ
  0
TEXT
  8
_0-0_
 62
    7
 10
735.50000000000125
 20
460
 40
80
 41
1.125
 50
0
  1
0
  0
TEXT
  8
_0-0_
 62
    7
 10
735.50000000000125
 20
620
 40
80
 41
1.125
 50
0
  1
0
  0
TEXT
  8
_0-0_
 62
    7
 10
735.50000000000125
 20
780
 40
80
 41
1.125
 50
0
  1
0
  0
TEXT
  8
_0-0_
 62
    7
 10
735.50000000000125
 20
940
 40
80
 41
1.125
 50
0
  1
0
  0
LINE
  8
_0-0_
  6
CONTINUOUS
 62
    3
 10
1170
 20
1210
 11
1170
 21
420
  0
LINE
  8
_0-0_
  6
CONTINUOUS
 62
    3
 10
1380
 20
1210
 11
1380
 21
420
  0
LINE
  8
_0-0_
  6
CONTINUOUS
 62
    3
 10
1590
 20
1210
 11
1590
 21
420
  0
LINE
  8
_0-0_
  6
CONTINUOUS
 62
    3
 10
1800
 20
1210
 11
1800
 21
420
  0
LINE
  8
_0-0_
  6
CONTINUOUS
 62
    3
 10
2010
 20
1210
 11
2010
 21
420
  0
LINE
  8
_0-0_
  6
CONTINUOUS
 62
    3
 10
2220
 20
1210
 11
2220
 21
420
  0
LINE
  8
_0-0_
  6
CONTINUOUS
 62
    3
 10
2430
 20
1210
 11
2430
 21
420
  0
LINE
  8
_0-0_
  6
CONTINUOUS
 62
    3
 10
2640
 20
1210
 11
2640
 21
420
  0
LINE
  8
_0-0_
  6
CONTINUOUS
 62
    3
 10
2850
 20
1210
 11
2850
 21
420
  0
LINE
  8
_0-0_
  6
CONTINUOUS
 62
    3
 10
3060
 20
1210
 11
3060
 21
420
  0
LINE
  8
_0-0_
  6
CONTINUOUS
 62
    3
 10
3270
 20
1210
 11
3270
 21
420
  0
TEXT
  8
_0-0_
 62
    7
 10
3562
 20
1095
 40
80
 41
1
 50
0
  1
(kg)
  0
TEXT
  8
_0-0_
 62
    7
 10
3330
 20
1095
 40
80
 41
1
 50
0
  1
Ｌ
  0
TEXT
  8
_0-0_
 62
    7
 10
3404
 20
1095
 40
40
 41
1.25
 50
0
  1
2
  0
TEXT
  8
_0-0_
 62
    7
 10
3125
 20
1095
 40
80
 41
1
 50
0
  1
Ｌ
  0
TEXT
  8
_0-0_
 62
    7
 10
3199
 20
1095
 40
40
 41
1.25
 50
0
  1
1
  0
TEXT
  8
_0-0_
 62
    7
 10
2915
 20
1095
 40
80
 41
1
 50
0
  1
Ｌ
  0
TEXT
  8
_0-0_
 62
    7
 10
2705
 20
1095
 40
80
 41
1
 50
0
  1
Ｒ
  0
TEXT
  8
_0-0_
 62
    7
 10
2495
 20
1095
 40
80
 41
1
 50
0
  1
ｈ
  0
TEXT
  8
_0-0_
 62
    7
 10
1025
 20
1095
 40
80
 41
1
 50
0
  1
ａ
  0
TEXT
  8
_0-0_
 62
    7
 10
1235
 20
1095
 40
80
 41
1
 50
0
  1
ｂ
  0
TEXT
  8
_0-0_
 62
    7
 10
1445
 20
1095
 40
80
 41
1
 50
0
  1
ｃ
  0
TEXT
  8
_0-0_
 62
    7
 10
1655
 20
1095
 40
80
 41
1
 50
0
  1
ｄ
  0
TEXT
  8
_0-0_
 62
    7
 10
1865
 20
1095
 40
80
 41
1
 50
0
  1
ｅ
  0
TEXT
  8
_0-0_
 62
    7
 10
2075
 20
1095
 40
80
 41
1
 50
0
  1
ｆ
  0
TEXT
  8
_0-0_
 62
    7
 10
2285
 20
1095
 40
80
 41
1
 50
0
  1
ｇ
  0
LINE
  8
_0-0_
  6
CONTINUOUS
 62
    2
 10
560
 20
1360
 11
3820
 21
1360
  0
LINE
  8
_0-0_
  6
CONTINUOUS
 62
    2
 10
560
 20
1360
 11
560
 21
420
  0
LINE
  8
_0-0_
  6
CONTINUOUS
 62
    2
 10
3820
 20
1360
 11
3820
 21
420
  0
LINE
  8
_0-0_
  6
CONTINUOUS
 62
    3
 10
3470
 20
1360
 11
3470
 21
420
  0
LINE
  8
_0-0_
  6
CONTINUOUS
 62
    3
 10
960
 20
1210
 11
3470
 21
1210
  0
TEXT
  8
_0-0_
 62
    7
 10
3499
 20
1245
 40
80
 41
0.875
 50
0
  1
参考質量
  0
TEXT
  8
_0-0_
 62
    7
 10
620
 20
1170
 40
80
 41
1
 50
0
  1
呼び名
  0
LINE
  8
_0-0_
  6
CONTINUOUS
 62
    3
 10
560
 20
1060
 11
3820
 21
1060
  0
LINE
  8
_0-0_
  6
CONTINUOUS
 62
    3
 10
960
 20
1360
 11
960
 21
420
  0
TEXT
  8
_0-0_
 62
    7
 10
3082.0000000000004
 20
940
 40
80
 41
1
 50
0
  1
 953
  0
TEXT
  8
_0-0_
 62
    7
 10
1760.0000000000002
 20
1390
 40
110
 41
1
 50
0
  1
寸法・質量表
  0
TEXT
  8
_0-0_
 62
    7
 10
1310
 20
1245
 40
80
 41
1
 50
0
  1
　　　　　　　寸　　　　　　法　　　　(mm）
  0
ARC
  8
_0-0_
  6
CONTINUOUS
 62
    2
 10
-748.40816836320414
 20
2545.9832635983266
 40
1845
 50
12.480489329600469
 51
12.853453816212692
  0
LINE
  8
_0-0_
  6
CONTINUOUS
 62
    2
 10
1052.9938427286697
 20
2944.7009512347704
 11
1028.8217246334977
 21
2938.2254176803821
  0
LINE
  8
_0-0_
  6
CONTINUOUS
 62
    2
 10
1050.3602595917182
 20
2956.418572255583
 11
1026.1946310073415
 21
2949.9447771936479
  0
ARC
  8
_0-0_
  6
CONTINUOUS
 62
    2
 10
-748.40816836320414
 20
2545.9832635983266
 40
1845
 50
347.14654618378727
 51
347.51951067039954
  0
LINE
  8
_0-0_
  6
CONTINUOUS
 62
    2
 10
1028.8217246334977
 20
2153.7411095162715
 11
1052.9938427286697
 21
2147.2655759618824
  0
LINE
  8
_0-0_
  6
CONTINUOUS
 62
    2
 10
1026.1946310073415
 20
2142.0217500030043
 11
1050.3602595917182
 21
2135.5479549410697
  0
LINE
  8
_0-0_
  6
CONTINUOUS
 62
    2
 10
1071.5918316367958
 20
4142.8313245488043
 11
1096.5918316367958
 21
4142.8313245488043
  0
LINE
  8
_0-0_
  6
CONTINUOUS
 62
    2
 10
1071.5918316367958
 20
4130.8313245488043
 11
1096.5918316367958
 21
4130.8313245488043
  0
TEXT
  8
_0-0_
 62
    7
 10
2790.1568022555966
 20
4395.2176354347157
 40
80
 41
0.875
 50
0
  1
吊りインサート
  0
LINE
  8
_0-0_
  6
CONTINUOUS
 62
    4
 10
2767.4517200143191
 20
4386.8313245488034
 11
3276.8989419859344
 21
4386.8313245488034
  0
LINE
  8
_0-0_
  6
DASHED2
 62
    5
 10
1071.5918316367958
 20
4151.8313245488034
 11
1121.5918316367958
 21
4151.8313245488034
  0
LINE
  8
_0-0_
  6
DASHED2
 62
    5
 10
1071.5918316367958
 20
4121.8313245488034
 11
1121.5918316367958
 21
4121.8313245488034
  0
LINE
  8
_0-0_
  6
DASHED2
 62
    5
 10
1705.8141770422189
 20
4151.8313245488034
 11
1755.9251649701288
 21
4151.8313245488034
  0
LINE
  8
_0-0_
  6
DASHED2
 62
    5
 10
1707.8141770422189
 20
4121.8313245488034
 11
1757.9251649701288
 21
4121.8313245488034
  0
LINE
  8
_0-0_
  6
DASHED2
 62
    5
 10
1691.5814028573652
 20
2859.1140546982483
 11
1741.2094360195346
 21
2865.2076109585404
  0
LINE
  8
_0-0_
  6
DASHED2
 62
    5
 10
1691.5814028573652
 20
2232.8524724984044
 11
1741.2094360195346
 21
2226.7589162381127
  0
LINE
  8
_0-0_
  6
DASHED2
 62
    5
 10
1687.5810874121639
 20
2203.1183547100508
 11
1737.2159789848551
 21
2197.0239563428349
  0
LINE
  8
_0-0_
  6
DASHED2
 62
    5
 10
1052.2176591683
 20
2281.1311742607381
 11
1101.8587285340129
 21
2275.0360173559183
  0
LINE
  8
_0-0_
  6
DASHED2
 62
    5
 10
1056.3390572064724
 20
2310.8504249760803
 11
1105.9676811918234
 21
2304.7567961718236
  0
LINE
  8
_0-0_
  6
DASHED2
 62
    5
 10
1052.2176591683
 20
2810.8353529359146
 11
1101.8587285340129
 21
2816.9305098407348
  0
LINE
  8
_0-0_
  6
DASHED2
 62
    5
 10
1056.3390572064724
 20
2781.1161022205724
 11
1105.9676811918234
 21
2787.2097310248291
  0
LINE
  8
_0-0_
  6
CENTER1
 62
    4
 10
1004.7061965302901
 20
2789.8890314761688
 11
1153.308337440922
 21
2808.1350800971126
  0
LINE
  8
_0-0_
  6
CENTER1
 62
    4
 10
1639.9506213376157
 20
2867.8872392421549
 11
1788.8876337402018
 21
2886.1744049121966
  0
LINE
  8
_0-0_
  6
CENTER1
 62
    4
 10
1004.7061965302901
 20
2302.0774957204835
 11
1153.6058357659653
 21
2283.7949188983302
  0
LINE
  8
_0-0_
  6
CENTER1
 62
    4
 10
1639.9959530073574
 20
2224.0737219253337
 11
1788.8876337402018
 21
2205.7921222844561
  0
LINE
  8
_0-0_
  6
DASHED2
 62
    5
 10
1101.1739030910443
 20
2821.8839729767187
 11
1106.6525066347917
 21
2782.2562678888448
  0
LINE
  8
_0-0_
  6
DASHED2
 62
    5
 10
1686.9143681712978
 20
2893.8038587846608
 11
1692.2481220982319
 21
2854.1583684001893
  0
ARC
  8
_0-0_
  6
DASHED2
 62
    5
 10
-748.40816836320414
 20
2545.9832635983266
 40
1870
 50
351.51575581848317
 51
352.74149911171832
  0
ARC
  8
_0-0_
  6
DASHED2
 62
    5
 10
-748.40816836320414
 20
2545.9832635983266
 40
2460
 50
351.87178636063924
 51
352.8034975736694
  0
TEXT
  8
_0-0_
 62
    7
 10
1960.5752465243326
 20
2229.7159734493966
 40
80
 41
0.875
 50
90
  1
吊りインサート
  0
LINE
  8
_0-0_
  6
CONTINUOUS
 62
    4
 10
1968.9615574102447
 20
2207.0108912081186
 11
1968.9615574102447
 21
2716.458113179734
  0
LINE
  8
_0-0_
  6
DASHED2
 62
    5
 10
1121.5918316367958
 20
4116.8313245488034
 11
1121.5918316367958
 21
4156.8313245488034
  0
LINE
  8
_0-0_
  6
DASHED2
 62
    5
 10
1705.4808437088856
 20
4156.8313245488034
 11
1708.1475103755522
 21
4116.8313245488034
  0
LINE
  8
_0-0_
  6
CENTER1
 62
    4
 10
1021.5918316367958
 20
4136.8313245488034
 11
1171.5918316367958
 21
4136.8313245488034
  0
LINE
  8
_0-0_
  6
CENTER1
 62
    4
 10
1656.7031891143092
 20
4136.8313245488034
 11
1807.0361528980388
 21
4136.8313245488034
  0
ENDSEC
  0
EOF
