  0
SECTION
  2
HEADER
  9
$ACADVER
  1
AC1032
  9
$ACADMAINTVER
 90
      228
  9
$DWGCODEPAGE
  3
ANSI_932
  9
$LASTSAVEDBY
  1
yano27
  9
$REQUIREDVERSIONS
160
                 0
  9
$INSBASE
 10
0.0
 20
0.0
 30
0.0
  9
$EXTMIN
 10
210.0
 20
252.5
 30
0.0
  9
$EXTMAX
 10
1975.0
 20
2735.881502481512
 30
0.0
  9
$LIMMIN
 10
0.0
 20
0.0
  9
$LIMMAX
 10
4200.0
 20
2970.0
  9
$ORTHOMODE
 70
     1
  9
$REGENMODE
 70
     1
  9
$FILLMODE
 70
     1
  9
$QTEXTMODE
 70
     0
  9
$MIRRTEXT
 70
     0
  9
$LTSCALE
 40
10.0
  9
$ATTMODE
 70
     1
  9
$TEXTSIZE
 40
1.0
  9
$TRACEWID
 40
0.05
  9
$TEXTSTYLE
  7
TATEGAKI
  9
$CLAYER
  8
0
  9
$CELTYPE
  6
CONTINUOUS
  9
$CECOLOR
 62
   256
  9
$CELTSCALE
 40
1.0
  9
$DISPSILH
 70
     0
  9
$DIMSCALE
 40
1.0
  9
$DIMASZ
 40
0.18
  9
$DIMEXO
 40
0.0625
  9
$DIMDLI
 40
0.38
  9
$DIMRND
 40
0.0
  9
$DIMDLE
 40
0.0
  9
$DIMEXE
 40
0.18
  9
$DIMTP
 40
0.0
  9
$DIMTM
 40
0.0
  9
$DIMTXT
 40
0.18
  9
$DIMCEN
 40
0.09
  9
$DIMTSZ
 40
0.0
  9
$DIMTOL
 70
     0
  9
$DIMLIM
 70
     0
  9
$DIMTIH
 70
     1
  9
$DIMTOH
 70
     1
  9
$DIMSE1
 70
     0
  9
$DIMSE2
 70
     0
  9
$DIMTAD
 70
     0
  9
$DIMZIN
 70
     0
  9
$DIMBLK
  1

  9
$DIMASO
 70
     1
  9
$DIMSHO
 70
     1
  9
$DIMPOST
  1

  9
$DIMAPOST
  1

  9
$DIMALT
 70
     0
  9
$DIMALTD
 70
     2
  9
$DIMALTF
 40
25.4
  9
$DIMLFAC
 40
1.0
  9
$DIMTOFL
 70
     0
  9
$DIMTVP
 40
0.0
  9
$DIMTIX
 70
     0
  9
$DIMSOXD
 70
     0
  9
$DIMSAH
 70
     0
  9
$DIMBLK1
  1

  9
$DIMBLK2
  1

  9
$DIMSTYLE
  2
Standard
  9
$DIMCLRD
 70
     0
  9
$DIMCLRE
 70
     0
  9
$DIMCLRT
 70
     0
  9
$DIMTFAC
 40
1.0
  9
$DIMGAP
 40
0.09
  9
$DIMJUST
 70
     0
  9
$DIMSD1
 70
     0
  9
$DIMSD2
 70
     0
  9
$DIMTOLJ
 70
     1
  9
$DIMTZIN
 70
     0
  9
$DIMALTZ
 70
     0
  9
$DIMALTTZ
 70
     0
  9
$DIMUPT
 70
     0
  9
$DIMDEC
 70
     4
  9
$DIMTDEC
 70
     4
  9
$DIMALTU
 70
     2
  9
$DIMALTTD
 70
     2
  9
$DIMTXSTY
  7
STANDARD
  9
$DIMAUNIT
 70
     0
  9
$DIMADEC
 70
     0
  9
$DIMALTRND
 40
0.0
  9
$DIMAZIN
 70
     0
  9
$DIMDSEP
 70
    46
  9
$DIMATFIT
 70
     3
  9
$DIMFRAC
 70
     0
  9
$DIMLDRBLK
  1

  9
$DIMLUNIT
 70
     2
  9
$DIMLWD
 70
    -2
  9
$DIMLWE
 70
    -2
  9
$DIMTMOVE
 70
     0
  9
$DIMFXL
 40
1.0
  9
$DIMFXLON
 70
     0
  9
$DIMJOGANG
 40
0.7853981633974483
  9
$DIMTFILL
 70
     0
  9
$DIMTFILLCLR
 70
     0
  9
$DIMARCSYM
 70
     0
  9
$DIMLTYPE
  6

  9
$DIMLTEX1
  6

  9
$DIMLTEX2
  6

  9
$DIMTXTDIRECTION
 70
     0
  9
$LUNITS
 70
     2
  9
$LUPREC
 70
     4
  9
$SKETCHINC
 40
0.1
  9
$FILLETRAD
 40
0.0
  9
$AUNITS
 70
     0
  9
$AUPREC
 70
     0
  9
$MENU
  1
.
  9
$ELEVATION
 40
0.0
  9
$PELEVATION
 40
0.0
  9
$THICKNESS
 40
0.0
  9
$LIMCHECK
 70
     0
  9
$CHAMFERA
 40
0.0
  9
$CHAMFERB
 40
0.0
  9
$CHAMFERC
 40
0.0
  9
$CHAMFERD
 40
0.0
  9
$SKPOLY
 70
     0
  9
$TDCREATE
 40
2456341.936909722
  9
$TDUCREATE
 40
2456341.561909908
  9
$TDUPDATE
 40
2459923.712430555
  9
$TDUUPDATE
 40
2459923.337430556
  9
$TDINDWG
 40
0.0321234954
  9
$TDUSRTIMER
 40
0.0321234954
  9
$USRTIMER
 70
     1
  9
$ANGBASE
 50
0.0
  9
$ANGDIR
 70
     0
  9
$PDMODE
 70
     0
  9
$PDSIZE
 40
0.0
  9
$PLINEWID
 40
0.0
  9
$SPLFRAME
 70
     0
  9
$SPLINETYPE
 70
     6
  9
$SPLINESEGS
 70
     8
  9
$HANDSEED
  5
C19
  9
$SURFTAB1
 70
     6
  9
$SURFTAB2
 70
     6
  9
$SURFTYPE
 70
     6
  9
$SURFU
 70
     6
  9
$SURFV
 70
     6
  9
$UCSBASE
  2

  9
$UCSNAME
  2

  9
$UCSORG
 10
0.0
 20
0.0
 30
0.0
  9
$UCSXDIR
 10
1.0
 20
0.0
 30
0.0
  9
$UCSYDIR
 10
0.0
 20
1.0
 30
0.0
  9
$UCSORTHOREF
  2

  9
$UCSORTHOVIEW
 70
     0
  9
$UCSORGTOP
 10
0.0
 20
0.0
 30
0.0
  9
$UCSORGBOTTOM
 10
0.0
 20
0.0
 30
0.0
  9
$UCSORGLEFT
 10
0.0
 20
0.0
 30
0.0
  9
$UCSORGRIGHT
 10
0.0
 20
0.0
 30
0.0
  9
$UCSORGFRONT
 10
0.0
 20
0.0
 30
0.0
  9
$UCSORGBACK
 10
0.0
 20
0.0
 30
0.0
  9
$PUCSBASE
  2

  9
$PUCSNAME
  2

  9
$PUCSORG
 10
0.0
 20
0.0
 30
0.0
  9
$PUCSXDIR
 10
1.0
 20
0.0
 30
0.0
  9
$PUCSYDIR
 10
0.0
 20
1.0
 30
0.0
  9
$PUCSORTHOREF
  2

  9
$PUCSORTHOVIEW
 70
     0
  9
$PUCSORGTOP
 10
0.0
 20
0.0
 30
0.0
  9
$PUCSORGBOTTOM
 10
0.0
 20
0.0
 30
0.0
  9
$PUCSORGLEFT
 10
0.0
 20
0.0
 30
0.0
  9
$PUCSORGRIGHT
 10
0.0
 20
0.0
 30
0.0
  9
$PUCSORGFRONT
 10
0.0
 20
0.0
 30
0.0
  9
$PUCSORGBACK
 10
0.0
 20
0.0
 30
0.0
  9
$USERI1
 70
     0
  9
$USERI2
 70
     0
  9
$USERI3
 70
     0
  9
$USERI4
 70
     0
  9
$USERI5
 70
     0
  9
$USERR1
 40
0.0
  9
$USERR2
 40
0.0
  9
$USERR3
 40
0.0
  9
$USERR4
 40
0.0
  9
$USERR5
 40
0.0
  9
$WORLDVIEW
 70
     1
  9
$SHADEDGE
 70
     3
  9
$SHADEDIF
 70
    70
  9
$TILEMODE
 70
     1
  9
$MAXACTVP
 70
    64
  9
$PINSBASE
 10
0.0
 20
0.0
 30
0.0
  9
$PLIMCHECK
 70
     0
  9
$PEXTMIN
 10
1.000000000000000E+20
 20
1.000000000000000E+20
 30
1.000000000000000E+20
  9
$PEXTMAX
 10
-1.000000000000000E+20
 20
-1.000000000000000E+20
 30
-1.000000000000000E+20
  9
$PLIMMIN
 10
0.0
 20
0.0
  9
$PLIMMAX
 10
12.0
 20
9.0
  9
$UNITMODE
 70
     0
  9
$VISRETAIN
 70
     1
  9
$PLINEGEN
 70
     0
  9
$PSLTSCALE
 70
     1
  9
$TREEDEPTH
 70
  3020
  9
$CMLSTYLE
  2
Standard
  9
$CMLJUST
 70
     0
  9
$CMLSCALE
 40
1.0
  9
$PROXYGRAPHICS
 70
     1
  9
$MEASUREMENT
 70
     0
  9
$CELWEIGHT
370
    -1
  9
$ENDCAPS
280
     0
  9
$JOINSTYLE
280
     0
  9
$LWDISPLAY
290
     0
  9
$INSUNITS
 70
     0
  9
$HYPERLINKBASE
  1

  9
$STYLESHEET
  1

  9
$XEDIT
290
     1
  9
$CEPSNTYPE
380
     0
  9
$PSTYLEMODE
290
     1
  9
$FINGERPRINTGUID
  2
{16AD8001-E425-4012-9246-EED0FCF52330}
  9
$VERSIONGUID
  2
{A6C1F0FC-DB45-5E4A-9751-2B0E7EC67D1D}
  9
$EXTNAMES
290
     1
  9
$PSVPSCALE
 40
0.0
  9
$OLESTARTUP
290
     0
  9
$SORTENTS
280
   127
  9
$INDEXCTL
280
     0
  9
$HIDETEXT
280
     0
  9
$XCLIPFRAME
280
     2
  9
$HALOGAP
280
     0
  9
$OBSCOLOR
 70
   257
  9
$OBSLTYPE
280
     0
  9
$INTERSECTIONDISPLAY
280
     0
  9
$INTERSECTIONCOLOR
 70
   257
  9
$DIMASSOC
280
     1
  9
$PROJECTNAME
  1

  9
$CAMERADISPLAY
290
     0
  9
$LENSLENGTH
 40
50.0
  9
$CAMERAHEIGHT
 40
0.0
  9
$STEPSPERSEC
 40
2.0
  9
$STEPSIZE
 40
6.0
  9
$3DDWFPREC
 40
2.0
  9
$PSOLWIDTH
 40
0.25
  9
$PSOLHEIGHT
 40
4.0
  9
$LOFTANG1
 40
1.570796326794896
  9
$LOFTANG2
 40
1.570796326794896
  9
$LOFTMAG1
 40
0.0
  9
$LOFTMAG2
 40
0.0
  9
$LOFTPARAM
 70
     7
  9
$LOFTNORMALS
280
     1
  9
$LATITUDE
 40
37.795
  9
$LONGITUDE
 40
-122.394
  9
$NORTHDIRECTION
 40
0.0
  9
$TIMEZONE
 70
 -8000
  9
$LIGHTGLYPHDISPLAY
280
     1
  9
$TILEMODELIGHTSYNCH
280
     1
  9
$CMATERIAL
347
BB4
  9
$SOLIDHIST
280
     0
  9
$SHOWHIST
280
     1
  9
$DWFFRAME
280
     2
  9
$DGNFRAME
280
     0
  9
$REALWORLDSCALE
290
     1
  9
$INTERFERECOLOR
 62
     1
  9
$INTERFEREOBJVS
345
BD6
  9
$INTERFEREVPVS
346
BD3
  9
$CSHADOW
280
     0
  9
$SHADOWPLANELOCATION
 40
0.0
  0
ENDSEC
  0
SECTION
  2
CLASSES
  0
CLASS
  1
ACDBDICTIONARYWDFLT
  2
AcDbDictionaryWithDefault
  3
ObjectDBX Classes
 90
        0
 91
        1
280
     0
281
     0
  0
CLASS
  1
DICTIONARYVAR
  2
AcDbDictionaryVar
  3
ObjectDBX Classes
 90
        0
 91
       12
280
     0
281
     0
  0
CLASS
  1
MATERIAL
  2
AcDbMaterial
  3
ObjectDBX Classes
 90
     1153
 91
        3
280
     0
281
     0
  0
CLASS
  1
VISUALSTYLE
  2
AcDbVisualStyle
  3
ObjectDBX Classes
 90
     4095
 91
       24
280
     0
281
     0
  0
CLASS
  1
TABLESTYLE
  2
AcDbTableStyle
  3
ObjectDBX Classes
 90
     4095
 91
        1
280
     0
281
     0
  0
CLASS
  1
SCALE
  2
AcDbScale
  3
ObjectDBX Classes
 90
     1153
 91
       17
280
     0
281
     0
  0
CLASS
  1
MLEADERSTYLE
  2
AcDbMLeaderStyle
  3
ACDB_MLEADERSTYLE_CLASS
 90
     4095
 91
        1
280
     0
281
     0
  0
CLASS
  1
ACDBSECTIONVIEWSTYLE
  2
AcDbSectionViewStyle
  3
ObjectDBX Classes
 90
     1025
 91
        1
280
     0
281
     0
  0
CLASS
  1
ACDBDETAILVIEWSTYLE
  2
AcDbDetailViewStyle
  3
ObjectDBX Classes
 90
     1025
 91
        1
280
     0
281
     0
  0
CLASS
  1
CELLSTYLEMAP
  2
AcDbCellStyleMap
  3
ObjectDBX Classes
 90
     1152
 91
        1
280
     0
281
     0
  0
ENDSEC
  0
SECTION
  2
TABLES
  0
TABLE
  2
VPORT
  5
8
330
0
100
AcDbSymbolTable
 70
     1
  0
VPORT
  5
BAB
330
8
100
AcDbSymbolTableRecord
100
AcDbViewportTableRecord
  2
*Active
 70
     0
 10
0.0
 20
0.0
 11
1.0
 21
1.0
 12
1042.129552295047
 22
1492.808050328398
 13
0.0
 23
0.0
 14
1.0
 24
1.0
 15
0.0
 25
0.0
 16
0.0
 26
0.0
 36
1.0
 17
0.0
 27
0.0
 37
0.0
 40
2860.13498456233
 41
1.716778523489932
 42
50.0
 43
0.0
 44
0.0
 50
0.0
 51
0.0
 71
     0
 72
   100
 73
     1
 74
     1
 75
     0
 76
     0
 77
     0
 78
     0
281
     0
 65
     1
110
0.0
120
0.0
130
0.0
111
1.0
121
0.0
131
0.0
112
0.0
122
1.0
132
0.0
 79
     0
146
0.0
348
BD2
 60
     3
 61
     5
292
     1
282
     1
141
0.0
142
0.0
 63
   250
421
  3355443
1001
ACAD_NAV_VCDISPLAY
1070
     3
  0
ENDTAB
  0
TABLE
  2
LTYPE
  5
5
330
0
100
AcDbSymbolTable
 70
    35
  0
LTYPE
  5
13
330
5
100
AcDbSymbolTableRecord
100
AcDbLinetypeTableRecord
  2
ByBlock
 70
     0
  3

 72
    65
 73
     0
 40
0.0
  0
LTYPE
  5
14
330
5
100
AcDbSymbolTableRecord
100
AcDbLinetypeTableRecord
  2
ByLayer
 70
     0
  3

 72
    65
 73
     0
 40
0.0
  0
LTYPE
  5
15
330
5
100
AcDbSymbolTableRecord
100
AcDbLinetypeTableRecord
  2
CONTINUOUS
 70
     0
  3
実線
 72
    65
 73
     0
 40
0.0
  0
LTYPE
  5
24
330
5
100
AcDbSymbolTableRecord
100
AcDbLinetypeTableRecord
  2
DASHED1
 70
     0
  3
--  --  --  --  --  --  --  --  
 72
    65
 73
     2
 40
2.5
 49
1.25
 74
     0
 49
-1.25
 74
     0
  0
LTYPE
  5
25
330
5
100
AcDbSymbolTableRecord
100
AcDbLinetypeTableRecord
  2
DASHED2
 70
     0
  3
----    ----    ----    ----    
 72
    65
 73
     2
 40
5.0
 49
2.5
 74
     0
 49
-2.5
 74
     0
  0
LTYPE
  5
26
330
5
100
AcDbSymbolTableRecord
100
AcDbLinetypeTableRecord
  2
DASHED3
 70
     0
  3
------  ------  ------  ------  
 72
    65
 73
     2
 40
5.0
 49
3.75
 74
     0
 49
-1.25
 74
     0
  0
LTYPE
  5
27
330
5
100
AcDbSymbolTableRecord
100
AcDbLinetypeTableRecord
  2
CENTER1
 70
     0
  3
----- - ----- - ----- - ----- - 
 72
    65
 73
     4
 40
10.0
 49
6.25
 74
     0
 49
-1.25
 74
     0
 49
1.25
 74
     0
 49
-1.25
 74
     0
  0
LTYPE
  5
28
330
5
100
AcDbSymbolTableRecord
100
AcDbLinetypeTableRecord
  2
CENTER2
 70
     0
  3
----------  --  ----------  --  
 72
    65
 73
     4
 40
20.0
 49
12.5
 74
     0
 49
-2.5
 74
     0
 49
2.5
 74
     0
 49
-2.5
 74
     0
  0
LTYPE
  5
29
330
5
100
AcDbSymbolTableRecord
100
AcDbLinetypeTableRecord
  2
PHANTOM1
 70
     0
  3
--- - - --- - - --- - - --- - - 
 72
    65
 73
     6
 40
10.0
 49
3.25
 74
     0
 49
-1.25
 74
     0
 49
1.25
 74
     0
 49
-1.25
 74
     0
 49
1.25
 74
     0
 49
-1.25
 74
     0
  0
LTYPE
  5
2A
330
5
100
AcDbSymbolTableRecord
100
AcDbLinetypeTableRecord
  2
PHANTOM2
 70
     0
  3
--------  -  -  --------  -  -  
 72
    65
 73
     6
 40
20.0
 49
10.0
 74
     0
 49
-2.5
 74
     0
 49
1.25
 74
     0
 49
-2.5
 74
     0
 49
1.25
 74
     0
 49
-2.5
 74
     0
  0
LTYPE
  5
2B
330
5
100
AcDbSymbolTableRecord
100
AcDbLinetypeTableRecord
  2
DOT
 70
     0
  3
-   -   -   -   -   -   -   -   
 72
    65
 73
     2
 40
2.5
 49
0.625
 74
     0
 49
-1.875
 74
     0
  0
LTYPE
  5
2C
330
5
100
AcDbSymbolTableRecord
100
AcDbLinetypeTableRecord
  2
DUMMY
 70
     0
  3
ダミー
 72
    65
 73
     0
 40
0.0
  0
LTYPE
  5
2D
330
5
100
AcDbSymbolTableRecord
100
AcDbLinetypeTableRecord
  2
RAND1
 70
     0
  3
ランダム線1
 72
    65
 73
     4
 40
10.0
 49
1.0
 74
     0
 49
-2.0
 74
     0
 49
3.0
 74
     0
 49
-4.0
 74
     0
  0
LTYPE
  5
2E
330
5
100
AcDbSymbolTableRecord
100
AcDbLinetypeTableRecord
  2
RAND2
 70
     0
  3
ランダム線2
 72
    65
 73
     4
 40
14.0
 49
2.0
 74
     0
 49
-3.0
 74
     0
 49
4.0
 74
     0
 49
-5.0
 74
     0
  0
LTYPE
  5
2F
330
5
100
AcDbSymbolTableRecord
100
AcDbLinetypeTableRecord
  2
RAND3
 70
     0
  3
ランダム線3
 72
    65
 73
     4
 40
18.0
 49
3.0
 74
     0
 49
-4.0
 74
     0
 49
5.0
 74
     0
 49
-6.0
 74
     0
  0
LTYPE
  5
30
330
5
100
AcDbSymbolTableRecord
100
AcDbLinetypeTableRecord
  2
RAND4
 70
     0
  3
ランダム線4
 72
    65
 73
     4
 40
22.0
 49
4.0
 74
     0
 49
-5.0
 74
     0
 49
6.0
 74
     0
 49
-7.0
 74
     0
  0
LTYPE
  5
31
330
5
100
AcDbSymbolTableRecord
100
AcDbLinetypeTableRecord
  2
RAND5
 70
     0
  3
ランダム線5
 72
    65
 73
     4
 40
26.0
 49
5.0
 74
     0
 49
-6.0
 74
     0
 49
7.0
 74
     0
 49
-8.0
 74
     0
  0
LTYPE
  5
32
330
5
100
AcDbSymbolTableRecord
100
AcDbLinetypeTableRecord
  2
LONG1
 70
     0
  3
----------  --  ----------  --  
 72
    65
 73
     4
 40
40.0
 49
32.5
 74
     0
 49
-2.5
 74
     0
 49
2.5
 74
     0
 49
-2.5
 74
     0
  0
LTYPE
  5
33
330
5
100
AcDbSymbolTableRecord
100
AcDbLinetypeTableRecord
  2
LONG2
 70
     0
  3
--------  -  -  --------  -  -  
 72
    65
 73
     6
 40
40.0
 49
30.0
 74
     0
 49
-2.5
 74
     0
 49
1.25
 74
     0
 49
-2.5
 74
     0
 49
1.25
 74
     0
 49
-2.5
 74
     0
  0
LTYPE
  5
34
330
5
100
AcDbSymbolTableRecord
100
AcDbLinetypeTableRecord
  2
LONG3
 70
     0
  3
+++++++++++++++..+++++++++++++++
 72
    65
 73
     2
 40
40.0
 49
37.5
 74
     0
 49
-2.5
 74
     0
  0
LTYPE
  5
35
330
5
100
AcDbSymbolTableRecord
100
AcDbLinetypeTableRecord
  2
LONG4
 70
     0
  3
+++++++++++++++..+++++++++++++++
 72
    65
 73
     2
 40
80.0
 49
75.0
 74
     0
 49
-5.0
 74
     0
  0
LTYPE
  5
36
330
5
100
AcDbSymbolTableRecord
100
AcDbLinetypeTableRecord
  2
LONG5
 70
     0
  3
----------  --  ----------  --  
 72
    65
 73
     4
 40
60.0
 49
37.5
 74
     0
 49
-7.5
 74
     0
 49
7.5
 74
     0
 49
-7.5
 74
     0
  0
LTYPE
  5
37
330
5
100
AcDbSymbolTableRecord
100
AcDbLinetypeTableRecord
  2
DASHED
 70
     0
  3
-------   -------------   ------
 72
    65
 73
     2
 40
7.5
 49
6.0
 74
     0
 49
-1.5
 74
     0
  0
LTYPE
  5
38
330
5
100
AcDbSymbolTableRecord
100
AcDbLinetypeTableRecord
  2
DASHED_SPACED
 70
     0
  3
----        --------        ----
 72
    65
 73
     2
 40
12.0
 49
6.0
 74
     0
 49
-6.0
 74
     0
  0
LTYPE
  5
39
330
5
100
AcDbSymbolTableRecord
100
AcDbLinetypeTableRecord
  2
LONG_DASHED_DOTTED
 70
     0
  3
------------- --- --------------
 72
    65
 73
     4
 40
15.25
 49
12.0
 74
     0
 49
-1.5
 74
     0
 49
0.25
 74
     0
 49
-1.5
 74
     0
  0
LTYPE
  5
3A
330
5
100
AcDbSymbolTableRecord
100
AcDbLinetypeTableRecord
  2
LONG_DASHED_DOUBLE-DOTTED
 70
     0
  3
----------- --- --- ------------
 72
    65
 73
     6
 40
17.0
 49
12.0
 74
     0
 49
-1.5
 74
     0
 49
0.25
 74
     0
 49
-1.5
 74
     0
 49
0.25
 74
     0
 49
-1.5
 74
     0
  0
LTYPE
  5
3B
330
5
100
AcDbSymbolTableRecord
100
AcDbLinetypeTableRecord
  2
LONG_DASHED_TRIPLICATE-DOTTED
 70
     0
  3
--------- --- --- --- ----------
 72
    65
 73
     8
 40
18.75
 49
12.0
 74
     0
 49
-1.5
 74
     0
 49
0.25
 74
     0
 49
-1.5
 74
     0
 49
0.25
 74
     0
 49
-1.5
 74
     0
 49
0.25
 74
     0
 49
-1.5
 74
     0
  0
LTYPE
  5
3C
330
5
100
AcDbSymbolTableRecord
100
AcDbLinetypeTableRecord
  2
DOTTED
 70
     0
  3
   -       -       -       -    
 72
    65
 73
     2
 40
1.75
 49
0.25
 74
     0
 49
-1.5
 74
     0
  0
LTYPE
  5
3D
330
5
100
AcDbSymbolTableRecord
100
AcDbLinetypeTableRecord
  2
CHAIN
 70
     0
  3
-------------- -- --------------
 72
    65
 73
     4
 40
18.5
 49
12.0
 74
     0
 49
-1.5
 74
     0
 49
3.5
 74
     0
 49
-1.5
 74
     0
  0
LTYPE
  5
3E
330
5
100
AcDbSymbolTableRecord
100
AcDbLinetypeTableRecord
  2
CHAIN_DOUBLE_DASH
 70
     0
  3
------------ -- -- -------------
 72
    65
 73
     6
 40
23.5
 49
12.0
 74
     0
 49
-1.5
 74
     0
 49
3.5
 74
     0
 49
-1.5
 74
     0
 49
3.5
 74
     0
 49
-1.5
 74
     0
  0
LTYPE
  5
3F
330
5
100
AcDbSymbolTableRecord
100
AcDbLinetypeTableRecord
  2
DASHED_DOTTED
 70
     0
  3
-----------     -     ----------
 72
    65
 73
     4
 40
9.25
 49
6.0
 74
     0
 49
-1.5
 74
     0
 49
0.25
 74
     0
 49
-1.5
 74
     0
  0
LTYPE
  5
40
330
5
100
AcDbSymbolTableRecord
100
AcDbLinetypeTableRecord
  2
DOUBLE-DASHED_DOTTED
 70
     0
  3
------   -----------   -   -----
 72
    65
 73
     6
 40
16.75
 49
6.0
 74
     0
 49
-1.5
 74
     0
 49
6.0
 74
     0
 49
-1.5
 74
     0
 49
0.25
 74
     0
 49
-1.5
 74
     0
  0
LTYPE
  5
41
330
5
100
AcDbSymbolTableRecord
100
AcDbLinetypeTableRecord
  2
DASHED_DOUBLE-DOTTED
 70
     0
  3
---------    -    -    ---------
 72
    65
 73
     6
 40
11.0
 49
6.0
 74
     0
 49
-1.5
 74
     0
 49
0.25
 74
     0
 49
-1.5
 74
     0
 49
0.25
 74
     0
 49
-1.5
 74
     0
  0
LTYPE
  5
42
330
5
100
AcDbSymbolTableRecord
100
AcDbLinetypeTableRecord
  2
DOUBLE-DASHED_DOUBLE-DOTTED
 70
     0
  3
-----   ---------   -   -   ----
 72
    65
 73
     8
 40
18.5
 49
6.0
 74
     0
 49
-1.5
 74
     0
 49
6.0
 74
     0
 49
-1.5
 74
     0
 49
0.25
 74
     0
 49
-1.5
 74
     0
 49
0.25
 74
     0
 49
-1.5
 74
     0
  0
LTYPE
  5
43
330
5
100
AcDbSymbolTableRecord
100
AcDbLinetypeTableRecord
  2
DASHED_TRIPLICATE-DOTTED
 70
     0
  3
-------    -    -    -    ------
 72
    65
 73
     8
 40
12.75
 49
6.0
 74
     0
 49
-1.5
 74
     0
 49
0.25
 74
     0
 49
-1.5
 74
     0
 49
0.25
 74
     0
 49
-1.5
 74
     0
 49
0.25
 74
     0
 49
-1.5
 74
     0
  0
LTYPE
  5
44
330
5
100
AcDbSymbolTableRecord
100
AcDbLinetypeTableRecord
  2
DOUBLE-DASHED_TRIPLICATE-DOTTED
 70
     0
  3
-----  ---------  -  -  -  -----
 72
    65
 73
    10
 40
20.25
 49
6.0
 74
     0
 49
-1.5
 74
     0
 49
6.0
 74
     0
 49
-1.5
 74
     0
 49
0.25
 74
     0
 49
-1.5
 74
     0
 49
0.25
 74
     0
 49
-1.5
 74
     0
 49
0.25
 74
     0
 49
-1.5
 74
     0
  0
LTYPE
  5
45
330
5
100
AcDbSymbolTableRecord
100
AcDbLinetypeTableRecord
  2
UNDEFINED
 70
     0
  3
--------------------------------
 72
    65
 73
     0
 40
0.0
  0
ENDTAB
  0
TABLE
  2
LAYER
  5
2
330
0
100
AcDbSymbolTable
 70
     3
  0
LAYER
  5
10
102
{ACAD_XDICTIONARY
360
C06
102
}
330
2
100
AcDbSymbolTableRecord
100
AcDbLayerTableRecord
  2
0
 70
     0
 62
     7
  6
CONTINUOUS
370
    -3
390
F
347
BC4
348
0
  0
LAYER
  5
47
102
{ACAD_XDICTIONARY
360
C08
102
}
330
2
100
AcDbSymbolTableRecord
100
AcDbLayerTableRecord
  2
_0-0_
 70
     0
 62
     7
  6
CONTINUOUS
370
    -3
390
F
347
BC4
348
0
  0
LAYER
  5
48
102
{ACAD_XDICTIONARY
360
C0A
102
}
330
2
100
AcDbSymbolTableRecord
100
AcDbLayerTableRecord
  2
ADD_LINE
 70
     0
 62
     7
  6
CONTINUOUS
370
    -3
390
F
347
BC4
348
0
  0
ENDTAB
  0
TABLE
  2
STYLE
  5
3
330
0
100
AcDbSymbolTable
 70
     3
  0
STYLE
  5
11
330
3
100
AcDbSymbolTableRecord
100
AcDbTextStyleTableRecord
  2
STANDARD
 70
     0
 40
0.0
 41
1.0
 50
0.0
 71
     0
 42
0.2
  3
txt
  4
bigfont.shx
  0
STYLE
  5
46
330
3
100
AcDbSymbolTableRecord
100
AcDbTextStyleTableRecord
  2
TATEGAKI
 70
     0
 40
0.0
 41
1.0
 50
0.0
 71
     0
 42
1.0
  3
JSSPGOT.TTF
  4

1001
ACAD
1000
JSSGothic-Md
1071
    32785
  0
STYLE
  5
244
330
3
100
AcDbSymbolTableRecord
100
AcDbTextStyleTableRecord
  2
MSゴシック
 70
     0
 40
0.0
 41
0.8
 50
0.0
 71
     0
 42
0.2
  3

  4

1001
ACAD
1000
MS Gothic
1071
    32817
  0
ENDTAB
  0
TABLE
  2
VIEW
  5
6
330
0
100
AcDbSymbolTable
 70
     0
  0
ENDTAB
  0
TABLE
  2
UCS
  5
7
330
0
100
AcDbSymbolTable
 70
     0
  0
ENDTAB
  0
TABLE
  2
APPID
  5
9
330
0
100
AcDbSymbolTable
 70
     2
  0
APPID
  5
12
330
9
100
AcDbSymbolTableRecord
100
AcDbRegAppTableRecord
  2
ACAD
 70
     0
  0
APPID
  5
C15
330
9
100
AcDbSymbolTableRecord
100
AcDbRegAppTableRecord
  2
ACAD_NAV_VCDISPLAY
 70
     0
  0
ENDTAB
  0
TABLE
  2
DIMSTYLE
  5
A
330
0
100
AcDbSymbolTable
 70
     1
100
AcDbDimStyleTable
 71
     0
  0
DIMSTYLE
105
22B
330
A
100
AcDbSymbolTableRecord
100
AcDbDimStyleTableRecord
  2
Standard
 70
     0
340
11
  0
ENDTAB
  0
TABLE
  2
BLOCK_RECORD
  5
1
330
0
100
AcDbSymbolTable
 70
     0
  0
BLOCK_RECORD
  5
20
330
1
100
AcDbSymbolTableRecord
100
AcDbBlockTableRecord
  2
*Model_Space
340
23
 70
     0
280
     1
281
     0
  0
BLOCK_RECORD
  5
1C
330
1
100
AcDbSymbolTableRecord
100
AcDbBlockTableRecord
  2
*Paper_Space
340
1F
 70
     0
280
     1
281
     0
  0
ENDTAB
  0
ENDSEC
  0
SECTION
  2
BLOCKS
  0
BLOCK
  5
21
330
20
100
AcDbEntity
  8
0
100
AcDbBlockBegin
  2
*Model_Space
 70
     0
 10
0.0
 20
0.0
 30
0.0
  3
*Model_Space
  1

  0
ENDBLK
  5
22
330
20
100
AcDbEntity
  8
0
100
AcDbBlockEnd
  0
BLOCK
  5
1D
330
1C
100
AcDbEntity
 67
     1
  8
0
100
AcDbBlockBegin
  2
*Paper_Space
 70
     0
 10
0.0
 20
0.0
 30
0.0
  3
*Paper_Space
  1

  0
ENDBLK
  5
1E
330
1C
100
AcDbEntity
 67
     1
  8
0
100
AcDbBlockEnd
  0
ENDSEC
  0
SECTION
  2
ENTITIES
  0
LINE
  5
4C
330
20
100
AcDbEntity
  8
_0-0_
  6
Continuous
 62
   136
100
AcDbLine
 10
1975.0
 20
252.5
 30
0.0
 11
1364.721522677695
 21
252.5
 31
0.0
  0
LINE
  5
4D
330
20
100
AcDbEntity
  8
_0-0_
  6
Continuous
 62
   136
100
AcDbLine
 10
1975.0
 20
1142.5
 30
0.0
 11
1975.0
 21
252.5
 31
0.0
  0
TEXT
  5
4E
330
20
100
AcDbEntity
  8
_0-0_
 62
     7
100
AcDbText
 10
1878.328691820371
 20
1151.239083071345
 30
0.0
 40
40.0
  1
ｍｍ
 41
0.8
  7
MSゴシック
100
AcDbText
  0
TEXT
  5
4F
330
20
100
AcDbEntity
  8
_0-0_
 62
     7
100
AcDbText
 10
1783.523191815394
 20
1151.130133820118
 30
0.0
 40
40.0
  1
単位
 41
0.8
  7
MSゴシック
100
AcDbText
  0
LINE
  5
51
330
20
100
AcDbEntity
  8
_0-0_
  6
Continuous
 62
     3
100
AcDbLine
 10
510.0
 20
1142.5
 30
0.0
 11
510.0
 21
252.5
 31
0.0
  0
TEXT
  5
52
330
20
100
AcDbEntity
  8
_0-0_
 62
     7
100
AcDbText
 10
386.25
 20
618.75
 30
0.0
 40
45.0
  1
250A
 41
0.8
  7
MSゴシック
100
AcDbText
  0
TEXT
  5
53
330
20
100
AcDbEntity
  8
_0-0_
 62
     7
100
AcDbText
 10
386.25
 20
536.2499999999999
 30
0.0
 40
45.0
  1
250B
 41
0.8
  7
MSゴシック
100
AcDbText
  0
TEXT
  5
54
330
20
100
AcDbEntity
  8
_0-0_
 62
     7
100
AcDbText
 10
386.25
 20
453.75
 30
0.0
 40
45.0
  1
300 
 41
0.8
  7
MSゴシック
100
AcDbText
  0
TEXT
  5
55
330
20
100
AcDbEntity
  8
_0-0_
 62
     7
100
AcDbText
 10
386.25
 20
371.25
 30
0.0
 40
45.0
  1
350 
 41
0.8
  7
MSゴシック
100
AcDbText
  0
TEXT
  5
56
330
20
100
AcDbEntity
  8
_0-0_
 62
     7
100
AcDbText
 10
280.0
 20
275.0
 30
0.0
 40
40.0
  1
許容差
 41
0.8
  7
MSゴシック
100
AcDbText
  0
TEXT
  5
57
330
20
100
AcDbEntity
  8
_0-0_
 62
     7
100
AcDbText
 10
237.5
 20
495.0
 30
0.0
 40
45.0
  1
１種
 41
0.8
  7
MSゴシック
100
AcDbText
  0
LINE
  5
58
330
20
100
AcDbEntity
  8
_0-0_
  6
Continuous
 62
     3
100
AcDbLine
 10
360.0
 20
697.5
 30
0.0
 11
360.0
 21
337.5
 31
0.0
  0
TEXT
  5
59
330
20
100
AcDbEntity
  8
_0-0_
 62
     7
100
AcDbText
 10
311.25
 20
730.0
 30
0.0
 40
45.0
  1
250B
 41
0.8
  7
MSゴシック
100
AcDbText
  0
TEXT
  5
5A
330
20
100
AcDbEntity
  8
_0-0_
 62
     7
100
AcDbText
 10
311.25
 20
810.0
 30
0.0
 40
45.0
  1
250A
 41
0.8
  7
MSゴシック
100
AcDbText
  0
LINE
  5
5B
330
20
100
AcDbEntity
  8
_0-0_
  6
Continuous
 62
   136
100
AcDbLine
 10
1975.0
 20
1142.5
 30
0.0
 11
210.0
 21
1142.5
 31
0.0
  0
LINE
  5
5C
330
20
100
AcDbEntity
  8
_0-0_
  6
Continuous
 62
   136
100
AcDbLine
 10
210.0
 20
1142.5
 30
0.0
 11
210.0
 21
252.5
 31
0.0
  0
LINE
  5
5D
330
20
100
AcDbEntity
  8
_0-0_
  6
Continuous
 62
   136
100
AcDbLine
 10
1364.721522677695
 20
252.5
 30
0.0
 11
210.0
 21
252.5
 31
0.0
  0
LINE
  5
5E
330
20
100
AcDbEntity
  8
_0-0_
  6
Continuous
 62
     3
100
AcDbLine
 10
607.6666666666667
 20
1062.5
 30
0.0
 11
607.6666666666667
 21
252.5
 31
0.0
  0
LINE
  5
5F
330
20
100
AcDbEntity
  8
_0-0_
  6
Continuous
 62
     3
100
AcDbLine
 10
705.3333333333336
 20
1062.5
 30
0.0
 11
705.3333333333336
 21
252.5
 31
0.0
  0
LINE
  5
60
330
20
100
AcDbEntity
  8
_0-0_
  6
Continuous
 62
     3
100
AcDbLine
 10
803.0000000000002
 20
1062.5
 30
0.0
 11
803.0000000000002
 21
252.5
 31
0.0
  0
LINE
  5
61
330
20
100
AcDbEntity
  8
_0-0_
  6
Continuous
 62
     3
100
AcDbLine
 10
900.6666666666673
 20
1062.5
 30
0.0
 11
900.6666666666673
 21
252.5
 31
0.0
  0
LINE
  5
62
330
20
100
AcDbEntity
  8
_0-0_
  6
Continuous
 62
     3
100
AcDbLine
 10
998.3333333333336
 20
1062.5
 30
0.0
 11
998.3333333333336
 21
252.5
 31
0.0
  0
LINE
  5
63
330
20
100
AcDbEntity
  8
_0-0_
  6
Continuous
 62
     3
100
AcDbLine
 10
1193.666666666667
 20
1062.5
 30
0.0
 11
1193.666666666667
 21
252.5
 31
0.0
  0
LINE
  5
64
330
20
100
AcDbEntity
  8
_0-0_
  6
Continuous
 62
     3
100
AcDbLine
 10
1291.333333333334
 20
1062.5
 30
0.0
 11
1291.333333333334
 21
252.5
 31
0.0
  0
LINE
  5
65
330
20
100
AcDbEntity
  8
_0-0_
  6
Continuous
 62
     3
100
AcDbLine
 10
1389.000000000001
 20
347.4571849449227
 30
0.0
 11
1389.000000000001
 21
337.5
 31
0.0
  0
LINE
  5
66
330
20
100
AcDbEntity
  8
_0-0_
  6
Continuous
 62
     3
100
AcDbLine
 10
1389.000000000001
 20
1062.5
 30
0.0
 11
1389.000000000001
 21
252.5
 31
0.0
  0
LINE
  5
67
330
20
100
AcDbEntity
  8
_0-0_
  6
Continuous
 62
     3
100
AcDbLine
 10
1486.666666666667
 20
1142.5
 30
0.0
 11
1486.666666666667
 21
252.5
 31
0.0
  0
LINE
  5
68
330
20
100
AcDbEntity
  8
_0-0_
  6
Continuous
 62
     3
100
AcDbLine
 10
1584.333333333333
 20
997.4999999999999
 30
0.0
 11
1584.333333333333
 21
337.5
 31
0.0
  0
LINE
  5
69
330
20
100
AcDbEntity
  8
_0-0_
  6
Continuous
 62
     3
100
AcDbLine
 10
1682.000000000001
 20
1062.5
 30
0.0
 11
1682.000000000001
 21
337.5
 31
0.0
  0
LINE
  5
6A
330
20
100
AcDbEntity
  8
_0-0_
  6
Continuous
 62
     3
100
AcDbLine
 10
1779.666666666667
 20
997.4999999999999
 30
0.0
 11
1779.666666666667
 21
337.5
 31
0.0
  0
LINE
  5
6B
330
20
100
AcDbEntity
  8
_0-0_
  6
Continuous
 62
     3
100
AcDbLine
 10
1877.333333333333
 20
1142.5
 30
0.0
 11
1877.333333333333
 21
337.5
 31
0.0
  0
LINE
  5
6C
330
20
100
AcDbEntity
  8
_0-0_
  6
Continuous
 62
     3
100
AcDbLine
 10
1096.0
 20
1062.5
 30
0.0
 11
1096.0
 21
252.5
 31
0.0
  0
LINE
  5
6D
330
20
100
AcDbEntity
  8
_0-0_
  6
Continuous
 62
     3
100
AcDbLine
 10
1975.0
 20
337.5
 30
0.0
 11
210.0
 21
337.5
 31
0.0
  0
LINE
  5
6E
330
20
100
AcDbEntity
  8
_0-0_
  6
Continuous
 62
     3
100
AcDbLine
 10
1975.0
 20
697.5
 30
0.0
 11
210.0
 21
697.5
 31
0.0
  0
LINE
  5
6F
330
20
100
AcDbEntity
  8
_0-0_
  6
Continuous
 62
     3
100
AcDbLine
 10
1975.0
 20
887.5
 30
0.0
 11
210.0
 21
887.5
 31
0.0
  0
TEXT
  5
70
330
20
100
AcDbEntity
  8
_0-0_
 62
     7
100
AcDbText
 10
525.0833333333332
 20
371.25
 30
0.0
 40
45.0
  1
350
 41
0.8
  7
MSゴシック
100
AcDbText
  0
TEXT
  5
71
330
20
100
AcDbEntity
  8
_0-0_
 62
     7
100
AcDbText
 10
1111.083333333333
 20
453.75
 30
0.0
 40
45.0
  1
155
 41
0.8
  7
MSゴシック
100
AcDbText
  0
TEXT
  5
72
330
20
100
AcDbEntity
  8
_0-0_
 62
     7
100
AcDbText
 10
1111.083333333333
 20
371.25
 30
0.0
 40
45.0
  1
155
 41
0.8
  7
MSゴシック
100
AcDbText
  0
TEXT
  5
73
330
20
100
AcDbEntity
  8
_0-0_
 62
     7
100
AcDbText
 10
1013.416666666667
 20
371.25
 30
0.0
 40
45.0
  1
100
 41
0.8
  7
MSゴシック
100
AcDbText
  0
TEXT
  5
74
330
20
100
AcDbEntity
  8
_0-0_
 62
     7
100
AcDbText
 10
1013.416666666667
 20
453.75
 30
0.0
 40
45.0
  1
100
 41
0.8
  7
MSゴシック
100
AcDbText
  0
TEXT
  5
75
330
20
100
AcDbEntity
  8
_0-0_
 62
     7
100
AcDbText
 10
1013.416666666667
 20
536.2499999999999
 30
0.0
 40
45.0
  1
100
 41
0.8
  7
MSゴシック
100
AcDbText
  0
TEXT
  5
76
330
20
100
AcDbEntity
  8
_0-0_
 62
     7
100
AcDbText
 10
1013.416666666667
 20
618.75
 30
0.0
 40
45.0
  1
100
 41
0.8
  7
MSゴシック
100
AcDbText
  0
TEXT
  5
77
330
20
100
AcDbEntity
  8
_0-0_
 62
     7
100
AcDbText
 10
927.0000000000003
 20
618.75
 30
0.0
 40
45.0
  1
55
 41
0.8
  7
MSゴシック
100
AcDbText
  0
TEXT
  5
78
330
20
100
AcDbEntity
  8
_0-0_
 62
     7
100
AcDbText
 10
927.0000000000003
 20
536.2499999999999
 30
0.0
 40
45.0
  1
55
 41
0.8
  7
MSゴシック
100
AcDbText
  0
TEXT
  5
79
330
20
100
AcDbEntity
  8
_0-0_
 62
     7
100
AcDbText
 10
927.0000000000003
 20
453.75
 30
0.0
 40
45.0
  1
55
 41
0.8
  7
MSゴシック
100
AcDbText
  0
TEXT
  5
7A
330
20
100
AcDbEntity
  8
_0-0_
 62
     7
100
AcDbText
 10
927.0000000000003
 20
371.25
 30
0.0
 40
45.0
  1
55
 41
0.8
  7
MSゴシック
100
AcDbText
  0
TEXT
  5
7B
330
20
100
AcDbEntity
  8
_0-0_
 62
     7
100
AcDbText
 10
818.0833333333337
 20
371.25
 30
0.0
 40
45.0
  1
550
 41
0.8
  7
MSゴシック
100
AcDbText
  0
TEXT
  5
7C
330
20
100
AcDbEntity
  8
_0-0_
 62
     7
100
AcDbText
 10
818.0833333333337
 20
453.75
 30
0.0
 40
45.0
  1
500
 41
0.8
  7
MSゴシック
100
AcDbText
  0
TEXT
  5
7D
330
20
100
AcDbEntity
  8
_0-0_
 62
     7
100
AcDbText
 10
818.0833333333337
 20
536.2499999999999
 30
0.0
 40
45.0
  1
450
 41
0.8
  7
MSゴシック
100
AcDbText
  0
TEXT
  5
7E
330
20
100
AcDbEntity
  8
_0-0_
 62
     7
100
AcDbText
 10
818.0833333333337
 20
618.75
 30
0.0
 40
45.0
  1
350
 41
0.8
  7
MSゴシック
100
AcDbText
  0
TEXT
  5
7F
330
20
100
AcDbEntity
  8
_0-0_
 62
     7
100
AcDbText
 10
720.4166666666668
 20
536.2499999999999
 30
0.0
 40
45.0
  1
100
 41
0.8
  7
MSゴシック
100
AcDbText
  0
TEXT
  5
80
330
20
100
AcDbEntity
  8
_0-0_
 62
     7
100
AcDbText
 10
720.4166666666668
 20
453.75
 30
0.0
 40
45.0
  1
100
 41
0.8
  7
MSゴシック
100
AcDbText
  0
TEXT
  5
81
330
20
100
AcDbEntity
  8
_0-0_
 62
     7
100
AcDbText
 10
720.4166666666668
 20
371.25
 30
0.0
 40
45.0
  1
100
 41
0.8
  7
MSゴシック
100
AcDbText
  0
TEXT
  5
82
330
20
100
AcDbEntity
  8
_0-0_
 62
     7
100
AcDbText
 10
622.7500000000003
 20
371.25
 30
0.0
 40
45.0
  1
100
 41
0.8
  7
MSゴシック
100
AcDbText
  0
TEXT
  5
83
330
20
100
AcDbEntity
  8
_0-0_
 62
     7
100
AcDbText
 10
622.7500000000003
 20
453.75
 30
0.0
 40
45.0
  1
100
 41
0.8
  7
MSゴシック
100
AcDbText
  0
TEXT
  5
84
330
20
100
AcDbEntity
  8
_0-0_
 62
     7
100
AcDbText
 10
622.7500000000003
 20
536.2499999999999
 30
0.0
 40
45.0
  1
100
 41
0.8
  7
MSゴシック
100
AcDbText
  0
TEXT
  5
85
330
20
100
AcDbEntity
  8
_0-0_
 62
     7
100
AcDbText
 10
622.7500000000003
 20
618.75
 30
0.0
 40
45.0
  1
100
 41
0.8
  7
MSゴシック
100
AcDbText
  0
TEXT
  5
86
330
20
100
AcDbEntity
  8
_0-0_
 62
     7
100
AcDbText
 10
525.0833333333332
 20
618.75
 30
0.0
 40
45.0
  1
250
 41
0.8
  7
MSゴシック
100
AcDbText
  0
TEXT
  5
87
330
20
100
AcDbEntity
  8
_0-0_
 62
     7
100
AcDbText
 10
525.0833333333332
 20
536.2499999999999
 30
0.0
 40
45.0
  1
250
 41
0.8
  7
MSゴシック
100
AcDbText
  0
TEXT
  5
88
330
20
100
AcDbEntity
  8
_0-0_
 62
     7
100
AcDbText
 10
525.0833333333332
 20
453.75
 30
0.0
 40
45.0
  1
300
 41
0.8
  7
MSゴシック
100
AcDbText
  0
TEXT
  5
89
330
20
100
AcDbEntity
  8
_0-0_
 62
     7
100
AcDbText
 10
1208.75
 20
730.0
 30
0.0
 40
45.0
  1
100
 41
0.8
  7
MSゴシック
100
AcDbText
  0
TEXT
  5
8A
330
20
100
AcDbEntity
  8
_0-0_
 62
     7
100
AcDbText
 10
1111.083333333333
 20
730.0
 30
0.0
 40
45.0
  1
175
 41
0.8
  7
MSゴシック
100
AcDbText
  0
TEXT
  5
8B
330
20
100
AcDbEntity
  8
_0-0_
 62
     7
100
AcDbText
 10
1013.416666666667
 20
730.0
 30
0.0
 40
45.0
  1
100
 41
0.8
  7
MSゴシック
100
AcDbText
  0
TEXT
  5
8C
330
20
100
AcDbEntity
  8
_0-0_
 62
     7
100
AcDbText
 10
927.0000000000003
 20
730.0
 30
0.0
 40
45.0
  1
75
 41
0.8
  7
MSゴシック
100
AcDbText
  0
TEXT
  5
8D
330
20
100
AcDbEntity
  8
_0-0_
 62
     7
100
AcDbText
 10
818.0833333333337
 20
810.0
 30
0.0
 40
45.0
  1
350
 41
0.8
  7
MSゴシック
100
AcDbText
  0
TEXT
  5
8E
330
20
100
AcDbEntity
  8
_0-0_
 62
     7
100
AcDbText
 10
818.0833333333337
 20
730.0
 30
0.0
 40
45.0
  1
450
 41
0.8
  7
MSゴシック
100
AcDbText
  0
TEXT
  5
8F
330
20
100
AcDbEntity
  8
_0-0_
 62
     7
100
AcDbText
 10
720.4166666666668
 20
730.0
 30
0.0
 40
45.0
  1
100
 41
0.8
  7
MSゴシック
100
AcDbText
  0
TEXT
  5
90
330
20
100
AcDbEntity
  8
_0-0_
 62
     7
100
AcDbText
 10
622.7500000000003
 20
730.0
 30
0.0
 40
45.0
  1
100
 41
0.8
  7
MSゴシック
100
AcDbText
  0
TEXT
  5
91
330
20
100
AcDbEntity
  8
_0-0_
 62
     7
100
AcDbText
 10
622.7500000000003
 20
810.0
 30
0.0
 40
45.0
  1
100
 41
0.8
  7
MSゴシック
100
AcDbText
  0
TEXT
  5
92
330
20
100
AcDbEntity
  8
_0-0_
 62
     7
100
AcDbText
 10
525.0833333333332
 20
810.0
 30
0.0
 40
45.0
  1
250
 41
0.8
  7
MSゴシック
100
AcDbText
  0
TEXT
  5
93
330
20
100
AcDbEntity
  8
_0-0_
 62
     7
100
AcDbText
 10
525.0833333333332
 20
730.0
 30
0.0
 40
45.0
  1
250
 41
0.8
  7
MSゴシック
100
AcDbText
  0
TEXT
  5
94
330
20
100
AcDbEntity
  8
_0-0_
 62
     7
100
AcDbText
 10
731.6666666666669
 20
810.0
 30
0.0
 40
45.0
  1
―
 41
0.8
  7
MSゴシック
100
AcDbText
  0
TEXT
  5
95
330
20
100
AcDbEntity
  8
_0-0_
 62
     7
100
AcDbText
 10
536.3333333333332
 20
272.5
 30
0.0
 40
45.0
  1
―
 41
0.8
  7
MSゴシック
100
AcDbText
  0
TEXT
  5
96
330
20
100
AcDbEntity
  8
_0-0_
 62
     7
100
AcDbText
 10
731.6666666666669
 20
272.5
 30
0.0
 40
45.0
  1
―
 41
0.8
  7
MSゴシック
100
AcDbText
  0
TEXT
  5
97
330
20
100
AcDbEntity
  8
_0-0_
 62
     7
100
AcDbText
 10
927.0000000000003
 20
272.5
 30
0.0
 40
45.0
  1
―
 41
0.8
  7
MSゴシック
100
AcDbText
  0
TEXT
  5
98
330
20
100
AcDbEntity
  8
_0-0_
 62
     7
100
AcDbText
 10
1220.0
 20
272.5
 30
0.0
 40
45.0
  1
―
 41
0.8
  7
MSゴシック
100
AcDbText
  0
TEXT
  5
99
330
20
100
AcDbEntity
  8
_0-0_
 62
     7
100
AcDbText
 10
927.0000000000003
 20
810.0
 30
0.0
 40
45.0
  1
75
 41
0.8
  7
MSゴシック
100
AcDbText
  0
TEXT
  5
9A
330
20
100
AcDbEntity
  8
_0-0_
 62
     7
100
AcDbText
 10
1013.416666666667
 20
810.0
 30
0.0
 40
45.0
  1
100
 41
0.8
  7
MSゴシック
100
AcDbText
  0
TEXT
  5
9B
330
20
100
AcDbEntity
  8
_0-0_
 62
     7
100
AcDbText
 10
1111.083333333333
 20
810.0
 30
0.0
 40
45.0
  1
175
 41
0.8
  7
MSゴシック
100
AcDbText
  0
TEXT
  5
9C
330
20
100
AcDbEntity
  8
_0-0_
 62
     7
100
AcDbText
 10
1208.75
 20
810.0
 30
0.0
 40
45.0
  1
100
 41
0.8
  7
MSゴシック
100
AcDbText
  0
TEXT
  5
9D
330
20
100
AcDbEntity
  8
_0-0_
 62
     7
100
AcDbText
 10
1306.416666666667
 20
730.0
 30
0.0
 40
45.0
  1
105
 41
0.8
  7
MSゴシック
100
AcDbText
  0
TEXT
  5
9E
330
20
100
AcDbEntity
  8
_0-0_
 62
     7
100
AcDbText
 10
1317.666666666667
 20
810.0
 30
0.0
 40
45.0
  1
―
 41
0.8
  7
MSゴシック
100
AcDbText
  0
TEXT
  5
9F
330
20
100
AcDbEntity
  8
_0-0_
 62
     7
100
AcDbText
 10
1317.666666666667
 20
618.75
 30
0.0
 40
45.0
  1
―
 41
0.8
  7
MSゴシック
100
AcDbText
  0
TEXT
  5
A0
330
20
100
AcDbEntity
  8
_0-0_
 62
     7
100
AcDbText
 10
1208.75
 20
371.25
 30
0.0
 40
45.0
  1
 90
 41
0.8
  7
MSゴシック
100
AcDbText
  0
TEXT
  5
A1
330
20
100
AcDbEntity
  8
_0-0_
 62
     7
100
AcDbText
 10
1208.75
 20
453.75
 30
0.0
 40
45.0
  1
 85
 41
0.8
  7
MSゴシック
100
AcDbText
  0
TEXT
  5
A2
330
20
100
AcDbEntity
  8
_0-0_
 62
     7
100
AcDbText
 10
1208.75
 20
536.2499999999999
 30
0.0
 40
45.0
  1
 80
 41
0.8
  7
MSゴシック
100
AcDbText
  0
TEXT
  5
A3
330
20
100
AcDbEntity
  8
_0-0_
 62
     7
100
AcDbText
 10
1111.083333333333
 20
618.75
 30
0.0
 40
45.0
  1
155
 41
0.8
  7
MSゴシック
100
AcDbText
  0
TEXT
  5
A4
330
20
100
AcDbEntity
  8
_0-0_
 62
     7
100
AcDbText
 10
1404.083333333333
 20
618.75
 30
0.0
 40
45.0
  1
600
 41
0.8
  7
MSゴシック
100
AcDbText
  0
TEXT
  5
A5
330
20
100
AcDbEntity
  8
_0-0_
 62
     7
100
AcDbText
 10
1404.083333333333
 20
730.0
 30
0.0
 40
45.0
  1
600
 41
0.8
  7
MSゴシック
100
AcDbText
  0
TEXT
  5
A6
330
20
100
AcDbEntity
  8
_0-0_
 62
     7
100
AcDbText
 10
1404.083333333333
 20
810.0
 30
0.0
 40
45.0
  1
600
 41
0.8
  7
MSゴシック
100
AcDbText
  0
TEXT
  5
A7
330
20
100
AcDbEntity
  8
_0-0_
 62
     7
100
AcDbText
 10
1404.083333333333
 20
536.2499999999999
 30
0.0
 40
45.0
  1
600
 41
0.8
  7
MSゴシック
100
AcDbText
  0
TEXT
  5
A8
330
20
100
AcDbEntity
  8
_0-0_
 62
     7
100
AcDbText
 10
1404.083333333333
 20
453.75
 30
0.0
 40
45.0
  1
600
 41
0.8
  7
MSゴシック
100
AcDbText
  0
TEXT
  5
A9
330
20
100
AcDbEntity
  8
_0-0_
 62
     7
100
AcDbText
 10
1406.666666666667
 20
275.0
 30
0.0
 40
40.0
  1
±
 41
0.8
  7
MSゴシック
100
AcDbText
  0
TEXT
  5
AA
330
20
100
AcDbEntity
  8
_0-0_
 62
     7
100
AcDbText
 10
1446.666666666667
 20
275.0
 30
0.0
 40
40.0
  1
3
 41
0.8
  7
MSゴシック
100
AcDbText
  0
TEXT
  5
AB
330
20
100
AcDbEntity
  8
_0-0_
 62
     7
100
AcDbText
 10
1309.0
 20
275.0
 30
0.0
 40
40.0
  1
±
 41
0.8
  7
MSゴシック
100
AcDbText
  0
TEXT
  5
AC
330
20
100
AcDbEntity
  8
_0-0_
 62
     7
100
AcDbText
 10
1349.0
 20
275.0
 30
0.0
 40
40.0
  1
3
 41
0.8
  7
MSゴシック
100
AcDbText
  0
TEXT
  5
AD
330
20
100
AcDbEntity
  8
_0-0_
 62
     7
100
AcDbText
 10
665.3333333333335
 20
275.0
 30
0.0
 40
40.0
  1
2
 41
0.8
  7
MSゴシック
100
AcDbText
  0
TEXT
  5
AE
330
20
100
AcDbEntity
  8
_0-0_
 62
     7
100
AcDbText
 10
625.3333333333336
 20
275.0
 30
0.0
 40
40.0
  1
±
 41
0.8
  7
MSゴシック
100
AcDbText
  0
TEXT
  5
AF
330
20
100
AcDbEntity
  8
_0-0_
 62
     7
100
AcDbText
 10
860.6666666666672
 20
275.0
 30
0.0
 40
40.0
  1
2
 41
0.8
  7
MSゴシック
100
AcDbText
  0
TEXT
  5
B0
330
20
100
AcDbEntity
  8
_0-0_
 62
     7
100
AcDbText
 10
820.6666666666672
 20
275.0
 30
0.0
 40
40.0
  1
±
 41
0.8
  7
MSゴシック
100
AcDbText
  0
TEXT
  5
B1
330
20
100
AcDbEntity
  8
_0-0_
 62
     7
100
AcDbText
 10
1052.333333333333
 20
275.0
 30
0.0
 40
40.0
  1
2
 41
0.8
  7
MSゴシック
100
AcDbText
  0
TEXT
  5
B2
330
20
100
AcDbEntity
  8
_0-0_
 62
     7
100
AcDbText
 10
1012.333333333333
 20
275.0
 30
0.0
 40
40.0
  1
±
 41
0.8
  7
MSゴシック
100
AcDbText
  0
TEXT
  5
B3
330
20
100
AcDbEntity
  8
_0-0_
 62
     7
100
AcDbText
 10
1113.666666666667
 20
275.0
 30
0.0
 40
40.0
  1
±
 41
0.8
  7
MSゴシック
100
AcDbText
  0
TEXT
  5
B4
330
20
100
AcDbEntity
  8
_0-0_
 62
     7
100
AcDbText
 10
1153.666666666667
 20
275.0
 30
0.0
 40
40.0
  1
3
 41
0.8
  7
MSゴシック
100
AcDbText
  0
TEXT
  5
B5
330
20
100
AcDbEntity
  8
_0-0_
 62
     7
100
AcDbText
 10
1590.833333333333
 20
275.0
 30
0.0
 40
40.0
  1
―――――――
 41
0.8
  7
MSゴシック
100
AcDbText
  0
TEXT
  5
B6
330
20
100
AcDbEntity
  8
_0-0_
 62
     7
100
AcDbText
 10
1513.0
 20
810.0
 30
0.0
 40
45.0
  1
―
 41
0.8
  7
MSゴシック
100
AcDbText
  0
TEXT
  5
B7
330
20
100
AcDbEntity
  8
_0-0_
 62
     7
100
AcDbText
 10
1610.666666666667
 20
810.0
 30
0.0
 40
45.0
  1
―
 41
0.8
  7
MSゴシック
100
AcDbText
  0
TEXT
  5
B8
330
20
100
AcDbEntity
  8
_0-0_
 62
     7
100
AcDbText
 10
1708.333333333333
 20
810.0
 30
0.0
 40
45.0
  1
―
 41
0.8
  7
MSゴシック
100
AcDbText
  0
TEXT
  5
B9
330
20
100
AcDbEntity
  8
_0-0_
 62
     7
100
AcDbText
 10
1806.0
 20
810.0
 30
0.0
 40
45.0
  1
―
 41
0.8
  7
MSゴシック
100
AcDbText
  0
TEXT
  5
BA
330
20
100
AcDbEntity
  8
_0-0_
 62
     7
100
AcDbText
 10
1806.0
 20
730.0
 30
0.0
 40
45.0
  1
―
 41
0.8
  7
MSゴシック
100
AcDbText
  0
TEXT
  5
BB
330
20
100
AcDbEntity
  8
_0-0_
 62
     7
100
AcDbText
 10
1708.333333333333
 20
730.0
 30
0.0
 40
45.0
  1
―
 41
0.8
  7
MSゴシック
100
AcDbText
  0
TEXT
  5
BC
330
20
100
AcDbEntity
  8
_0-0_
 62
     7
100
AcDbText
 10
1610.666666666667
 20
730.0
 30
0.0
 40
45.0
  1
―
 41
0.8
  7
MSゴシック
100
AcDbText
  0
TEXT
  5
BD
330
20
100
AcDbEntity
  8
_0-0_
 62
     7
100
AcDbText
 10
1513.0
 20
730.0
 30
0.0
 40
45.0
  1
―
 41
0.8
  7
MSゴシック
100
AcDbText
  0
TEXT
  5
BE
330
20
100
AcDbEntity
  8
_0-0_
 62
     7
100
AcDbText
 10
1518.0
 20
925.0
 30
0.0
 40
35.0
  1
径
 41
0.8
  7
MSゴシック
100
AcDbText
  0
TEXT
  5
BF
330
20
100
AcDbEntity
  8
_0-0_
 62
     7
100
AcDbText
 10
1598.166666666667
 20
952.5
 30
0.0
 40
35.0
  1
数量
 41
0.8
  7
MSゴシック
100
AcDbText
  0
TEXT
  5
C0
330
20
100
AcDbEntity
  8
_0-0_
 62
     7
100
AcDbText
 10
1598.166666666667
 20
902.5
 30
0.0
 40
35.0
  1
(本)
 41
0.8
  7
MSゴシック
100
AcDbText
  0
TEXT
  5
C1
330
20
100
AcDbEntity
  8
_0-0_
 62
     7
100
AcDbText
 10
1713.333333333333
 20
925.0
 30
0.0
 40
35.0
  1
径
 41
0.8
  7
MSゴシック
100
AcDbText
  0
TEXT
  5
C2
330
20
100
AcDbEntity
  8
_0-0_
 62
     7
100
AcDbText
 10
1793.5
 20
952.5
 30
0.0
 40
35.0
  1
数量
 41
0.8
  7
MSゴシック
100
AcDbText
  0
TEXT
  5
C3
330
20
100
AcDbEntity
  8
_0-0_
 62
     7
100
AcDbText
 10
1793.5
 20
902.5
 30
0.0
 40
35.0
  1
(本)
 41
0.8
  7
MSゴシック
100
AcDbText
  0
LINE
  5
C4
330
20
100
AcDbEntity
  8
_0-0_
  6
Continuous
 62
     3
100
AcDbLine
 10
1877.333333333333
 20
997.4999999999999
 30
0.0
 11
1486.666666666667
 21
997.4999999999999
 31
0.0
  0
LINE
  5
C5
330
20
100
AcDbEntity
  8
_0-0_
  6
Continuous
 62
     3
100
AcDbLine
 10
1877.333333333333
 20
1062.5
 30
0.0
 11
510.0
 21
1062.5
 31
0.0
  0
TEXT
  5
C6
330
20
100
AcDbEntity
  8
_0-0_
 62
     7
100
AcDbText
 10
1521.333333333334
 20
1010.0
 30
0.0
 40
40.0
  1
縦鉄筋
 41
0.8
  7
MSゴシック
100
AcDbText
  0
TEXT
  5
C7
330
20
100
AcDbEntity
  8
_0-0_
 62
     7
100
AcDbText
 10
1716.666666666667
 20
1010.0
 30
0.0
 40
40.0
  1
横鉄筋
 41
0.8
  7
MSゴシック
100
AcDbText
  0
TEXT
  5
C8
330
20
100
AcDbEntity
  8
_0-0_
 62
     7
100
AcDbText
 10
1597.5
 20
1082.5
 30
0.0
 40
40.0
  1
配    筋
 41
0.8
  7
MSゴシック
100
AcDbText
  0
TEXT
  5
C9
330
20
100
AcDbEntity
  8
_0-0_
 62
     7
100
AcDbText
 10
235.0
 20
995.0
 30
0.0
 40
40.0
  1
種類及び呼び
 41
0.8
  7
MSゴシック
100
AcDbText
  0
TEXT
  5
CA
330
20
100
AcDbEntity
  8
_0-0_
 62
     7
100
AcDbText
 10
806.3333333333334
 20
1082.5
 30
0.0
 40
40.0
  1
寸              法
 41
0.8
  7
MSゴシック
100
AcDbText
  0
TEXT
  5
CB
330
20
100
AcDbEntity
  8
_0-0_
 62
     7
100
AcDbText
 10
1888.166666666667
 20
1052.5
 30
0.0
 40
40.0
  1
参考
 41
0.8
  7
MSゴシック
100
AcDbText
  0
TEXT
  5
CC
330
20
100
AcDbEntity
  8
_0-0_
 62
     7
100
AcDbText
 10
1887.808518574157
 20
993.7363920260555
 30
0.0
 40
40.0
  1
質量
 41
0.8
  7
MSゴシック
100
AcDbText
  0
TEXT
  5
CD
330
20
100
AcDbEntity
  8
_0-0_
 62
     7
100
AcDbText
 10
1888.130746328251
 20
935.0776560283859
 30
0.0
 40
40.0
  1
(kg)
 41
0.8
  7
MSゴシック
100
AcDbText
  0
TEXT
  5
CE
330
20
100
AcDbEntity
  8
_0-0_
 62
     7
100
AcDbText
 10
536.1666666666667
 20
952.5
 30
0.0
 40
45.0
  1
ａ
 41
0.8
  7
MSゴシック
100
AcDbText
  0
TEXT
  5
CF
330
20
100
AcDbEntity
  8
_0-0_
 62
     7
100
AcDbText
 10
633.8333333333334
 20
952.5
 30
0.0
 40
45.0
  1
ｂ
 41
0.8
  7
MSゴシック
100
AcDbText
  0
TEXT
  5
D0
330
20
100
AcDbEntity
  8
_0-0_
 62
     7
100
AcDbText
 10
731.5000000000003
 20
952.5
 30
0.0
 40
45.0
  1
ｃ
 41
0.8
  7
MSゴシック
100
AcDbText
  0
TEXT
  5
D1
330
20
100
AcDbEntity
  8
_0-0_
 62
     7
100
AcDbText
 10
829.1666666666667
 20
952.5
 30
0.0
 40
45.0
  1
ｄ
 41
0.8
  7
MSゴシック
100
AcDbText
  0
TEXT
  5
D2
330
20
100
AcDbEntity
  8
_0-0_
 62
     7
100
AcDbText
 10
926.8333333333336
 20
952.5
 30
0.0
 40
45.0
  1
ｅ
 41
0.8
  7
MSゴシック
100
AcDbText
  0
TEXT
  5
D3
330
20
100
AcDbEntity
  8
_0-0_
 62
     7
100
AcDbText
 10
1020.833333333333
 20
952.5
 30
0.0
 40
45.0
  1
ｆ
 41
0.8
  7
MSゴシック
100
AcDbText
  0
TEXT
  5
D4
330
20
100
AcDbEntity
  8
_0-0_
 62
     7
100
AcDbText
 10
1122.166666666667
 20
952.5
 30
0.0
 40
45.0
  1
ｇ
 41
0.8
  7
MSゴシック
100
AcDbText
  0
TEXT
  5
D5
330
20
100
AcDbEntity
  8
_0-0_
 62
     7
100
AcDbText
 10
1219.833333333333
 20
952.5
 30
0.0
 40
45.0
  1
ｈ
 41
0.8
  7
MSゴシック
100
AcDbText
  0
TEXT
  5
D6
330
20
100
AcDbEntity
  8
_0-0_
 62
     7
100
AcDbText
 10
1317.5
 20
952.5
 30
0.0
 40
45.0
  1
ｉ
 41
0.8
  7
MSゴシック
100
AcDbText
  0
TEXT
  5
EC
330
20
100
AcDbEntity
  8
_0-0_
 62
     7
100
AcDbText
 10
1902.416666666667
 20
810.0
 30
0.0
 40
45.0
  1
54
 41
0.8
  7
MSゴシック
100
AcDbText
  0
TEXT
  5
ED
330
20
100
AcDbEntity
  8
_0-0_
 62
     7
100
AcDbText
 10
1902.416666666667
 20
730.0
 30
0.0
 40
45.0
  1
69
 41
0.8
  7
MSゴシック
100
AcDbText
  0
TEXT
  5
EE
330
20
100
AcDbEntity
  8
_0-0_
 62
     7
100
AcDbText
 10
1902.416666666667
 20
618.75
 30
0.0
 40
45.0
  1
47
 41
0.8
  7
MSゴシック
100
AcDbText
  0
TEXT
  5
EF
330
20
100
AcDbEntity
  8
_0-0_
 62
     7
100
AcDbText
 10
1902.416666666667
 20
536.2499999999999
 30
0.0
 40
45.0
  1
59
 41
0.8
  7
MSゴシック
100
AcDbText
  0
TEXT
  5
F0
330
20
100
AcDbEntity
  8
_0-0_
 62
     7
100
AcDbText
 10
1902.416666666667
 20
453.75
 30
0.0
 40
45.0
  1
65
 41
0.8
  7
MSゴシック
100
AcDbText
  0
TEXT
  5
F1
330
20
100
AcDbEntity
  8
_0-0_
 62
     7
100
AcDbText
 10
1902.416666666667
 20
371.25
 30
0.0
 40
45.0
  1
72
 41
0.8
  7
MSゴシック
100
AcDbText
  0
TEXT
  5
F2
330
20
100
AcDbEntity
  8
_0-0_
 62
     7
100
AcDbText
 10
1817.25
 20
371.25
 30
0.0
 40
45.0
  1
5
 41
0.8
  7
MSゴシック
100
AcDbText
  0
TEXT
  5
F3
330
20
100
AcDbEntity
  8
_0-0_
 62
     7
100
AcDbText
 10
1817.25
 20
453.75
 30
0.0
 40
45.0
  1
6
 41
0.8
  7
MSゴシック
100
AcDbText
  0
TEXT
  5
F4
330
20
100
AcDbEntity
  8
_0-0_
 62
     7
100
AcDbText
 10
1817.25
 20
536.2499999999999
 30
0.0
 40
45.0
  1
5
 41
0.8
  7
MSゴシック
100
AcDbText
  0
TEXT
  5
F5
330
20
100
AcDbEntity
  8
_0-0_
 62
     7
100
AcDbText
 10
1817.25
 20
618.75
 30
0.0
 40
45.0
  1
5
 41
0.8
  7
MSゴシック
100
AcDbText
  0
TEXT
  5
F6
330
20
100
AcDbEntity
  8
_0-0_
 62
     7
100
AcDbText
 10
1621.916666666667
 20
618.75
 30
0.0
 40
45.0
  1
4
 41
0.8
  7
MSゴシック
100
AcDbText
  0
TEXT
  5
F7
330
20
100
AcDbEntity
  8
_0-0_
 62
     7
100
AcDbText
 10
1621.916666666667
 20
536.2499999999999
 30
0.0
 40
45.0
  1
5
 41
0.8
  7
MSゴシック
100
AcDbText
  0
TEXT
  5
F8
330
20
100
AcDbEntity
  8
_0-0_
 62
     7
100
AcDbText
 10
1621.916666666667
 20
453.75
 30
0.0
 40
45.0
  1
5
 41
0.8
  7
MSゴシック
100
AcDbText
  0
TEXT
  5
F9
330
20
100
AcDbEntity
  8
_0-0_
 62
     7
100
AcDbText
 10
1621.916666666667
 20
371.25
 30
0.0
 40
45.0
  1
5
 41
0.8
  7
MSゴシック
100
AcDbText
  0
TEXT
  5
FA
330
20
100
AcDbEntity
  8
_0-0_
 62
     7
100
AcDbText
 10
1707.083333333333
 20
371.25
 30
0.0
 40
45.0
  1
D6
 41
0.8
  7
MSゴシック
100
AcDbText
  0
TEXT
  5
FB
330
20
100
AcDbEntity
  8
_0-0_
 62
     7
100
AcDbText
 10
1529.427120237116
 20
618.7176542776996
 30
0.0
 40
45.0
  1
.
 41
0.8
  7
MSゴシック
100
AcDbText
  0
TEXT
  5
FC
330
20
100
AcDbEntity
  8
_0-0_
 62
     7
100
AcDbText
 10
1542.455842918065
 20
618.6661155807029
 30
0.0
 40
45.0
  1
0
 41
0.8
  7
MSゴシック
100
AcDbText
  0
TEXT
  5
FD
330
20
100
AcDbEntity
  8
_0-0_
 62
     7
100
AcDbText
 10
1529.427120237116
 20
536.2176542776997
 30
0.0
 40
45.0
  1
.
 41
0.8
  7
MSゴシック
100
AcDbText
  0
TEXT
  5
FE
330
20
100
AcDbEntity
  8
_0-0_
 62
     7
100
AcDbText
 10
1542.455842918065
 20
536.1661155807029
 30
0.0
 40
45.0
  1
0
 41
0.8
  7
MSゴシック
100
AcDbText
  0
TEXT
  5
FF
330
20
100
AcDbEntity
  8
_0-0_
 62
     7
100
AcDbText
 10
1529.427120237116
 20
453.7176542776996
 30
0.0
 40
45.0
  1
.
 41
0.8
  7
MSゴシック
100
AcDbText
  0
TEXT
  5
100
330
20
100
AcDbEntity
  8
_0-0_
 62
     7
100
AcDbText
 10
1542.455842918065
 20
453.6661155807029
 30
0.0
 40
45.0
  1
0
 41
0.8
  7
MSゴシック
100
AcDbText
  0
TEXT
  5
101
330
20
100
AcDbEntity
  8
_0-0_
 62
     7
100
AcDbText
 10
1529.427120237116
 20
371.2176542776997
 30
0.0
 40
45.0
  1
.
 41
0.8
  7
MSゴシック
100
AcDbText
  0
TEXT
  5
102
330
20
100
AcDbEntity
  8
_0-0_
 62
     7
100
AcDbText
 10
1542.455842918065
 20
371.1661155807029
 30
0.0
 40
45.0
  1
0
 41
0.8
  7
MSゴシック
100
AcDbText
  0
TEXT
  5
103
330
20
100
AcDbEntity
  8
_0-0_
 62
     7
100
AcDbText
 10
1507.331018086579
 20
371.25
 30
0.0
 40
45.0
  1
4
 41
0.8
  7
MSゴシック
100
AcDbText
  0
TEXT
  5
104
330
20
100
AcDbEntity
  8
_0-0_
 62
     7
100
AcDbText
 10
1507.331018086579
 20
453.75
 30
0.0
 40
45.0
  1
4
 41
0.8
  7
MSゴシック
100
AcDbText
  0
TEXT
  5
105
330
20
100
AcDbEntity
  8
_0-0_
 62
     7
100
AcDbText
 10
1507.331018086579
 20
536.2499999999999
 30
0.0
 40
45.0
  1
4
 41
0.8
  7
MSゴシック
100
AcDbText
  0
TEXT
  5
106
330
20
100
AcDbEntity
  8
_0-0_
 62
     7
100
AcDbText
 10
1507.331018086579
 20
618.75
 30
0.0
 40
45.0
  1
4
 41
0.8
  7
MSゴシック
100
AcDbText
  0
TEXT
  5
107
330
20
100
AcDbEntity
  8
_0-0_
 62
     7
100
AcDbText
 10
1724.76045357045
 20
618.7176542776996
 30
0.0
 40
45.0
  1
.
 41
0.8
  7
MSゴシック
100
AcDbText
  0
TEXT
  5
108
330
20
100
AcDbEntity
  8
_0-0_
 62
     7
100
AcDbText
 10
1737.789176251398
 20
618.6661155807029
 30
0.0
 40
45.0
  1
0
 41
0.8
  7
MSゴシック
100
AcDbText
  0
TEXT
  5
109
330
20
100
AcDbEntity
  8
_0-0_
 62
     7
100
AcDbText
 10
1724.76045357045
 20
536.2176542776997
 30
0.0
 40
45.0
  1
.
 41
0.8
  7
MSゴシック
100
AcDbText
  0
TEXT
  5
10A
330
20
100
AcDbEntity
  8
_0-0_
 62
     7
100
AcDbText
 10
1737.789176251398
 20
536.1661155807029
 30
0.0
 40
45.0
  1
0
 41
0.8
  7
MSゴシック
100
AcDbText
  0
TEXT
  5
10B
330
20
100
AcDbEntity
  8
_0-0_
 62
     7
100
AcDbText
 10
1724.76045357045
 20
453.7176542776996
 30
0.0
 40
45.0
  1
.
 41
0.8
  7
MSゴシック
100
AcDbText
  0
TEXT
  5
10C
330
20
100
AcDbEntity
  8
_0-0_
 62
     7
100
AcDbText
 10
1737.789176251398
 20
453.6661155807029
 30
0.0
 40
45.0
  1
0
 41
0.8
  7
MSゴシック
100
AcDbText
  0
TEXT
  5
10D
330
20
100
AcDbEntity
  8
_0-0_
 62
     7
100
AcDbText
 10
1702.664351419912
 20
453.75
 30
0.0
 40
45.0
  1
4
 41
0.8
  7
MSゴシック
100
AcDbText
  0
TEXT
  5
10E
330
20
100
AcDbEntity
  8
_0-0_
 62
     7
100
AcDbText
 10
1702.664351419912
 20
536.2499999999999
 30
0.0
 40
45.0
  1
4
 41
0.8
  7
MSゴシック
100
AcDbText
  0
TEXT
  5
10F
330
20
100
AcDbEntity
  8
_0-0_
 62
     7
100
AcDbText
 10
1702.664351419912
 20
618.75
 30
0.0
 40
45.0
  1
4
 41
0.8
  7
MSゴシック
100
AcDbText
  0
TEXT
  5
110
330
20
100
AcDbEntity
  8
_0-0_
 62
     7
100
AcDbText
 10
1208.75
 20
618.75
 30
0.0
 40
45.0
  1
 80
 41
0.8
  7
MSゴシック
100
AcDbText
  0
TEXT
  5
111
330
20
100
AcDbEntity
  8
_0-0_
 62
     7
100
AcDbText
 10
1111.083333333333
 20
536.2499999999999
 30
0.0
 40
45.0
  1
155
 41
0.8
  7
MSゴシック
100
AcDbText
  0
TEXT
  5
112
330
20
100
AcDbEntity
  8
_0-0_
 62
     7
100
AcDbText
 10
1306.416666666667
 20
536.2499999999999
 30
0.0
 40
45.0
  1
 85
 41
0.8
  7
MSゴシック
100
AcDbText
  0
TEXT
  5
113
330
20
100
AcDbEntity
  8
_0-0_
 62
     7
100
AcDbText
 10
1306.416666666667
 20
453.75
 30
0.0
 40
45.0
  1
 90
 41
0.8
  7
MSゴシック
100
AcDbText
  0
TEXT
  5
114
330
20
100
AcDbEntity
  8
_0-0_
 62
     7
100
AcDbText
 10
1306.416666666667
 20
371.25
 30
0.0
 40
45.0
  1
 95
 41
0.8
  7
MSゴシック
100
AcDbText
  0
TEXT
  5
115
330
20
100
AcDbEntity
  8
_0-0_
 62
     7
100
AcDbText
 10
1404.083333333333
 20
371.25
 30
0.0
 40
45.0
  1
600
 41
0.8
  7
MSゴシック
100
AcDbText
  0
LINE
  5
116
330
20
100
AcDbEntity
  8
_0-0_
  6
Continuous
 62
     6
100
AcDbLine
 10
1975.0
 20
1420.0
 30
0.0
 11
1975.0
 21
2580.0
 31
0.0
  0
LINE
  5
117
330
20
100
AcDbEntity
  8
_0-0_
  6
Continuous
 62
     6
100
AcDbLine
 10
210.0
 20
2580.0
 30
0.0
 11
210.0
 21
1420.0
 31
0.0
  0
LINE
  5
118
330
20
100
AcDbEntity
  8
_0-0_
  6
Continuous
 62
     6
100
AcDbLine
 10
1975.0
 20
1420.0
 30
0.0
 11
210.0
 21
1420.0
 31
0.0
  0
LINE
  5
119
330
20
100
AcDbEntity
  8
_0-0_
  6
Continuous
 62
     6
100
AcDbLine
 10
1975.0
 20
2580.0
 30
0.0
 11
210.0
 21
2580.0
 31
0.0
  0
LINE
  5
11A
330
20
100
AcDbEntity
  8
_0-0_
  6
Continuous
 62
     5
100
AcDbLine
 10
934.0927916831816
 20
1686.57569163421
 30
0.0
 11
934.0927916831816
 21
1601.57569163421
 31
0.0
  0
LINE
  5
11B
330
20
100
AcDbEntity
  8
_0-0_
  6
Continuous
 62
     5
100
AcDbLine
 10
934.0927916831816
 20
1686.57569163421
 30
0.0
 11
834.0927916831816
 21
1681.57569163421
 31
0.0
  0
LINE
  5
11C
330
20
100
AcDbEntity
  8
_0-0_
  6
Continuous
 62
     5
100
AcDbLine
 10
606.0828660636015
 20
1658.774699072252
 30
0.0
 11
834.0927916831816
 21
1681.57569163421
 31
0.0
  0
ARC
  5
11D
330
20
100
AcDbEntity
  8
_0-0_
  6
Continuous
 62
     5
100
AcDbCircle
 10
564.0927916831811
 20
1736.57569163421
 30
0.0
 40
20.0
100
AcDbArc
 50
0.0
 51
90.00000000000003
  0
LINE
  5
11E
330
20
100
AcDbEntity
  8
_0-0_
  6
Continuous
 62
     4
100
AcDbLine
 10
374.0927916831814
 20
1756.575691634211
 30
0.0
 11
377.9750773597195
 21
1742.086804239874
 31
0.0
  0
LINE
  5
11F
330
20
100
AcDbEntity
  8
_0-0_
  6
Continuous
 62
     4
100
AcDbLine
 10
374.0927916831814
 20
1756.575691634211
 30
0.0
 11
370.2105060066438
 21
1742.086804239874
 31
0.0
  0
LINE
  5
120
330
20
100
AcDbEntity
  8
_0-0_
  6
Continuous
 62
     4
100
AcDbLine
 10
424.0927916831813
 20
1756.575691634211
 30
0.0
 11
424.0927916831813
 21
1656.57569163421
 31
0.0
  0
LINE
  5
121
330
20
100
AcDbEntity
  8
_0-0_
  6
Continuous
 62
     4
100
AcDbLine
 10
474.0927916831814
 20
1756.575691634211
 30
0.0
 11
364.0927916831814
 21
1756.575691634211
 31
0.0
  0
LINE
  5
122
330
20
100
AcDbEntity
  8
_0-0_
  6
Continuous
 62
     4
100
AcDbLine
 10
484.0927916831813
 20
1816.57569163421
 30
0.0
 11
584.0927916831812
 21
1816.57569163421
 31
0.0
  0
LINE
  5
123
330
20
100
AcDbEntity
  8
_0-0_
  6
Continuous
 62
     4
100
AcDbLine
 10
834.0927916831816
 20
1816.57569163421
 30
0.0
 11
934.0927916831816
 21
1816.57569163421
 31
0.0
  0
LINE
  5
124
330
20
100
AcDbEntity
  8
_0-0_
  6
Continuous
 62
     4
100
AcDbLine
 10
834.0927916831816
 20
1816.57569163421
 30
0.0
 11
584.0927916831812
 21
1816.57569163421
 31
0.0
  0
LINE
  5
125
330
20
100
AcDbEntity
  8
_0-0_
  6
Continuous
 62
     4
100
AcDbLine
 10
484.0927916831813
 20
1816.57569163421
 30
0.0
 11
498.5816790775177
 21
1820.457977310748
 31
0.0
  0
LINE
  5
126
330
20
100
AcDbEntity
  8
_0-0_
  6
Continuous
 62
     4
100
AcDbLine
 10
484.0927916831813
 20
1816.57569163421
 30
0.0
 11
498.5816790775177
 21
1812.693405957672
 31
0.0
  0
LINE
  5
127
330
20
100
AcDbEntity
  8
_0-0_
  6
Continuous
 62
     4
100
AcDbLine
 10
584.0927916831812
 20
1816.57569163421
 30
0.0
 11
569.6039042888456
 21
1812.693405957672
 31
0.0
  0
LINE
  5
128
330
20
100
AcDbEntity
  8
_0-0_
  6
Continuous
 62
     4
100
AcDbLine
 10
584.0927916831812
 20
1816.57569163421
 30
0.0
 11
569.6039042888456
 21
1820.457977310748
 31
0.0
  0
LINE
  5
129
330
20
100
AcDbEntity
  8
_0-0_
  6
Continuous
 62
     4
100
AcDbLine
 10
584.0927916831812
 20
1816.57569163421
 30
0.0
 11
598.5816790775175
 21
1820.457977310748
 31
0.0
  0
LINE
  5
12A
330
20
100
AcDbEntity
  8
_0-0_
  6
Continuous
 62
     4
100
AcDbLine
 10
584.0927916831812
 20
1816.57569163421
 30
0.0
 11
598.5816790775175
 21
1812.693405957672
 31
0.0
  0
LINE
  5
12B
330
20
100
AcDbEntity
  8
_0-0_
  6
Continuous
 62
     4
100
AcDbLine
 10
834.0927916831816
 20
1816.57569163421
 30
0.0
 11
819.6039042888456
 21
1812.693405957672
 31
0.0
  0
LINE
  5
12C
330
20
100
AcDbEntity
  8
_0-0_
  6
Continuous
 62
     4
100
AcDbLine
 10
834.0927916831816
 20
1816.57569163421
 30
0.0
 11
819.6039042888456
 21
1820.457977310748
 31
0.0
  0
LINE
  5
12D
330
20
100
AcDbEntity
  8
_0-0_
  6
Continuous
 62
     4
100
AcDbLine
 10
834.0927916831816
 20
1816.57569163421
 30
0.0
 11
848.5816790775176
 21
1820.457977310748
 31
0.0
  0
LINE
  5
12E
330
20
100
AcDbEntity
  8
_0-0_
  6
Continuous
 62
     4
100
AcDbLine
 10
834.0927916831816
 20
1816.57569163421
 30
0.0
 11
848.5816790775176
 21
1812.693405957672
 31
0.0
  0
LINE
  5
12F
330
20
100
AcDbEntity
  8
_0-0_
  6
Continuous
 62
     4
100
AcDbLine
 10
934.0927916831816
 20
1816.57569163421
 30
0.0
 11
919.6039042888456
 21
1812.693405957672
 31
0.0
  0
LINE
  5
130
330
20
100
AcDbEntity
  8
_0-0_
  6
Continuous
 62
     4
100
AcDbLine
 10
934.0927916831816
 20
1816.57569163421
 30
0.0
 11
919.6039042888456
 21
1820.457977310748
 31
0.0
  0
LINE
  5
131
330
20
100
AcDbEntity
  8
_0-0_
  6
Continuous
 62
     4
100
AcDbLine
 10
944.0927916831816
 20
1686.57569163421
 30
0.0
 11
1054.092791683181
 21
1686.57569163421
 31
0.0
  0
LINE
  5
132
330
20
100
AcDbEntity
  8
_0-0_
  6
Continuous
 62
     4
100
AcDbLine
 10
1044.092791683181
 20
1686.57569163421
 30
0.0
 11
1047.97507735972
 21
1672.086804239874
 31
0.0
  0
LINE
  5
133
330
20
100
AcDbEntity
  8
_0-0_
  6
Continuous
 62
     4
100
AcDbLine
 10
1044.092791683181
 20
1686.57569163421
 30
0.0
 11
1040.210506006643
 21
1672.086804239874
 31
0.0
  0
LINE
  5
134
330
20
100
AcDbEntity
  8
_0-0_
  6
Continuous
 62
     4
100
AcDbLine
 10
994.0927916831816
 20
1681.57569163421
 30
0.0
 11
997.9750773597196
 21
1667.086804239874
 31
0.0
  0
LINE
  5
135
330
20
100
AcDbEntity
  8
_0-0_
  6
Continuous
 62
     4
100
AcDbLine
 10
994.0927916831816
 20
1681.57569163421
 30
0.0
 11
990.2105060066435
 21
1667.086804239874
 31
0.0
  0
LINE
  5
136
330
20
100
AcDbEntity
  8
_0-0_
  6
Continuous
 62
     5
100
AcDbLine
 10
564.0927916831811
 20
1756.575691634211
 30
0.0
 11
484.0927916831813
 21
1756.575691634211
 31
0.0
  0
LINE
  5
137
330
20
100
AcDbEntity
  8
_0-0_
  6
Continuous
 62
     5
100
AcDbLine
 10
584.0927916831812
 20
1678.675442876452
 30
0.0
 11
584.0927916831812
 21
1736.57569163421
 31
0.0
  0
ARC
  5
138
330
20
100
AcDbEntity
  8
_0-0_
  6
Continuous
 62
     5
100
AcDbCircle
 10
604.0927916831812
 20
1678.675442876452
 30
0.0
 40
20.0
100
AcDbArc
 50
180.0
 51
275.7105931374996
  0
LINE
  5
139
330
20
100
AcDbEntity
  8
_0-0_
  6
Continuous
 62
     4
100
AcDbLine
 10
584.0927916831812
 20
1656.57569163421
 30
0.0
 11
414.0927916831813
 21
1656.57569163421
 31
0.0
  0
TEXT
  5
13A
330
20
100
AcDbEntity
  8
_0-0_
 62
     7
100
AcDbText
 10
691.5927916831813
 20
1822.07569163421
 30
0.0
 40
35.0
  1
ａ
 41
0.8
  7
MSゴシック
100
AcDbText
  0
TEXT
  5
13B
330
20
100
AcDbEntity
  8
_0-0_
 62
     7
100
AcDbText
 10
516.5927916831813
 20
1822.07569163421
 30
0.0
 40
35.0
  1
ｂ
 41
0.8
  7
MSゴシック
100
AcDbText
  0
TEXT
  5
13C
330
20
100
AcDbEntity
  8
_0-0_
 62
     7
100
AcDbText
 10
866.5927916831817
 20
1822.07569163421
 30
0.0
 40
35.0
  1
ｃ
 41
0.8
  7
MSゴシック
100
AcDbText
  0
LINE
  5
13D
330
20
100
AcDbEntity
  8
_0-0_
  6
Continuous
 62
     4
100
AcDbLine
 10
424.0927916831813
 20
1756.575691634211
 30
0.0
 11
427.9750773597195
 21
1742.086804239874
 31
0.0
  0
LINE
  5
13E
330
20
100
AcDbEntity
  8
_0-0_
  6
Continuous
 62
     4
100
AcDbLine
 10
424.0927916831813
 20
1756.575691634211
 30
0.0
 11
420.2105060066438
 21
1742.086804239874
 31
0.0
  0
LINE
  5
13F
330
20
100
AcDbEntity
  8
_0-0_
  6
Continuous
 62
     4
100
AcDbLine
 10
424.0927916831813
 20
1756.575691634211
 30
0.0
 11
427.9750773597195
 21
1742.086804239874
 31
0.0
  0
LINE
  5
140
330
20
100
AcDbEntity
  8
_0-0_
  6
Continuous
 62
     4
100
AcDbLine
 10
424.0927916831813
 20
1756.575691634211
 30
0.0
 11
420.2105060066438
 21
1742.086804239874
 31
0.0
  0
LINE
  5
141
330
20
100
AcDbEntity
  8
_0-0_
  6
Continuous
 62
     4
100
AcDbLine
 10
424.0927916831813
 20
1656.57569163421
 30
0.0
 11
420.2105060066438
 21
1671.064579028546
 31
0.0
  0
LINE
  5
142
330
20
100
AcDbEntity
  8
_0-0_
  6
Continuous
 62
     4
100
AcDbLine
 10
424.0927916831813
 20
1656.57569163421
 30
0.0
 11
427.9750773597195
 21
1671.064579028546
 31
0.0
  0
LINE
  5
143
330
20
100
AcDbEntity
  8
_0-0_
  6
Continuous
 62
     4
100
AcDbLine
 10
424.0927916831813
 20
1656.57569163421
 30
0.0
 11
427.9750773597195
 21
1642.086804239874
 31
0.0
  0
LINE
  5
144
330
20
100
AcDbEntity
  8
_0-0_
  6
Continuous
 62
     4
100
AcDbLine
 10
424.0927916831813
 20
1656.57569163421
 30
0.0
 11
420.2105060066438
 21
1642.086804239874
 31
0.0
  0
TEXT
  5
145
330
20
100
AcDbEntity
  8
_0-0_
 62
     7
100
AcDbText
 10
388.8039068836454
 20
1689.07569163421
 30
0.0
 40
35.0
  1
ｆ
 41
0.8
  7
MSゴシック
100
AcDbText
  0
LINE
  5
146
330
20
100
AcDbEntity
  8
ADD_LINE
  6
DOT
 62
     4
100
AcDbLine
 10
1044.092791683181
 20
1686.57569163421
 30
0.0
 11
1047.97507735972
 21
1672.086804239874
 31
0.0
  0
LINE
  5
147
330
20
100
AcDbEntity
  8
ADD_LINE
  6
DOT
 62
     4
100
AcDbLine
 10
1044.092791683181
 20
1686.57569163421
 30
0.0
 11
1040.210506006643
 21
1672.086804239874
 31
0.0
  0
LINE
  5
148
330
20
100
AcDbEntity
  8
_0-0_
  6
Continuous
 62
     4
100
AcDbLine
 10
578.2349273069123
 20
1750.717827257941
 30
0.0
 11
570.7349273069123
 21
1737.727446201175
 31
0.0
  0
LINE
  5
149
330
20
100
AcDbEntity
  8
_0-0_
  6
Continuous
 62
     4
100
AcDbLine
 10
578.2349273069123
 20
1750.717827257941
 30
0.0
 11
565.244546250146
 21
1743.217827257941
 31
0.0
  0
LINE
  5
14A
330
20
100
AcDbEntity
  8
_0-0_
  6
Continuous
 62
     4
100
AcDbLine
 10
578.2349273069123
 20
1750.717827257941
 30
0.0
 11
555.5935442724715
 21
1728.0764442235
 31
0.0
  0
LINE
  5
14B
330
20
100
AcDbEntity
  8
_0-0_
  6
Continuous
 62
     4
100
AcDbLine
 10
589.9011150401836
 20
1664.583022429254
 30
0.0
 11
597.4011150401836
 21
1677.573403486021
 31
0.0
  0
LINE
  5
14C
330
20
100
AcDbEntity
  8
_0-0_
  6
Continuous
 62
     4
100
AcDbLine
 10
589.9011150401836
 20
1664.583022429254
 30
0.0
 11
602.8914960969505
 21
1672.083022429254
 31
0.0
  0
LINE
  5
14D
330
20
100
AcDbEntity
  8
_0-0_
  6
Continuous
 62
     4
100
AcDbLine
 10
589.9011150401836
 20
1664.583022429254
 30
0.0
 11
615.7755863124524
 21
1690.457493701523
 31
0.0
  0
TEXT
  5
14E
330
20
100
AcDbEntity
  8
_0-0_
 62
     7
100
AcDbText
 10
510.4456673654786
 20
1695.510089098532
 30
0.0
 40
30.0
  1
R20
 41
0.8
  7
MSゴシック
100
AcDbText
  0
TEXT
  5
14F
330
20
100
AcDbEntity
  8
_0-0_
 62
     7
100
AcDbText
 10
621.4413088269171
 20
1691.792862571885
 30
0.0
 40
30.0
  1
R20
 41
0.8
  7
MSゴシック
100
AcDbText
  0
LINE
  5
150
330
20
100
AcDbEntity
  8
_0-0_
  6
Continuous
 62
     4
100
AcDbLine
 10
834.0927916831816
 20
1826.57569163421
 30
0.0
 11
834.0927916831816
 21
1719.330887765955
 31
0.0
  0
LINE
  5
152
330
20
100
AcDbEntity
  8
_0-0_
  6
Continuous
 62
     4
100
AcDbLine
 10
893.4188444110418
 20
1681.57569163421
 30
0.0
 11
1004.092791683182
 21
1681.57569163421
 31
0.0
  0
TEXT
  5
153
330
20
100
AcDbEntity
  8
_0-0_
 62
     7
100
AcDbText
 10
691.5927916831813
 20
1882.07569163421
 30
0.0
 40
35.0
  1
ｄ
 41
0.8
  7
MSゴシック
100
AcDbText
  0
LINE
  5
154
330
20
100
AcDbEntity
  8
_0-0_
  6
Continuous
 62
     4
100
AcDbLine
 10
484.0927916831813
 20
1876.57569163421
 30
0.0
 11
934.0927916831816
 21
1876.57569163421
 31
0.0
  0
LINE
  5
155
330
20
100
AcDbEntity
  8
_0-0_
  6
Continuous
 62
     4
100
AcDbLine
 10
934.0927916831816
 20
1876.57569163421
 30
0.0
 11
919.6039042888456
 21
1872.693405957672
 31
0.0
  0
LINE
  5
156
330
20
100
AcDbEntity
  8
_0-0_
  6
Continuous
 62
     4
100
AcDbLine
 10
934.0927916831816
 20
1876.57569163421
 30
0.0
 11
919.6039042888456
 21
1880.457977310748
 31
0.0
  0
LINE
  5
157
330
20
100
AcDbEntity
  8
_0-0_
  6
Continuous
 62
     4
100
AcDbLine
 10
484.0927916831813
 20
1876.57569163421
 30
0.0
 11
498.5816790775177
 21
1880.457977310748
 31
0.0
  0
LINE
  5
158
330
20
100
AcDbEntity
  8
_0-0_
  6
Continuous
 62
     4
100
AcDbLine
 10
484.0927916831813
 20
1876.57569163421
 30
0.0
 11
498.5816790775177
 21
1872.693405957672
 31
0.0
  0
LINE
  5
159
330
20
100
AcDbEntity
  8
_0-0_
  6
Continuous
 62
     4
100
AcDbLine
 10
484.0927916831813
 20
1886.57569163421
 30
0.0
 11
484.0927916831813
 21
1766.57569163421
 31
0.0
  0
LINE
  5
15A
330
20
100
AcDbEntity
  8
_0-0_
  6
Continuous
 62
     4
100
AcDbLine
 10
934.0927916831816
 20
1886.57569163421
 30
0.0
 11
934.0927916831816
 21
1696.57569163421
 31
0.0
  0
LINE
  5
170
330
20
100
AcDbEntity
  8
_0-0_
  6
Continuous
 62
     4
100
AcDbLine
 10
1199.217896873212
 20
1876.57569163421
 30
0.0
 11
1213.706784267548
 21
1880.457977310748
 31
0.0
  0
LINE
  5
171
330
20
100
AcDbEntity
  8
_0-0_
  6
Continuous
 62
     4
100
AcDbLine
 10
1199.217896873212
 20
1876.57569163421
 30
0.0
 11
1213.706784267548
 21
1872.693405957672
 31
0.0
  0
LINE
  5
172
330
20
100
AcDbEntity
  8
_0-0_
  6
Continuous
 62
     4
100
AcDbLine
 10
1199.217896873212
 20
1876.57569163421
 30
0.0
 11
1799.217896873212
 21
1876.57569163421
 31
0.0
  0
LINE
  5
173
330
20
100
AcDbEntity
  8
_0-0_
  6
Continuous
 62
     4
100
AcDbLine
 10
1799.217896873212
 20
1876.57569163421
 30
0.0
 11
1784.729009478876
 21
1872.693405957672
 31
0.0
  0
LINE
  5
174
330
20
100
AcDbEntity
  8
_0-0_
  6
Continuous
 62
     4
100
AcDbLine
 10
1799.217896873212
 20
1876.57569163421
 30
0.0
 11
1784.729009478876
 21
1880.457977310748
 31
0.0
  0
LINE
  5
175
330
20
100
AcDbEntity
  8
_0-0_
  6
Continuous
 62
     4
100
AcDbLine
 10
1199.217896873212
 20
1886.57569163421
 30
0.0
 11
1199.217896873212
 21
1766.57569163421
 31
0.0
  0
LINE
  5
176
330
20
100
AcDbEntity
  8
_0-0_
  6
Continuous
 62
     4
100
AcDbLine
 10
1799.217896873212
 20
1886.57569163421
 30
0.0
 11
1799.217896873212
 21
1766.57569163421
 31
0.0
  0
LINE
  5
177
330
20
100
AcDbEntity
  8
_0-0_
  6
Continuous
 62
     5
100
AcDbLine
 10
1199.217896873212
 20
1686.57569163421
 30
0.0
 11
1799.217896873212
 21
1686.57569163421
 31
0.0
  0
LINE
  5
178
330
20
100
AcDbEntity
  8
_0-0_
  6
Continuous
 62
     4
100
AcDbLine
 10
474.0927916831814
 20
1601.57569163421
 30
0.0
 11
364.0927916831814
 21
1601.57569163421
 31
0.0
  0
LINE
  5
179
330
20
100
AcDbEntity
  8
_0-0_
  6
Continuous
 62
     4
100
AcDbLine
 10
374.0927916831814
 20
1756.575691634211
 30
0.0
 11
374.0927916831814
 21
1601.57569163421
 31
0.0
  0
LINE
  5
17A
330
20
100
AcDbEntity
  8
_0-0_
  6
Continuous
 62
     4
100
AcDbLine
 10
374.0927916831814
 20
1601.57569163421
 30
0.0
 11
370.2105060066435
 21
1616.064579028546
 31
0.0
  0
LINE
  5
17B
330
20
100
AcDbEntity
  8
_0-0_
  6
Continuous
 62
     4
100
AcDbLine
 10
374.0927916831814
 20
1601.57569163421
 30
0.0
 11
377.9750773597192
 21
1616.064579028546
 31
0.0
  0
TEXT
  5
17C
330
20
100
AcDbEntity
  8
_0-0_
 62
     7
100
AcDbText
 10
333.5202418226998
 20
1661.919553381994
 30
0.0
 40
35.0
  1
ｇ
 41
0.8
  7
MSゴシック
100
AcDbText
  0
LINE
  5
17D
330
20
100
AcDbEntity
  8
_0-0_
  6
Continuous
 62
     4
100
AcDbLine
 10
424.0927916831813
 20
1656.57569163421
 30
0.0
 11
424.0927916831813
 21
1601.57569163421
 31
0.0
  0
LINE
  5
17E
330
20
100
AcDbEntity
  8
_0-0_
  6
Continuous
 62
     4
100
AcDbLine
 10
424.0927916831813
 20
1601.57569163421
 30
0.0
 11
420.2105060066434
 21
1616.064579028546
 31
0.0
  0
LINE
  5
17F
330
20
100
AcDbEntity
  8
_0-0_
  6
Continuous
 62
     4
100
AcDbLine
 10
424.0927916831813
 20
1601.57569163421
 30
0.0
 11
427.9750773597191
 21
1616.064579028546
 31
0.0
  0
TEXT
  5
180
330
20
100
AcDbEntity
  8
_0-0_
 62
     7
100
AcDbText
 10
388.7703400002639
 20
1611.432038901027
 30
0.0
 40
35.0
  1
ｅ
 41
0.8
  7
MSゴシック
100
AcDbText
  0
LINE
  5
181
330
20
100
AcDbEntity
  8
_0-0_
  6
Continuous
 62
     5
100
AcDbLine
 10
484.0927916831813
 20
1756.575691634211
 30
0.0
 11
484.0927916831813
 21
1601.57569163421
 31
0.0
  0
LINE
  5
182
330
20
100
AcDbEntity
  8
_0-0_
  6
Continuous
 62
     5
100
AcDbLine
 10
484.0927916831813
 20
1601.57569163421
 30
0.0
 11
934.0927916831816
 21
1601.57569163421
 31
0.0
  0
LINE
  5
183
330
20
100
AcDbEntity
  8
_0-0_
  6
Continuous
 62
     4
100
AcDbLine
 10
994.0927916831816
 20
1681.57569163421
 30
0.0
 11
994.0927916831816
 21
1601.57569163421
 31
0.0
  0
LINE
  5
184
330
20
100
AcDbEntity
  8
_0-0_
  6
Continuous
 62
     4
100
AcDbLine
 10
1044.092791683181
 20
1686.57569163421
 30
0.0
 11
1044.092791683181
 21
1601.57569163421
 31
0.0
  0
LINE
  5
185
330
20
100
AcDbEntity
  8
_0-0_
  6
Continuous
 62
     4
100
AcDbLine
 10
1044.092791683181
 20
1601.57569163421
 30
0.0
 11
1040.210506006643
 21
1616.064579028546
 31
0.0
  0
LINE
  5
186
330
20
100
AcDbEntity
  8
_0-0_
  6
Continuous
 62
     4
100
AcDbLine
 10
1044.092791683181
 20
1601.57569163421
 30
0.0
 11
1047.97507735972
 21
1616.064579028546
 31
0.0
  0
LINE
  5
187
330
20
100
AcDbEntity
  8
_0-0_
  6
Continuous
 62
     4
100
AcDbLine
 10
994.0927916831816
 20
1601.57569163421
 30
0.0
 11
990.2105060066435
 21
1616.064579028546
 31
0.0
  0
LINE
  5
188
330
20
100
AcDbEntity
  8
_0-0_
  6
Continuous
 62
     4
100
AcDbLine
 10
994.0927916831816
 20
1601.57569163421
 30
0.0
 11
997.9750773597196
 21
1616.064579028546
 31
0.0
  0
TEXT
  5
189
330
20
100
AcDbEntity
  8
_0-0_
 62
     7
100
AcDbText
 10
1008.570590255258
 20
1626.359408368388
 30
0.0
 40
35.0
  1
ｉ
 41
0.8
  7
MSゴシック
100
AcDbText
  0
TEXT
  5
18A
330
20
100
AcDbEntity
  8
_0-0_
 62
     7
100
AcDbText
 10
955.9034925425635
 20
1624.314084185371
 30
0.0
 40
35.0
  1
ｈ
 41
0.8
  7
MSゴシック
100
AcDbText
  0
LINE
  5
18B
330
20
100
AcDbEntity
  8
_0-0_
  6
Continuous
 62
     4
100
AcDbLine
 10
944.0927916831816
 20
1601.57569163421
 30
0.0
 11
1054.092791683181
 21
1601.57569163421
 31
0.0
  0
LINE
  5
18C
330
20
100
AcDbEntity
  8
_0-0_
  6
Continuous
 62
     5
100
AcDbLine
 10
1199.217896873212
 20
1756.575691634211
 30
0.0
 11
1199.217896873212
 21
1601.57569163421
 31
0.0
  0
LINE
  5
18D
330
20
100
AcDbEntity
  8
_0-0_
  6
Continuous
 62
     5
100
AcDbLine
 10
1199.217896873212
 20
1601.57569163421
 30
0.0
 11
1799.217896873212
 21
1601.57569163421
 31
0.0
  0
LINE
  5
18E
330
20
100
AcDbEntity
  8
_0-0_
  6
Continuous
 62
     5
100
AcDbLine
 10
1799.217896873212
 20
1756.575691634211
 30
0.0
 11
1799.217896873212
 21
1601.57569163421
 31
0.0
  0
LINE
  5
18F
330
20
100
AcDbEntity
  8
_0-0_
  6
Continuous
 62
     4
100
AcDbLine
 10
1410.139411029615
 20
1621.57569163421
 30
0.0
 11
1403.958607056412
 21
1607.908297506403
 31
0.0
  0
LINE
  5
190
330
20
100
AcDbEntity
  8
_0-0_
  6
Continuous
 62
     4
100
AcDbLine
 10
1410.139411029615
 20
1621.57569163421
 30
0.0
 11
1397.952980709106
 21
1612.829783102596
 31
0.0
  0
TEXT
  5
191
330
20
100
AcDbEntity
  8
_0-0_
 62
     7
100
AcDbText
 10
1215.866266875574
 20
1533.120176668906
 30
0.0
 40
35.0
  1
縦鉄筋
 41
0.8
  7
MSゴシック
100
AcDbText
  0
LINE
  5
192
330
20
100
AcDbEntity
  8
_0-0_
  6
Continuous
 62
     4
100
AcDbLine
 10
1333.964304299288
 20
1528.620176668906
 30
0.0
 11
1207.285411969463
 21
1528.620176668906
 31
0.0
  0
LINE
  5
193
330
20
100
AcDbEntity
  8
_0-0_
  6
Continuous
 62
     4
100
AcDbLine
 10
1333.964304299288
 20
1528.620176668906
 30
0.0
 11
1336.710754428634
 21
1531.971634869073
 31
0.0
  0
LINE
  5
194
330
20
100
AcDbEntity
  8
_0-0_
  6
Continuous
 62
     4
100
AcDbLine
 10
1336.710754428634
 20
1531.971634869073
 30
0.0
 11
1410.139411029615
 21
1621.57569163421
 31
0.0
  0
TEXT
  5
195
330
20
100
AcDbEntity
  8
_0-0_
 62
     7
100
AcDbText
 10
1566.22760543022
 20
1533.120176668906
 30
0.0
 40
35.0
  1
横鉄筋
 41
0.8
  7
MSゴシック
100
AcDbText
  0
LINE
  5
196
330
20
100
AcDbEntity
  8
_0-0_
  6
Continuous
 62
     4
100
AcDbLine
 10
1557.646750524109
 20
1528.620176668906
 30
0.0
 11
1499.217896873213
 21
1656.515231616811
 31
0.0
  0
LINE
  5
197
330
20
100
AcDbEntity
  8
_0-0_
  6
Continuous
 62
     4
100
AcDbLine
 10
1499.217896873213
 20
1656.515231616811
 30
0.0
 11
1508.769831191866
 21
1644.94974196993
 31
0.0
  0
LINE
  5
198
330
20
100
AcDbEntity
  8
_0-0_
  6
Continuous
 62
     4
100
AcDbLine
 10
1499.217896873213
 20
1656.515231616811
 30
0.0
 11
1501.707369825006
 21
1641.723256616079
 31
0.0
  0
LINE
  5
199
330
20
100
AcDbEntity
  8
_0-0_
  6
Continuous
 62
     5
100
AcDbLine
 10
1199.217896873212
 20
1756.575691634211
 30
0.0
 11
1405.346445440898
 21
1756.575691634211
 31
0.0
  0
LINE
  5
19A
330
20
100
AcDbEntity
  8
_0-0_
  6
Continuous
 62
     5
100
AcDbLine
 10
1405.346445440898
 20
1756.575691634211
 30
0.0
 11
1799.217896873212
 21
1756.575691634211
 31
0.0
  0
LINE
  5
19B
330
20
100
AcDbEntity
  8
_0-0_
  6
DASHED3
 62
     1
100
AcDbLine
 10
1219.217896873212
 20
1749.575691634211
 30
0.0
 11
1219.217896873212
 21
1616.57569163421
 31
0.0
  0
LINE
  5
19C
330
20
100
AcDbEntity
  8
_0-0_
  6
DASHED3
 62
     1
100
AcDbLine
 10
1359.217896873212
 20
1749.575691634211
 30
0.0
 11
1359.217896873212
 21
1616.57569163421
 31
0.0
  0
LINE
  5
19D
330
20
100
AcDbEntity
  8
_0-0_
  6
DASHED3
 62
     1
100
AcDbLine
 10
1499.217896873213
 20
1749.575691634211
 30
0.0
 11
1499.217896873213
 21
1616.57569163421
 31
0.0
  0
LINE
  5
19E
330
20
100
AcDbEntity
  8
_0-0_
  6
DASHED3
 62
     1
100
AcDbLine
 10
1639.217896873212
 20
1749.575691634211
 30
0.0
 11
1639.217896873212
 21
1616.57569163421
 31
0.0
  0
LINE
  5
19F
330
20
100
AcDbEntity
  8
_0-0_
  6
DASHED3
 62
     1
100
AcDbLine
 10
1779.217896873213
 20
1749.575691634211
 30
0.0
 11
1779.217896873213
 21
1616.57569163421
 31
0.0
  0
LINE
  5
1A0
330
20
100
AcDbEntity
  8
_0-0_
  6
DASHED3
 62
     1
100
AcDbLine
 10
1219.217896873212
 20
1621.57569163421
 30
0.0
 11
1784.217896873212
 21
1621.57569163421
 31
0.0
  0
LINE
  5
1A1
330
20
100
AcDbEntity
  8
_0-0_
  6
DASHED3
 62
     1
100
AcDbLine
 10
1214.217896873212
 20
1744.575691634211
 30
0.0
 11
1779.217896873213
 21
1744.575691634211
 31
0.0
  0
ARC
  5
1A2
330
20
100
AcDbEntity
  8
_0-0_
  6
DASHED3
 62
     1
100
AcDbCircle
 10
499.0927916831814
 20
1621.57569163421
 30
0.0
 40
5.0
100
AcDbArc
 50
180.0
 51
270.0
  0
LINE
  5
1A3
330
20
100
AcDbEntity
  8
_0-0_
  6
DASHED3
 62
     1
100
AcDbLine
 10
499.0927916831814
 20
1616.57569163421
 30
0.0
 11
918.3119609661472
 21
1616.57569163421
 31
0.0
  0
LINE
  5
1A4
330
20
100
AcDbEntity
  8
_0-0_
  6
Continuous
 62
     4
100
AcDbLine
 10
584.0927916831812
 20
1826.57569163421
 30
0.0
 11
584.0927916831812
 21
1756.575691634211
 31
0.0
  0
LINE
  5
1A5
330
20
100
AcDbEntity
  8
_0-0_
  6
Continuous
 62
     5
100
AcDbLine
 10
934.0927916831816
 20
2175.040095896964
 30
0.0
 11
834.0927916831816
 21
2170.040095896964
 31
0.0
  0
LINE
  5
1A6
330
20
100
AcDbEntity
  8
_0-0_
  6
Continuous
 62
     5
100
AcDbLine
 10
606.0828660636015
 20
2147.239103335005
 30
0.0
 11
834.0927916831816
 21
2170.040095896964
 31
0.0
  0
ARC
  5
1A7
330
20
100
AcDbEntity
  8
_0-0_
  6
Continuous
 62
     5
100
AcDbCircle
 10
564.0927916831811
 20
2225.040095896964
 30
0.0
 40
20.0
100
AcDbArc
 50
0.0
 51
90.00000000000003
  0
LINE
  5
1A8
330
20
100
AcDbEntity
  8
_0-0_
  6
Continuous
 62
     4
100
AcDbLine
 10
374.0927916831814
 20
2245.040095896964
 30
0.0
 11
374.0927916831814
 21
2070.040095896964
 31
0.0
  0
LINE
  5
1A9
330
20
100
AcDbEntity
  8
_0-0_
  6
Continuous
 62
     4
100
AcDbLine
 10
374.0927916831814
 20
2245.040095896964
 30
0.0
 11
377.9750773597195
 21
2230.551208502628
 31
0.0
  0
LINE
  5
1AA
330
20
100
AcDbEntity
  8
_0-0_
  6
Continuous
 62
     4
100
AcDbLine
 10
374.0927916831814
 20
2245.040095896964
 30
0.0
 11
370.2105060066438
 21
2230.551208502628
 31
0.0
  0
LINE
  5
1AB
330
20
100
AcDbEntity
  8
_0-0_
  6
Continuous
 62
     4
100
AcDbLine
 10
374.0927916831814
 20
2070.040095896964
 30
0.0
 11
370.2105060066438
 21
2084.5289832913
 31
0.0
  0
LINE
  5
1AC
330
20
100
AcDbEntity
  8
_0-0_
  6
Continuous
 62
     4
100
AcDbLine
 10
374.0927916831814
 20
2070.040095896964
 30
0.0
 11
377.9750773597195
 21
2084.5289832913
 31
0.0
  0
LINE
  5
1AD
330
20
100
AcDbEntity
  8
_0-0_
  6
Continuous
 62
     4
100
AcDbLine
 10
424.0927916831813
 20
2245.040095896964
 30
0.0
 11
424.0927916831813
 21
2145.040095896964
 31
0.0
  0
LINE
  5
1AE
330
20
100
AcDbEntity
  8
_0-0_
  6
Continuous
 62
     4
100
AcDbLine
 10
424.0927916831813
 20
2145.040095896964
 30
0.0
 11
424.0927916831813
 21
2070.040095896964
 31
0.0
  0
LINE
  5
1AF
330
20
100
AcDbEntity
  8
_0-0_
  6
Continuous
 62
     4
100
AcDbLine
 10
474.0927916831814
 20
2245.040095896964
 30
0.0
 11
364.0927916831814
 21
2245.040095896964
 31
0.0
  0
LINE
  5
1B0
330
20
100
AcDbEntity
  8
_0-0_
  6
Continuous
 62
     4
100
AcDbLine
 10
474.0927916831814
 20
2070.040095896964
 30
0.0
 11
364.0927916831814
 21
2070.040095896964
 31
0.0
  0
LINE
  5
1B1
330
20
100
AcDbEntity
  8
_0-0_
  6
Continuous
 62
     5
100
AcDbLine
 10
484.0927916831813
 20
2245.040095896964
 30
0.0
 11
484.0927916831813
 21
2070.040095896964
 31
0.0
  0
LINE
  5
1B2
330
20
100
AcDbEntity
  8
_0-0_
  6
Continuous
 62
     4
100
AcDbLine
 10
484.0927916831813
 20
2305.040095896964
 30
0.0
 11
584.0927916831812
 21
2305.040095896964
 31
0.0
  0
LINE
  5
1B3
330
20
100
AcDbEntity
  8
_0-0_
  6
Continuous
 62
     4
100
AcDbLine
 10
834.0927916831816
 20
2305.040095896964
 30
0.0
 11
934.0927916831816
 21
2305.040095896964
 31
0.0
  0
LINE
  5
1B4
330
20
100
AcDbEntity
  8
_0-0_
  6
Continuous
 62
     4
100
AcDbLine
 10
834.0927916831816
 20
2305.040095896964
 30
0.0
 11
584.0927916831812
 21
2305.040095896964
 31
0.0
  0
LINE
  5
1B5
330
20
100
AcDbEntity
  8
_0-0_
  6
Continuous
 62
     4
100
AcDbLine
 10
484.0927916831813
 20
2305.040095896964
 30
0.0
 11
498.5816790775177
 21
2308.922381573502
 31
0.0
  0
LINE
  5
1B6
330
20
100
AcDbEntity
  8
_0-0_
  6
Continuous
 62
     4
100
AcDbLine
 10
484.0927916831813
 20
2305.040095896964
 30
0.0
 11
498.5816790775177
 21
2301.157810220425
 31
0.0
  0
LINE
  5
1B7
330
20
100
AcDbEntity
  8
_0-0_
  6
Continuous
 62
     4
100
AcDbLine
 10
584.0927916831812
 20
2305.040095896964
 30
0.0
 11
569.6039042888456
 21
2301.157810220425
 31
0.0
  0
LINE
  5
1B8
330
20
100
AcDbEntity
  8
_0-0_
  6
Continuous
 62
     4
100
AcDbLine
 10
584.0927916831812
 20
2305.040095896964
 30
0.0
 11
569.6039042888456
 21
2308.922381573502
 31
0.0
  0
LINE
  5
1B9
330
20
100
AcDbEntity
  8
_0-0_
  6
Continuous
 62
     4
100
AcDbLine
 10
584.0927916831812
 20
2305.040095896964
 30
0.0
 11
598.5816790775175
 21
2308.922381573502
 31
0.0
  0
LINE
  5
1BA
330
20
100
AcDbEntity
  8
_0-0_
  6
Continuous
 62
     4
100
AcDbLine
 10
584.0927916831812
 20
2305.040095896964
 30
0.0
 11
598.5816790775175
 21
2301.157810220425
 31
0.0
  0
LINE
  5
1BB
330
20
100
AcDbEntity
  8
_0-0_
  6
Continuous
 62
     4
100
AcDbLine
 10
834.0927916831816
 20
2305.040095896964
 30
0.0
 11
819.6039042888456
 21
2301.157810220425
 31
0.0
  0
LINE
  5
1BC
330
20
100
AcDbEntity
  8
_0-0_
  6
Continuous
 62
     4
100
AcDbLine
 10
834.0927916831816
 20
2305.040095896964
 30
0.0
 11
819.6039042888456
 21
2308.922381573502
 31
0.0
  0
LINE
  5
1BD
330
20
100
AcDbEntity
  8
_0-0_
  6
Continuous
 62
     4
100
AcDbLine
 10
834.0927916831816
 20
2305.040095896964
 30
0.0
 11
848.5816790775176
 21
2308.922381573502
 31
0.0
  0
LINE
  5
1BE
330
20
100
AcDbEntity
  8
_0-0_
  6
Continuous
 62
     4
100
AcDbLine
 10
834.0927916831816
 20
2305.040095896964
 30
0.0
 11
848.5816790775176
 21
2301.157810220425
 31
0.0
  0
LINE
  5
1BF
330
20
100
AcDbEntity
  8
_0-0_
  6
Continuous
 62
     4
100
AcDbLine
 10
934.0927916831816
 20
2305.040095896964
 30
0.0
 11
919.6039042888456
 21
2301.157810220425
 31
0.0
  0
LINE
  5
1C0
330
20
100
AcDbEntity
  8
_0-0_
  6
Continuous
 62
     4
100
AcDbLine
 10
934.0927916831816
 20
2305.040095896964
 30
0.0
 11
919.6039042888456
 21
2308.922381573502
 31
0.0
  0
LINE
  5
1C1
330
20
100
AcDbEntity
  8
_0-0_
  6
Continuous
 62
     5
100
AcDbLine
 10
484.0927916831813
 20
2070.040095896964
 30
0.0
 11
934.0927916831816
 21
2070.040095896964
 31
0.0
  0
LINE
  5
1C2
330
20
100
AcDbEntity
  8
_0-0_
  6
Continuous
 62
     4
100
AcDbLine
 10
1044.092791683181
 20
2175.040095896964
 30
0.0
 11
1044.092791683181
 21
2070.040095896964
 31
0.0
  0
LINE
  5
1C3
330
20
100
AcDbEntity
  8
_0-0_
  6
Continuous
 62
     4
100
AcDbLine
 10
994.0927916831816
 20
2170.040095896964
 30
0.0
 11
994.0927916831816
 21
2070.040095896964
 31
0.0
  0
LINE
  5
1C4
330
20
100
AcDbEntity
  8
_0-0_
  6
Continuous
 62
     4
100
AcDbLine
 10
944.0927916831816
 20
2175.040095896964
 30
0.0
 11
1054.092791683181
 21
2175.040095896964
 31
0.0
  0
LINE
  5
1C5
330
20
100
AcDbEntity
  8
_0-0_
  6
Continuous
 62
     4
100
AcDbLine
 10
944.0927916831816
 20
2070.040095896964
 30
0.0
 11
1054.092791683181
 21
2070.040095896964
 31
0.0
  0
LINE
  5
1C6
330
20
100
AcDbEntity
  8
_0-0_
  6
Continuous
 62
     4
100
AcDbLine
 10
1044.092791683181
 20
2175.040095896964
 30
0.0
 11
1047.97507735972
 21
2160.551208502628
 31
0.0
  0
LINE
  5
1C7
330
20
100
AcDbEntity
  8
_0-0_
  6
Continuous
 62
     4
100
AcDbLine
 10
1044.092791683181
 20
2175.040095896964
 30
0.0
 11
1040.210506006643
 21
2160.551208502628
 31
0.0
  0
LINE
  5
1C8
330
20
100
AcDbEntity
  8
_0-0_
  6
Continuous
 62
     4
100
AcDbLine
 10
1044.092791683181
 20
2070.040095896964
 30
0.0
 11
1040.210506006643
 21
2084.5289832913
 31
0.0
  0
LINE
  5
1C9
330
20
100
AcDbEntity
  8
_0-0_
  6
Continuous
 62
     4
100
AcDbLine
 10
1044.092791683181
 20
2070.040095896964
 30
0.0
 11
1047.97507735972
 21
2084.5289832913
 31
0.0
  0
LINE
  5
1CA
330
20
100
AcDbEntity
  8
_0-0_
  6
Continuous
 62
     4
100
AcDbLine
 10
994.0927916831816
 20
2070.040095896964
 30
0.0
 11
990.2105060066435
 21
2084.5289832913
 31
0.0
  0
LINE
  5
1CB
330
20
100
AcDbEntity
  8
_0-0_
  6
Continuous
 62
     4
100
AcDbLine
 10
994.0927916831816
 20
2070.040095896964
 30
0.0
 11
997.9750773597196
 21
2084.5289832913
 31
0.0
  0
LINE
  5
1CC
330
20
100
AcDbEntity
  8
_0-0_
  6
Continuous
 62
     4
100
AcDbLine
 10
994.0927916831816
 20
2070.040095896964
 30
0.0
 11
990.2105060066435
 21
2084.5289832913
 31
0.0
  0
LINE
  5
1CD
330
20
100
AcDbEntity
  8
_0-0_
  6
Continuous
 62
     4
100
AcDbLine
 10
994.0927916831816
 20
2070.040095896964
 30
0.0
 11
997.9750773597196
 21
2084.5289832913
 31
0.0
  0
LINE
  5
1CE
330
20
100
AcDbEntity
  8
_0-0_
  6
Continuous
 62
     4
100
AcDbLine
 10
994.0927916831816
 20
2170.040095896964
 30
0.0
 11
997.9750773597196
 21
2155.551208502628
 31
0.0
  0
LINE
  5
1CF
330
20
100
AcDbEntity
  8
_0-0_
  6
Continuous
 62
     4
100
AcDbLine
 10
994.0927916831816
 20
2170.040095896964
 30
0.0
 11
990.2105060066435
 21
2155.551208502628
 31
0.0
  0
LINE
  5
1D0
330
20
100
AcDbEntity
  8
_0-0_
  6
Continuous
 62
     5
100
AcDbLine
 10
934.0927916831816
 20
2175.040095896964
 30
0.0
 11
934.0927916831816
 21
2070.040095896964
 31
0.0
  0
LINE
  5
1D1
330
20
100
AcDbEntity
  8
_0-0_
  6
Continuous
 62
     5
100
AcDbLine
 10
564.0927916831811
 20
2245.040095896964
 30
0.0
 11
484.0927916831813
 21
2245.040095896964
 31
0.0
  0
LINE
  5
1D2
330
20
100
AcDbEntity
  8
_0-0_
  6
Continuous
 62
     5
100
AcDbLine
 10
584.0927916831812
 20
2167.139847139205
 30
0.0
 11
584.0927916831812
 21
2225.040095896964
 31
0.0
  0
ARC
  5
1D3
330
20
100
AcDbEntity
  8
_0-0_
  6
Continuous
 62
     5
100
AcDbCircle
 10
604.0927916831812
 20
2167.139847139205
 30
0.0
 40
20.0
100
AcDbArc
 50
180.0
 51
275.7105931374996
  0
LINE
  5
1D4
330
20
100
AcDbEntity
  8
_0-0_
  6
Continuous
 62
     4
100
AcDbLine
 10
584.0927916831812
 20
2145.040095896964
 30
0.0
 11
414.0927916831813
 21
2145.040095896964
 31
0.0
  0
TEXT
  5
1D5
330
20
100
AcDbEntity
  8
_0-0_
 62
     7
100
AcDbText
 10
691.5927916831813
 20
2310.540095896964
 30
0.0
 40
35.0
  1
ａ
 41
0.8
  7
MSゴシック
100
AcDbText
  0
TEXT
  5
1D6
330
20
100
AcDbEntity
  8
_0-0_
 62
     7
100
AcDbText
 10
516.5927916831813
 20
2310.540095896964
 30
0.0
 40
35.0
  1
ｂ
 41
0.8
  7
MSゴシック
100
AcDbText
  0
TEXT
  5
1D7
330
20
100
AcDbEntity
  8
_0-0_
 62
     7
100
AcDbText
 10
866.5927916831817
 20
2310.540095896964
 30
0.0
 40
35.0
  1
ｃ
 41
0.8
  7
MSゴシック
100
AcDbText
  0
LINE
  5
1D8
330
20
100
AcDbEntity
  8
_0-0_
  6
Continuous
 62
     4
100
AcDbLine
 10
424.0927916831813
 20
2245.040095896964
 30
0.0
 11
427.9750773597195
 21
2230.551208502628
 31
0.0
  0
LINE
  5
1D9
330
20
100
AcDbEntity
  8
_0-0_
  6
Continuous
 62
     4
100
AcDbLine
 10
424.0927916831813
 20
2245.040095896964
 30
0.0
 11
420.2105060066438
 21
2230.551208502628
 31
0.0
  0
LINE
  5
1DA
330
20
100
AcDbEntity
  8
_0-0_
  6
Continuous
 62
     4
100
AcDbLine
 10
424.0927916831813
 20
2245.040095896964
 30
0.0
 11
427.9750773597195
 21
2230.551208502628
 31
0.0
  0
LINE
  5
1DB
330
20
100
AcDbEntity
  8
_0-0_
  6
Continuous
 62
     4
100
AcDbLine
 10
424.0927916831813
 20
2245.040095896964
 30
0.0
 11
420.2105060066438
 21
2230.551208502628
 31
0.0
  0
LINE
  5
1DC
330
20
100
AcDbEntity
  8
_0-0_
  6
Continuous
 62
     4
100
AcDbLine
 10
424.0927916831813
 20
2145.040095896964
 30
0.0
 11
420.2105060066438
 21
2159.5289832913
 31
0.0
  0
LINE
  5
1DD
330
20
100
AcDbEntity
  8
_0-0_
  6
Continuous
 62
     4
100
AcDbLine
 10
424.0927916831813
 20
2145.040095896964
 30
0.0
 11
427.9750773597195
 21
2159.5289832913
 31
0.0
  0
LINE
  5
1DE
330
20
100
AcDbEntity
  8
_0-0_
  6
Continuous
 62
     4
100
AcDbLine
 10
424.0927916831813
 20
2145.040095896964
 30
0.0
 11
427.9750773597195
 21
2130.551208502628
 31
0.0
  0
LINE
  5
1DF
330
20
100
AcDbEntity
  8
_0-0_
  6
Continuous
 62
     4
100
AcDbLine
 10
424.0927916831813
 20
2145.040095896964
 30
0.0
 11
420.2105060066438
 21
2130.551208502628
 31
0.0
  0
LINE
  5
1E0
330
20
100
AcDbEntity
  8
_0-0_
  6
Continuous
 62
     4
100
AcDbLine
 10
424.0927916831813
 20
2070.040095896964
 30
0.0
 11
420.2105060066438
 21
2084.5289832913
 31
0.0
  0
LINE
  5
1E1
330
20
100
AcDbEntity
  8
_0-0_
  6
Continuous
 62
     4
100
AcDbLine
 10
424.0927916831813
 20
2070.040095896964
 30
0.0
 11
427.9750773597195
 21
2084.5289832913
 31
0.0
  0
TEXT
  5
1E2
330
20
100
AcDbEntity
  8
_0-0_
 62
     7
100
AcDbText
 10
333.5927916831813
 20
2140.040095896964
 30
0.0
 40
35.0
  1
ｇ
 41
0.8
  7
MSゴシック
100
AcDbText
  0
TEXT
  5
1E3
330
20
100
AcDbEntity
  8
_0-0_
 62
     7
100
AcDbText
 10
388.8039068836454
 20
2090.040095896964
 30
0.0
 40
35.0
  1
ｅ
 41
0.8
  7
MSゴシック
100
AcDbText
  0
TEXT
  5
1E4
330
20
100
AcDbEntity
  8
_0-0_
 62
     7
100
AcDbText
 10
388.8039068836454
 20
2177.540095896964
 30
0.0
 40
35.0
  1
ｆ
 41
0.8
  7
MSゴシック
100
AcDbText
  0
LINE
  5
1E5
330
20
100
AcDbEntity
  8
ADD_LINE
  6
DOT
 62
     4
100
AcDbLine
 10
1044.092791683181
 20
2175.040095896964
 30
0.0
 11
1047.97507735972
 21
2160.551208502628
 31
0.0
  0
LINE
  5
1E6
330
20
100
AcDbEntity
  8
ADD_LINE
  6
DOT
 62
     4
100
AcDbLine
 10
1044.092791683181
 20
2175.040095896964
 30
0.0
 11
1040.210506006643
 21
2160.551208502628
 31
0.0
  0
TEXT
  5
1E7
330
20
100
AcDbEntity
  8
_0-0_
 62
     7
100
AcDbText
 10
1008.503146495439
 20
2105.018470316023
 30
0.0
 40
35.0
  1
ｉ
 41
0.8
  7
MSゴシック
100
AcDbText
  0
TEXT
  5
1E8
330
20
100
AcDbEntity
  8
_0-0_
 62
     7
100
AcDbText
 10
955.9908819034166
 20
2102.483610129175
 30
0.0
 40
35.0
  1
ｈ
 41
0.8
  7
MSゴシック
100
AcDbText
  0
LINE
  5
1E9
330
20
100
AcDbEntity
  8
_0-0_
  6
Continuous
 62
     4
100
AcDbLine
 10
578.2349273069123
 20
2239.182231520695
 30
0.0
 11
570.7349273069123
 21
2226.191850463928
 31
0.0
  0
LINE
  5
1EA
330
20
100
AcDbEntity
  8
_0-0_
  6
Continuous
 62
     4
100
AcDbLine
 10
578.2349273069123
 20
2239.182231520695
 30
0.0
 11
565.244546250146
 21
2231.682231520695
 31
0.0
  0
LINE
  5
1EB
330
20
100
AcDbEntity
  8
_0-0_
  6
Continuous
 62
     4
100
AcDbLine
 10
578.2349273069123
 20
2239.182231520695
 30
0.0
 11
555.5935442724715
 21
2216.540848486253
 31
0.0
  0
LINE
  5
1EC
330
20
100
AcDbEntity
  8
_0-0_
  6
Continuous
 62
     4
100
AcDbLine
 10
589.9011150401836
 20
2153.047426692008
 30
0.0
 11
597.4011150401836
 21
2166.037807748775
 31
0.0
  0
LINE
  5
1ED
330
20
100
AcDbEntity
  8
_0-0_
  6
Continuous
 62
     4
100
AcDbLine
 10
589.9011150401836
 20
2153.047426692008
 30
0.0
 11
602.8914960969505
 21
2160.547426692009
 31
0.0
  0
LINE
  5
1EE
330
20
100
AcDbEntity
  8
_0-0_
  6
Continuous
 62
     4
100
AcDbLine
 10
589.9011150401836
 20
2153.047426692008
 30
0.0
 11
615.7755863124524
 21
2178.921897964277
 31
0.0
  0
TEXT
  5
1EF
330
20
100
AcDbEntity
  8
_0-0_
 62
     7
100
AcDbText
 10
510.4456673654786
 20
2183.974493361286
 30
0.0
 40
30.0
  1
R20
 41
0.8
  7
MSゴシック
100
AcDbText
  0
TEXT
  5
1F0
330
20
100
AcDbEntity
  8
_0-0_
 62
     7
100
AcDbText
 10
621.4413088269171
 20
2180.257266834638
 30
0.0
 40
30.0
  1
R20
 41
0.8
  7
MSゴシック
100
AcDbText
  0
LINE
  5
1F1
330
20
100
AcDbEntity
  8
_0-0_
  6
Continuous
 62
     4
100
AcDbLine
 10
834.0927916831816
 20
2315.040095896964
 30
0.0
 11
834.0927916831816
 21
2207.795292028709
 31
0.0
  0
TEXT
  5
1F2
330
20
100
AcDbEntity
  8
_0-0_
 62
     7
100
AcDbText
 10
818.5198727891162
 20
2174.888359176242
 30
0.0
 40
25.0
  1
(こう配1/20)
 50
2.000000000000061
 41
0.6
  7
MSゴシック
100
AcDbText
  0
LINE
  5
1F3
330
20
100
AcDbEntity
  8
_0-0_
  6
Continuous
 62
     4
100
AcDbLine
 10
893.4188444110418
 20
2170.040095896964
 30
0.0
 11
1004.092791683182
 21
2170.040095896964
 31
0.0
  0
TEXT
  5
1F4
330
20
100
AcDbEntity
  8
_0-0_
 62
     7
100
AcDbText
 10
691.5927916831813
 20
2370.540095896964
 30
0.0
 40
35.0
  1
ｄ
 41
0.8
  7
MSゴシック
100
AcDbText
  0
LINE
  5
1F5
330
20
100
AcDbEntity
  8
_0-0_
  6
Continuous
 62
     4
100
AcDbLine
 10
484.0927916831813
 20
2365.040095896964
 30
0.0
 11
934.0927916831816
 21
2365.040095896964
 31
0.0
  0
LINE
  5
1F6
330
20
100
AcDbEntity
  8
_0-0_
  6
Continuous
 62
     4
100
AcDbLine
 10
934.0927916831816
 20
2365.040095896964
 30
0.0
 11
919.6039042888456
 21
2361.157810220425
 31
0.0
  0
LINE
  5
1F7
330
20
100
AcDbEntity
  8
_0-0_
  6
Continuous
 62
     4
100
AcDbLine
 10
934.0927916831816
 20
2365.040095896964
 30
0.0
 11
919.6039042888456
 21
2368.922381573502
 31
0.0
  0
LINE
  5
1F8
330
20
100
AcDbEntity
  8
_0-0_
  6
Continuous
 62
     4
100
AcDbLine
 10
484.0927916831813
 20
2365.040095896964
 30
0.0
 11
498.5816790775177
 21
2368.922381573502
 31
0.0
  0
LINE
  5
1F9
330
20
100
AcDbEntity
  8
_0-0_
  6
Continuous
 62
     4
100
AcDbLine
 10
484.0927916831813
 20
2365.040095896964
 30
0.0
 11
498.5816790775177
 21
2361.157810220425
 31
0.0
  0
LINE
  5
1FA
330
20
100
AcDbEntity
  8
_0-0_
  6
Continuous
 62
     4
100
AcDbLine
 10
484.0927916831813
 20
2375.040095896964
 30
0.0
 11
484.0927916831813
 21
2255.040095896964
 31
0.0
  0
LINE
  5
1FB
330
20
100
AcDbEntity
  8
_0-0_
  6
Continuous
 62
     4
100
AcDbLine
 10
934.0927916831816
 20
2375.040095896964
 30
0.0
 11
934.0927916831816
 21
2185.040095896964
 31
0.0
  0
LINE
  5
1FC
330
20
100
AcDbEntity
  8
_0-0_
  6
Continuous
 62
     5
100
AcDbLine
 10
1199.217896873212
 20
2245.040095896964
 30
0.0
 11
1199.217896873212
 21
2070.040095896964
 31
0.0
  0
LINE
  5
1FD
330
20
100
AcDbEntity
  8
_0-0_
  6
Continuous
 62
     5
100
AcDbLine
 10
1199.217896873212
 20
2245.040095896964
 30
0.0
 11
1799.217896873212
 21
2245.040095896964
 31
0.0
  0
LINE
  5
1FE
330
20
100
AcDbEntity
  8
_0-0_
  6
Continuous
 62
     5
100
AcDbLine
 10
1799.217896873212
 20
2245.040095896964
 30
0.0
 11
1799.217896873212
 21
2070.040095896964
 31
0.0
  0
LINE
  5
1FF
330
20
100
AcDbEntity
  8
_0-0_
  6
Continuous
 62
     5
100
AcDbLine
 10
1199.217896873212
 20
2070.040095896964
 30
0.0
 11
1799.217896873212
 21
2070.040095896964
 31
0.0
  0
LINE
  5
215
330
20
100
AcDbEntity
  8
_0-0_
  6
Continuous
 62
     4
100
AcDbLine
 10
1199.217896873212
 20
2365.040095896964
 30
0.0
 11
1213.706784267548
 21
2368.922381573502
 31
0.0
  0
LINE
  5
216
330
20
100
AcDbEntity
  8
_0-0_
  6
Continuous
 62
     4
100
AcDbLine
 10
1199.217896873212
 20
2365.040095896964
 30
0.0
 11
1213.706784267548
 21
2361.157810220425
 31
0.0
  0
LINE
  5
217
330
20
100
AcDbEntity
  8
_0-0_
  6
Continuous
 62
     4
100
AcDbLine
 10
1199.217896873212
 20
2365.040095896964
 30
0.0
 11
1799.217896873212
 21
2365.040095896964
 31
0.0
  0
LINE
  5
218
330
20
100
AcDbEntity
  8
_0-0_
  6
Continuous
 62
     4
100
AcDbLine
 10
1799.217896873212
 20
2365.040095896964
 30
0.0
 11
1784.729009478876
 21
2361.157810220425
 31
0.0
  0
LINE
  5
219
330
20
100
AcDbEntity
  8
_0-0_
  6
Continuous
 62
     4
100
AcDbLine
 10
1799.217896873212
 20
2365.040095896964
 30
0.0
 11
1784.729009478876
 21
2368.922381573502
 31
0.0
  0
LINE
  5
21A
330
20
100
AcDbEntity
  8
_0-0_
  6
Continuous
 62
     4
100
AcDbLine
 10
1199.217896873212
 20
2375.040095896964
 30
0.0
 11
1199.217896873212
 21
2255.040095896964
 31
0.0
  0
LINE
  5
21B
330
20
100
AcDbEntity
  8
_0-0_
  6
Continuous
 62
     4
100
AcDbLine
 10
1799.217896873212
 20
2375.040095896964
 30
0.0
 11
1799.217896873212
 21
2255.040095896964
 31
0.0
  0
LINE
  5
21C
330
20
100
AcDbEntity
  8
_0-0_
  6
Continuous
 62
     5
100
AcDbLine
 10
1199.217896873212
 20
2175.040095896964
 30
0.0
 11
1799.217896873212
 21
2175.040095896964
 31
0.0
  0
LINE
  5
21D
330
20
100
AcDbEntity
  8
_0-0_
  6
Continuous
 62
     4
100
AcDbLine
 10
584.0927916831812
 20
2315.040095896964
 30
0.0
 11
584.0927916831812
 21
2245.040095896964
 31
0.0
  0
LINE
  5
21E
330
20
100
AcDbEntity
  8
_0-0_
  6
DASHED3
 62
     1
100
AcDbLine
 10
494.0927916831813
 20
1621.57569163421
 30
0.0
 11
494.0927916831813
 21
1746.638094843839
 31
0.0
  0
TEXT
  5
21F
330
20
100
AcDbEntity
  8
_0-0_
 62
     7
100
AcDbText
 10
493.2031772667214
 20
1734.499040550839
 30
0.0
 40
12.0
  1
●
100
AcDbText
  0
TEXT
  5
220
330
20
100
AcDbEntity
  8
_0-0_
 62
     7
100
AcDbText
 10
493.2448090905139
 20
1615.678671333099
 30
0.0
 40
12.0
  1
●
100
AcDbText
  0
TEXT
  5
221
330
20
100
AcDbEntity
  8
_0-0_
 62
     7
100
AcDbText
 10
632.4657960572542
 20
1615.541884231525
 30
0.0
 40
12.0
  1
●
100
AcDbText
  0
TEXT
  5
222
330
20
100
AcDbEntity
  8
_0-0_
 62
     7
100
AcDbText
 10
772.4657960572541
 20
1615.541884231525
 30
0.0
 40
12.0
  1
●
100
AcDbText
  0
TEXT
  5
223
330
20
100
AcDbEntity
  8
_0-0_
 62
     7
100
AcDbText
 10
909.3199807745843
 20
1615.501307069544
 30
0.0
 40
12.0
  1
●
100
AcDbText
  0
LINE
  5
224
330
20
100
AcDbEntity
  8
_0-0_
  6
Continuous
 62
     4
100
AcDbLine
 10
1690.304340277778
 20
1528.620176668906
 30
0.0
 11
1557.646750524109
 21
1528.620176668906
 31
0.0
  0
TEXT
  5
226
330
20
100
AcDbEntity
  8
_0-0_
 62
     7
100
AcDbText
 10
679.5419546699206
 20
2158.698877742725
 30
0.0
 40
25.0
  1
(こう配1/10)
 50
6.000000000000071
 41
0.6
  7
MSゴシック
100
AcDbText
  0
TEXT
  5
227
330
20
100
AcDbEntity
  8
_0-0_
 62
     7
100
AcDbText
 10
811.8096446700509
 20
1201.937456324249
 30
0.0
 40
60.0
  1
寸法・配筋・質量表
 41
0.8
  7
MSゴシック
 72
     1
 11
1092.5
 21
1201.937456324249
 31
0.0
100
AcDbText
  0
TEXT
  5
228
330
20
100
AcDbEntity
  8
_0-0_
 62
     2
100
AcDbText
 10
842.3477157360405
 20
2657.708913649025
 30
0.0
 40
70.0
  1
Ｌ 形 側 溝
  7
MSゴシック
 72
     1
 11
1092.5
 21
2657.708913649025
 31
0.0
100
AcDbText
  0
TEXT
  5
22A
330
20
100
AcDbEntity
  8
_0-0_
 62
     7
100
AcDbText
 10
731.6666666666669
 20
620.0
 30
0.0
 40
45.0
  1
―
 41
0.8
  7
MSゴシック
100
AcDbText
  0
POLYLINE
  5
68A
330
20
100
AcDbEntity
  8
_0-0_
  6
Continuous
 62
     7
100
AcDb2dPolyline
 66
     1
 10
0.0
 20
0.0
 30
0.0
 70
     2
 40
2.399999999999999
 41
2.399999999999999
  0
VERTEX
  5
B7A
330
68A
100
AcDbEntity
  8
_0-0_
  6
Continuous
 62
     7
100
AcDbVertex
100
AcDb2dVertex
 10
1491.582543139601
 20
2372.254569535645
 30
0.0
  0
VERTEX
  5
B7B
330
68A
100
AcDbEntity
  8
_0-0_
  6
Continuous
 62
     7
100
AcDbVertex
100
AcDb2dVertex
 10
1491.582543139601
 20
2372.254569535645
 30
0.0
 41
2.399999999999999
 42
0.0497975375250958
  0
VERTEX
  5
B90
330
68A
100
AcDbEntity
  8
_0-0_
  6
Continuous
 62
     7
100
AcDbVertex
100
AcDb2dVertex
 10
1492.271093194712
 20
2372.178377605802
 30
0.0
 40
2.399999999999999
 42
0.0810319813149409
 70
     1
  0
VERTEX
  5
B7C
330
68A
100
AcDbEntity
  8
_0-0_
  6
Continuous
 62
     7
100
AcDbVertex
100
AcDb2dVertex
 10
1492.693689020939
 20
2372.242686060454
 30
0.0
 41
2.4
 42
0.0268020702718202
  0
VERTEX
  5
B91
330
68A
100
AcDbEntity
  8
_0-0_
  6
Continuous
 62
     7
100
AcDbVertex
100
AcDb2dVertex
 10
1493.462021978816
 20
2372.537444326946
 30
0.0
 40
2.4
 42
0.046973033181503
 70
     1
  0
VERTEX
  5
B7D
330
68A
100
AcDbEntity
  8
_0-0_
  6
Continuous
 62
     7
100
AcDbVertex
100
AcDb2dVertex
 10
1493.871558353509
 20
2372.768562338763
 30
0.0
 41
2.399999999999999
 42
0.0266163037807853
  0
VERTEX
  5
B92
330
68A
100
AcDbEntity
  8
_0-0_
  6
Continuous
 62
     7
100
AcDbVertex
100
AcDb2dVertex
 10
1494.58812395189
 20
2373.325707741818
 30
0.0
 40
2.399999999999999
 42
0.034783051238054
 70
     1
  0
VERTEX
  5
B7E
330
68A
100
AcDbEntity
  8
_0-0_
  6
Continuous
 62
     7
100
AcDbVertex
100
AcDb2dVertex
 10
1495.080362173672
 20
2373.816219885964
 30
0.0
 42
0.013427127746801
  0
VERTEX
  5
B93
330
68A
100
AcDbEntity
  8
_0-0_
  6
Continuous
 62
     7
100
AcDbVertex
100
AcDb2dVertex
 10
1495.855923617843
 20
2374.75445083078
 30
0.0
 42
0.0222088036041475
 70
     1
  0
VERTEX
  5
B7F
330
68A
100
AcDbEntity
  8
_0-0_
  6
Continuous
 62
     7
100
AcDbVertex
100
AcDb2dVertex
 10
1496.283371589036
 20
2375.353826157624
 30
0.0
 42
0.0011010911701716
  0
VERTEX
  5
B94
330
68A
100
AcDbEntity
  8
_0-0_
  6
Continuous
 62
     7
100
AcDbVertex
100
AcDb2dVertex
 10
1496.373121213653
 20
2375.492961822319
 30
0.0
 42
-0.0003649882645796
 70
     1
  0
VERTEX
  5
B80
330
68A
100
AcDbEntity
  8
_0-0_
  6
Continuous
 62
     7
100
AcDbVertex
100
AcDb2dVertex
 10
1496.643258015836
 20
2375.913101926766
 30
0.0
 42
-0.0090880601652669
  0
VERTEX
  5
B95
330
68A
100
AcDbEntity
  8
_0-0_
  6
Continuous
 62
     7
100
AcDbVertex
100
AcDb2dVertex
 10
1498.710823512419
 20
2378.998920249649
 30
0.0
 42
0.0069402129161951
 70
     1
  0
VERTEX
  5
B81
330
68A
100
AcDbEntity
  8
_0-0_
  6
Continuous
 62
     7
100
AcDbVertex
100
AcDb2dVertex
 10
1501.435494396945
 20
2383.027927758636
 30
0.0
 42
0.1014320639853999
  0
VERTEX
  5
B96
330
68A
100
AcDbEntity
  8
_0-0_
  6
Continuous
 62
     7
100
AcDbVertex
100
AcDb2dVertex
 10
1504.218299730694
 20
2390.024313881376
 30
0.0
 42
0.1040923404339835
 70
     1
  0
VERTEX
  5
B82
330
68A
100
AcDbEntity
  8
_0-0_
  6
Continuous
 62
     7
100
AcDbVertex
100
AcDb2dVertex
 10
1503.990426519211
 20
2397.361819927417
 30
0.0
 41
2.399999999999999
 42
0.0003725906416344
  0
VERTEX
  5
B97
330
68A
100
AcDbEntity
  8
_0-0_
  6
Continuous
 62
     7
100
AcDbVertex
100
AcDb2dVertex
 10
1503.987616279162
 20
2397.373342053033
 30
0.0
 40
2.399999999999999
 42
0.0003493965020965
 70
     1
  0
VERTEX
  5
B83
330
68A
100
AcDbEntity
  8
_0-0_
  6
Continuous
 62
     7
100
AcDbVertex
100
AcDb2dVertex
 10
1503.984601746791
 20
2397.385624717276
 30
0.0
 42
0.2801270875815621
  0
VERTEX
  5
B98
330
68A
100
AcDbEntity
  8
_0-0_
  6
Continuous
 62
     7
100
AcDbVertex
100
AcDb2dVertex
 10
1502.272241455275
 20
2399.090376928967
 30
0.0
 42
0.145032560579558
 70
     1
  0
VERTEX
  5
B84
330
68A
100
AcDbEntity
  8
_0-0_
  6
Continuous
 62
     7
100
AcDbVertex
100
AcDb2dVertex
 10
1497.859599543322
 20
2398.864526269419
 30
0.0
 42
0.2644145777213574
  0
VERTEX
  5
B99
330
68A
100
AcDbEntity
  8
_0-0_
  6
Continuous
 62
     7
100
AcDbVertex
100
AcDb2dVertex
 10
1493.729018037521
 20
2394.103414660669
 30
0.0
 42
0.1435748351527871
 70
     1
  0
VERTEX
  5
B85
330
68A
100
AcDbEntity
  8
_0-0_
  6
Continuous
 62
     7
100
AcDbVertex
100
AcDb2dVertex
 10
1494.697729300453
 20
2383.072548518316
 30
0.0
 42
0.0024818485264833
  0
VERTEX
  5
B9A
330
68A
100
AcDbEntity
  8
_0-0_
  6
Continuous
 62
     7
100
AcDbVertex
100
AcDb2dVertex
 10
1495.830343166035
 20
2380.218288320714
 30
0.0
 42
0.0179140899523458
 70
     1
  0
VERTEX
  5
B86
330
68A
100
AcDbEntity
  8
_0-0_
  6
Continuous
 62
     7
100
AcDbVertex
100
AcDb2dVertex
 10
1496.003305841581
 20
2379.829459244634
 30
0.0
 42
0.0032704478986779
  0
VERTEX
  5
B9B
330
68A
100
AcDbEntity
  8
_0-0_
  6
Continuous
 62
     7
100
AcDbVertex
100
AcDb2dVertex
 10
1497.052310898296
 20
2377.717017124494
 30
0.0
 42
0.0106666299017393
 70
     1
  0
VERTEX
  5
B87
330
68A
100
AcDbEntity
  8
_0-0_
  6
Continuous
 62
     7
100
AcDbVertex
100
AcDb2dVertex
 10
1497.391902573245
 20
2377.078480180764
 30
0.0
 42
0.0178140357643795
  0
VERTEX
  5
B9C
330
68A
100
AcDbEntity
  8
_0-0_
  6
Continuous
 62
     7
100
AcDbVertex
100
AcDb2dVertex
 10
1497.99742994504
 20
2376.081334606635
 30
0.0
 42
0.014453992786214
 70
     1
  0
VERTEX
  5
B88
330
68A
100
AcDbEntity
  8
_0-0_
  6
Continuous
 62
     7
100
AcDbVertex
100
AcDb2dVertex
 10
1498.82132768642
 20
2374.903198433503
 30
0.0
 42
0.0275578344791605
  0
VERTEX
  5
B9D
330
68A
100
AcDbEntity
  8
_0-0_
  6
Continuous
 62
     7
100
AcDbVertex
100
AcDb2dVertex
 10
1499.426079812005
 20
2374.176818045096
 30
0.0
 42
0.0226035690723058
 70
     1
  0
VERTEX
  5
B89
330
68A
100
AcDbEntity
  8
_0-0_
  6
Continuous
 62
     7
100
AcDbVertex
100
AcDb2dVertex
 10
1500.248148822365
 20
2373.369708837994
 30
0.0
 42
0.0454844835594689
  0
VERTEX
  5
B9E
330
68A
100
AcDbEntity
  8
_0-0_
  6
Continuous
 62
     7
100
AcDbVertex
100
AcDb2dVertex
 10
1500.880411338665
 20
2372.898853334111
 30
0.0
 42
0.0428326843770526
 70
     1
  0
VERTEX
  5
B8A
330
68A
100
AcDbEntity
  8
_0-0_
  6
Continuous
 62
     7
100
AcDbVertex
100
AcDb2dVertex
 10
1501.629012742871
 20
2372.524605699615
 30
0.0
 41
2.399999999999999
 42
0.0693544149687565
  0
VERTEX
  5
B9F
330
68A
100
AcDbEntity
  8
_0-0_
  6
Continuous
 62
     7
100
AcDbVertex
100
AcDb2dVertex
 10
1502.275472609131
 20
2372.366755028945
 30
0.0
 40
2.399999999999999
 42
0.0713472845211625
 70
     1
  0
VERTEX
  5
B8B
330
68A
100
AcDbEntity
  8
_0-0_
  6
Continuous
 62
     7
100
AcDbVertex
100
AcDb2dVertex
 10
1502.921962596464
 20
2372.393567049581
 30
0.0
 41
2.399999999999999
 42
0.0707619408732066
  0
VERTEX
  5
BA0
330
68A
100
AcDbEntity
  8
_0-0_
  6
Continuous
 62
     7
100
AcDbVertex
100
AcDb2dVertex
 10
1503.547988790407
 20
2372.604638338765
 30
0.0
 40
2.399999999999999
 42
0.0710776376105838
 70
     1
  0
VERTEX
  5
B8C
330
68A
100
AcDbEntity
  8
_0-0_
  6
Continuous
 62
     7
100
AcDbVertex
100
AcDb2dVertex
 10
1504.087712756108
 20
2372.980574430965
 30
0.0
 42
0.0396438076262915
  0
VERTEX
  5
BA2
330
68A
100
AcDbEntity
  8
_0-0_
  6
Continuous
 62
     7
100
AcDbVertex
100
AcDb2dVertex
 10
1504.43933830388
 20
2373.364712866711
 30
0.0
 42
0.0185172660197385
 70
     1
  0
VERTEX
  5
B8D
330
68A
100
AcDbEntity
  8
_0-0_
  6
Continuous
 62
     7
100
AcDbVertex
100
AcDb2dVertex
 10
1505.090842493099
 20
2374.267791921524
 30
0.0
 42
0.0426921282835503
  0
VERTEX
  5
BA1
330
68A
100
AcDbEntity
  8
_0-0_
  6
Continuous
 62
     7
100
AcDbVertex
100
AcDb2dVertex
 10
1505.412631800214
 20
2374.853202675128
 30
0.0
 42
0.0303285141908041
 70
     1
  0
VERTEX
  5
B8E
330
68A
100
AcDbEntity
  8
_0-0_
  6
Continuous
 62
     7
100
AcDbVertex
100
AcDb2dVertex
 10
1505.740625858992
 20
2375.73358778377
 30
0.0
  0
SEQEND
  5
B8F
330
68A
100
AcDbEntity
  8
_0-0_
  6
Continuous
 62
     7
  0
LWPOLYLINE
  5
76B
330
20
100
AcDbEntity
  8
_0-0_
  6
Continuous
 62
     7
100
AcDbPolyline
 90
       21
 70
     0
 43
2.399999999999999
 10
1431.320274581113
 20
959.4865540438249
 10
1431.320274581113
 20
959.4865540438249
 10
1432.431420462451
 20
959.4746705686338
 10
1433.609289795021
 20
960.0005468469431
 10
1434.818093615184
 20
961.0482043941438
 10
1436.021103030548
 20
962.5858106658034
 10
1436.380989457348
 20
963.1450864349453
 10
1441.173225838457
 20
970.2599122668161
 42
0.2112434240596589
 10
1443.728157960723
 20
984.5938044355966
 10
1443.722333188303
 20
984.6176092254554
 42
0.801383555422047
 10
1437.597330984834
 20
986.0965107775987
 42
0.2361616387984823
 10
1434.435460741965
 20
970.3045330264957
 10
1435.741037283093
 20
967.0614437528133
 10
1437.129634014757
 20
964.3104646889437
 10
1438.559059127932
 20
962.1351829416825
 10
1439.985880263877
 20
960.6016933461742
 10
1441.366744184383
 20
959.7565902077949
 10
1442.659694037977
 20
959.6255515577608
 10
1443.82544419762
 20
960.2125589391453
 10
1444.828573934611
 20
961.499776429704
 10
1445.478357300505
 20
962.9655722919496
  0
LWPOLYLINE
  5
76D
330
20
100
AcDbEntity
  8
_0-0_
  6
Continuous
 62
     7
100
AcDbPolyline
 90
       21
 70
     0
 43
2.399999999999999
 10
1491.582543139601
 20
1883.790165272891
 10
1491.582543139601
 20
1883.790165272891
 10
1492.693689020939
 20
1883.778281797701
 10
1493.871558353509
 20
1884.30415807601
 10
1495.080362173672
 20
1885.35181562321
 10
1496.283371589036
 20
1886.88942189487
 10
1496.643258015836
 20
1887.448697664012
 10
1501.435494396945
 20
1894.563523495883
 42
0.2112434240596589
 10
1503.990426519211
 20
1908.897415664663
 10
1503.984601746791
 20
1908.921220454522
 42
0.801383555422047
 10
1497.859599543322
 20
1910.400122006666
 42
0.2361616387984823
 10
1494.697729300453
 20
1894.608144255563
 10
1496.003305841581
 20
1891.36505498188
 10
1497.391902573245
 20
1888.61407591801
 10
1498.82132768642
 20
1886.438794170749
 10
1500.248148822365
 20
1884.905304575241
 10
1501.629012742871
 20
1884.060201436861
 10
1502.921962596464
 20
1883.929162786827
 10
1504.087712756108
 20
1884.516170168212
 10
1505.090842493099
 20
1885.803387658771
 10
1505.740625858992
 20
1887.269183521016
  0
TEXT
  5
76E
330
20
100
AcDbEntity
  8
_0-0_
 62
     7
100
AcDbText
 10
818.5198727891162
 20
1686.423954913488
 30
0.0
 40
25.0
  1
(こう配1/20)
 50
2.000000000000061
 41
0.6
  7
MSゴシック
100
AcDbText
  0
TEXT
  5
76F
330
20
100
AcDbEntity
  8
_0-0_
 62
     7
100
AcDbText
 10
679.5419546699206
 20
1670.234473479971
 30
0.0
 40
25.0
  1
(こう配1/10)
 50
6.000000000000071
 41
0.6
  7
MSゴシック
100
AcDbText
  0
LINE
  5
B79
330
20
100
AcDbEntity
  8
_0-0_
  6
Continuous
 62
   136
100
AcDbLine
 10
1975.0
 20
393.5
 30
0.0
 11
360.0
 21
393.5
 31
0.0
  0
ENDSEC
  0
SECTION
  2
OBJECTS
  0
DICTIONARY
  5
C
330
0
100
AcDbDictionary
281
     1
  3
ACAD_CIP_PREVIOUS_PRODUCT_INFO
350
C04
  3
ACAD_COLOR
350
1B
  3
ACAD_DETAILVIEWSTYLE
350
BFD
  3
ACAD_GROUP
350
D
  3
ACAD_LAYOUT
350
19
  3
ACAD_MATERIAL
350
1A
  3
ACAD_MLEADERSTYLE
350
BF9
  3
ACAD_MLINESTYLE
350
16
  3
ACAD_PLOTSETTINGS
350
18
  3
ACAD_PLOTSTYLENAME
350
E
  3
ACAD_SCALELIST
350
BE7
  3
ACAD_SECTIONVIEWSTYLE
350
BFB
  3
ACAD_TABLESTYLE
350
BE5
  3
ACAD_VISUALSTYLE
350
BCC
  3
ACDB_RECOMPOSE_DATA
350
C18
  3
AcDbVariableDictionary
350
235
  0
DICTIONARY
  5
C06
330
10
100
AcDbDictionary
280
     1
281
     1
  3
ADSK_XREC_LAYER_RECONCILED
360
C07
  0
DICTIONARY
  5
C08
330
47
100
AcDbDictionary
280
     1
281
     1
  3
ADSK_XREC_LAYER_RECONCILED
360
C09
  0
DICTIONARY
  5
C0A
330
48
100
AcDbDictionary
280
     1
281
     1
  3
ADSK_XREC_LAYER_RECONCILED
360
C0B
  0
XRECORD
  5
C04
102
{ACAD_REACTORS
330
C
102
}
330
C
100
AcDbXrecord
280
     1
300
ACD
300
2023
300

  0
DICTIONARY
  5
1B
102
{ACAD_REACTORS
330
C
102
}
330
C
100
AcDbDictionary
281
     1
  0
DICTIONARY
  5
BFD
102
{ACAD_REACTORS
330
C
102
}
330
C
100
AcDbDictionary
281
     1
  3
Imperial24
350
BFE
  0
DICTIONARY
  5
D
102
{ACAD_REACTORS
330
C
102
}
330
C
100
AcDbDictionary
281
     1
  0
DICTIONARY
  5
19
102
{ACAD_REACTORS
330
C
102
}
330
C
100
AcDbDictionary
281
     1
  3
Model
350
23
  3
レイアウト1
350
1F
  0
DICTIONARY
  5
1A
102
{ACAD_REACTORS
330
C
102
}
330
C
100
AcDbDictionary
281
     1
  3
ByBlock
350
BBC
  3
ByLayer
350
BB4
  3
Global
350
BC4
  0
DICTIONARY
  5
BF9
102
{ACAD_REACTORS
330
C
102
}
330
C
100
AcDbDictionary
281
     1
  3
Standard
350
BFA
  0
DICTIONARY
  5
16
102
{ACAD_REACTORS
330
C
102
}
330
C
100
AcDbDictionary
281
     1
  3
Standard
350
17
  0
DICTIONARY
  5
18
102
{ACAD_REACTORS
330
C
102
}
330
C
100
AcDbDictionary
281
     1
  0
ACDBDICTIONARYWDFLT
  5
E
102
{ACAD_REACTORS
330
C
102
}
330
C
100
AcDbDictionary
281
     1
  3
Normal
350
F
100
AcDbDictionaryWithDefault
340
F
  0
DICTIONARY
  5
BE7
102
{ACAD_REACTORS
330
C
102
}
330
C
100
AcDbDictionary
281
     1
  3
A0
350
BE8
  3
A1
350
BE9
  3
A2
350
BEA
  3
A3
350
BEB
  3
A4
350
BEC
  3
A5
350
BED
  3
A6
350
BEE
  3
A7
350
BEF
  3
A8
350
BF0
  3
A9
350
BF1
  3
B0
350
BF2
  3
B1
350
BF3
  3
B2
350
BF4
  3
B3
350
BF5
  3
B4
350
BF6
  3
B5
350
BF7
  3
B6
350
BF8
  0
DICTIONARY
  5
BFB
102
{ACAD_REACTORS
330
C
102
}
330
C
100
AcDbDictionary
281
     1
  3
Imperial24
350
BFC
  0
DICTIONARY
  5
BE5
102
{ACAD_REACTORS
330
C
102
}
330
C
100
AcDbDictionary
281
     1
  3
Standard
350
BE6
  0
DICTIONARY
  5
BCC
102
{ACAD_REACTORS
330
C
102
}
330
C
100
AcDbDictionary
281
     1
  3
2dWireframe
350
BD2
  3
Basic
350
BD1
  3
Brighten
350
BD8
  3
ColorChange
350
BDC
  3
Conceptual
350
BD5
  3
Dim
350
BD7
  3
EdgeColorOff
350
BE4
  3
Facepattern
350
BDB
  3
Flat
350
BCD
  3
FlatWithEdges
350
BCE
  3
Gouraud
350
BCF
  3
GouraudWithEdges
350
BD0
  3
Hidden
350
BD4
  3
JitterOff
350
BE2
  3
Linepattern
350
BDA
  3
OverhangOff
350
BE3
  3
Realistic
350
BD6
  3
Shaded
350
BE1
  3
Shaded with edges
350
BE0
  3
Shades of Gray
350
BDD
  3
Sketchy
350
BDE
  3
Thicken
350
BD9
  3
Wireframe
350
BD3
  3
X-Ray
350
BDF
  0
XRECORD
  5
C18
102
{ACAD_REACTORS
330
C
102
}
330
C
100
AcDbXrecord
280
     1
 90
        1
330
BE6
  0
DICTIONARY
  5
235
102
{ACAD_REACTORS
330
C
102
}
330
C
100
AcDbDictionary
281
     1
  3
CANNOSCALE
350
C11
  3
CMLEADERSTYLE
350
C0D
  3
CTABLESTYLE
350
C0C
  3
CVIEWDETAILSTYLE
350
C0E
  3
CVIEWSECTIONSTYLE
350
C0F
  3
DIMASSOC
350
236
  3
LAYEREVAL
350
C13
  3
LAYERNOTIFY
350
C14
  3
LIGHTINGUNITS
350
C12
  3
MSLTSCALE
350
C10
  3
PROJECTNAME
350
237
  0
XRECORD
  5
C07
102
{ACAD_REACTORS
330
C06
102
}
330
C06
100
AcDbXrecord
280
     1
290
     1
  0
XRECORD
  5
C09
102
{ACAD_REACTORS
330
C08
102
}
330
C08
100
AcDbXrecord
280
     1
290
     1
  0
XRECORD
  5
C0B
102
{ACAD_REACTORS
330
C0A
102
}
330
C0A
100
AcDbXrecord
280
     1
290
     1
  0
ACDBDETAILVIEWSTYLE
  5
BFE
102
{ACAD_REACTORS
330
BFD
102
}
330
BFD
100
AcDbModelDocViewStyle
 70
     0
  3
Imperial24
290
     1
300
Imperial24
 90
        0
100
AcDbDetailViewStyle
 70
     0
 71
     0
 90
        3
 71
     1
340
11
 62
   256
 40
0.24
340
0
 62
   256
 40
0.24
300

 40
0.36
280
     3
 71
     2
340
15
 90
       25
 62
   256
 71
     3
340
11
 62
   256
 40
0.24
 90
        1
 40
0.75
 90
        1
300
%<\AcVar ViewType \f "%tc1">% %<\AcVar ViewDetailId>%\PSCALE %<\AcVar ViewScale \f "%sn">%
 71
     4
340
15
 90
       25
 62
   256
340
15
 90
       25
 62
   256
280
     0
  0
LAYOUT
  5
23
102
{ACAD_REACTORS
330
19
102
}
330
19
100
AcDbPlotSettings
  1

  2
EPSON LP-S5000
  4

  6

 40
0.0
 41
0.0
 42
0.0
 43
0.0
 44
0.0
 45
0.0
 46
0.0
 47
0.0
 48
0.0
 49
0.0
140
0.0
141
0.0
142
1.0
143
1.0
 70
  1712
 72
     0
 73
     0
 74
     0
  7

 75
     0
147
1.0
 76
     0
 77
     2
 78
   300
148
0.0
149
0.0
100
AcDbLayout
  1
Model
 70
     1
 71
     0
 10
0.0
 20
0.0
 11
12.0
 21
9.0
 12
0.0
 22
0.0
 32
0.0
 14
0.0
 24
0.0
 34
0.0
 15
0.0
 25
0.0
 35
0.0
146
0.0
 13
0.0
 23
0.0
 33
0.0
 16
1.0
 26
0.0
 36
0.0
 17
0.0
 27
1.0
 37
0.0
 76
     0
330
20
331
BAB
  0
LAYOUT
  5
1F
102
{ACAD_REACTORS
330
19
102
}
330
19
100
AcDbPlotSettings
  1

  2
EPSON LP-S5000
  4

  6

 40
0.0
 41
0.0
 42
0.0
 43
0.0
 44
0.0
 45
0.0
 46
0.0
 47
0.0
 48
0.0
 49
0.0
140
0.0
141
0.0
142
1.0
143
1.0
 70
   688
 72
     0
 73
     0
 74
     5
  7

 75
    16
147
1.0
 76
     0
 77
     2
 78
   300
148
0.0
149
0.0
100
AcDbLayout
  1
レイアウト1
 70
     1
 71
     1
 10
0.0
 20
0.0
 11
12.0
 21
9.0
 12
0.0
 22
0.0
 32
0.0
 14
1.000000000000000E+20
 24
1.000000000000000E+20
 34
1.000000000000000E+20
 15
-1.000000000000000E+20
 25
-1.000000000000000E+20
 35
-1.000000000000000E+20
146
0.0
 13
0.0
 23
0.0
 33
0.0
 16
1.0
 26
0.0
 36
0.0
 17
0.0
 27
1.0
 37
0.0
 76
     0
330
1C
  0
MATERIAL
  5
BBC
102
{ACAD_XDICTIONARY
360
BBD
102
}
102
{ACAD_REACTORS
330
1A
102
}
330
1A
100
AcDbMaterial
  1
ByBlock
 72
     0
 43
0.0208333333333333
 43
0.0
 43
0.0
 43
0.0
 43
0.0
 43
0.0208333333333333
 43
0.0
 43
0.0
 43
0.0
 43
0.0
 43
1.0
 43
0.0
 43
0.0
 43
0.0
 43
0.0
 43
1.0
 77
     0
 47
0.0208333333333333
 47
0.0
 47
0.0
 47
0.0
 47
0.0
 47
0.0208333333333333
 47
0.0
 47
0.0
 47
0.0
 47
0.0
 47
1.0
 47
0.0
 47
0.0
 47
0.0
 47
0.0
 47
1.0
171
     0
 49
0.0208333333333333
 49
0.0
 49
0.0
 49
0.0
 49
0.0
 49
0.0208333333333333
 49
0.0
 49
0.0
 49
0.0
 49
0.0
 49
1.0
 49
0.0
 49
0.0
 49
0.0
 49
0.0
 49
1.0
175
     0
142
0.0208333333333333
142
0.0
142
0.0
142
0.0
142
0.0
142
0.0208333333333333
142
0.0
142
0.0
142
0.0
142
0.0
142
1.0
142
0.0
142
0.0
142
0.0
142
0.0
142
1.0
179
     0
144
0.0208333333333333
144
0.0
144
0.0
144
0.0
144
0.0
144
0.0208333333333333
144
0.0
144
0.0
144
0.0
144
0.0
144
1.0
144
0.0
144
0.0
144
0.0
144
0.0
144
1.0
147
0.0208333333333333
147
0.0
147
0.0
147
0.0
147
0.0
147
0.0208333333333333
147
0.0
147
0.0
147
0.0
147
0.0
147
1.0
147
0.0
147
0.0
147
0.0
147
0.0
147
1.0
  0
MATERIAL
  5
BB4
102
{ACAD_XDICTIONARY
360
BB5
102
}
102
{ACAD_REACTORS
330
1A
102
}
330
1A
100
AcDbMaterial
  1
ByLayer
 72
     0
 43
0.0208333333333333
 43
0.0
 43
0.0
 43
0.0
 43
0.0
 43
0.0208333333333333
 43
0.0
 43
0.0
 43
0.0
 43
0.0
 43
1.0
 43
0.0
 43
0.0
 43
0.0
 43
0.0
 43
1.0
 77
     0
 47
0.0208333333333333
 47
0.0
 47
0.0
 47
0.0
 47
0.0
 47
0.0208333333333333
 47
0.0
 47
0.0
 47
0.0
 47
0.0
 47
1.0
 47
0.0
 47
0.0
 47
0.0
 47
0.0
 47
1.0
171
     0
 49
0.0208333333333333
 49
0.0
 49
0.0
 49
0.0
 49
0.0
 49
0.0208333333333333
 49
0.0
 49
0.0
 49
0.0
 49
0.0
 49
1.0
 49
0.0
 49
0.0
 49
0.0
 49
0.0
 49
1.0
175
     0
142
0.0208333333333333
142
0.0
142
0.0
142
0.0
142
0.0
142
0.0208333333333333
142
0.0
142
0.0
142
0.0
142
0.0
142
1.0
142
0.0
142
0.0
142
0.0
142
0.0
142
1.0
179
     0
144
0.0208333333333333
144
0.0
144
0.0
144
0.0
144
0.0
144
0.0208333333333333
144
0.0
144
0.0
144
0.0
144
0.0
144
1.0
144
0.0
144
0.0
144
0.0
144
0.0
144
1.0
147
0.0208333333333333
147
0.0
147
0.0
147
0.0
147
0.0
147
0.0208333333333333
147
0.0
147
0.0
147
0.0
147
0.0
147
1.0
147
0.0
147
0.0
147
0.0
147
0.0
147
1.0
  0
MATERIAL
  5
BC4
102
{ACAD_XDICTIONARY
360
BC5
102
}
102
{ACAD_REACTORS
330
1A
102
}
330
1A
100
AcDbMaterial
  1
Global
 72
     0
 43
0.0208333333333333
 43
0.0
 43
0.0
 43
0.0
 43
0.0
 43
0.0208333333333333
 43
0.0
 43
0.0
 43
0.0
 43
0.0
 43
1.0
 43
0.0
 43
0.0
 43
0.0
 43
0.0
 43
1.0
 77
     0
 47
0.0208333333333333
 47
0.0
 47
0.0
 47
0.0
 47
0.0
 47
0.0208333333333333
 47
0.0
 47
0.0
 47
0.0
 47
0.0
 47
1.0
 47
0.0
 47
0.0
 47
0.0
 47
0.0
 47
1.0
171
     0
 49
0.0208333333333333
 49
0.0
 49
0.0
 49
0.0
 49
0.0
 49
0.0208333333333333
 49
0.0
 49
0.0
 49
0.0
 49
0.0
 49
1.0
 49
0.0
 49
0.0
 49
0.0
 49
0.0
 49
1.0
175
     0
142
0.0208333333333333
142
0.0
142
0.0
142
0.0
142
0.0
142
0.0208333333333333
142
0.0
142
0.0
142
0.0
142
0.0
142
1.0
142
0.0
142
0.0
142
0.0
142
0.0
142
1.0
179
     0
144
0.0208333333333333
144
0.0
144
0.0
144
0.0
144
0.0
144
0.0208333333333333
144
0.0
144
0.0
144
0.0
144
0.0
144
1.0
144
0.0
144
0.0
144
0.0
144
0.0
144
1.0
147
0.0208333333333333
147
0.0
147
0.0
147
0.0
147
0.0
147
0.0208333333333333
147
0.0
147
0.0
147
0.0
147
0.0
147
1.0
147
0.0
147
0.0
147
0.0
147
0.0
147
1.0
  0
MLEADERSTYLE
  5
BFA
102
{ACAD_REACTORS
330
BF9
102
}
330
BF9
100
AcDbMLeaderStyle
179
     2
170
     2
171
     1
172
     0
 90
        2
 40
0.0
 41
0.0
173
     1
 91
-1056964608
340
13
 92
       -2
290
     1
 42
0.09
291
     1
 43
0.36
  3
Standard
 44
0.18
300

342
11
174
     1
178
     6
175
     1
176
     0
 93
-1056964608
 45
0.18
292
     0
297
     0
 46
0.18
 94
-1056964608
 47
1.0
 49
1.0
140
1.0
293
     1
141
0.0
294
     1
177
     0
142
1.0
295
     1
296
     0
143
0.125
271
     0
272
     9
273
     9
298
     1
  0
MLINESTYLE
  5
17
102
{ACAD_REACTORS
330
16
102
}
330
16
100
AcDbMlineStyle
  2
STANDARD
 70
     0
  3

 62
   256
 51
90.0
 52
90.0
 71
     2
 49
0.5
 62
   256
  6
BYLAYER
 49
-0.5
 62
   256
  6
BYLAYER
  0
ACDBPLACEHOLDER
  5
F
102
{ACAD_REACTORS
330
E
102
}
330
E
  0
SCALE
  5
BE8
102
{ACAD_REACTORS
330
BE7
102
}
330
BE7
100
AcDbScale
 70
     0
300
1:1
140
1.0
141
1.0
290
     1
  0
SCALE
  5
BE9
102
{ACAD_REACTORS
330
BE7
102
}
330
BE7
100
AcDbScale
 70
     0
300
1/128" = 1'-0"
140
0.0078125
141
12.0
290
     0
  0
SCALE
  5
BEA
102
{ACAD_REACTORS
330
BE7
102
}
330
BE7
100
AcDbScale
 70
     0
300
1/64" = 1'-0"
140
0.015625
141
12.0
290
     0
  0
SCALE
  5
BEB
102
{ACAD_REACTORS
330
BE7
102
}
330
BE7
100
AcDbScale
 70
     0
300
1/32" = 1'-0"
140
0.03125
141
12.0
290
     0
  0
SCALE
  5
BEC
102
{ACAD_REACTORS
330
BE7
102
}
330
BE7
100
AcDbScale
 70
     0
300
1/16" = 1'-0"
140
0.0625
141
12.0
290
     0
  0
SCALE
  5
BED
102
{ACAD_REACTORS
330
BE7
102
}
330
BE7
100
AcDbScale
 70
     0
300
3/32" = 1'-0"
140
0.09375
141
12.0
290
     0
  0
SCALE
  5
BEE
102
{ACAD_REACTORS
330
BE7
102
}
330
BE7
100
AcDbScale
 70
     0
300
1/8" = 1'-0"
140
0.125
141
12.0
290
     0
  0
SCALE
  5
BEF
102
{ACAD_REACTORS
330
BE7
102
}
330
BE7
100
AcDbScale
 70
     0
300
3/16" = 1'-0"
140
0.1875
141
12.0
290
     0
  0
SCALE
  5
BF0
102
{ACAD_REACTORS
330
BE7
102
}
330
BE7
100
AcDbScale
 70
     0
300
1/4" = 1'-0"
140
0.25
141
12.0
290
     0
  0
SCALE
  5
BF1
102
{ACAD_REACTORS
330
BE7
102
}
330
BE7
100
AcDbScale
 70
     0
300
3/8" = 1'-0"
140
0.375
141
12.0
290
     0
  0
SCALE
  5
BF2
102
{ACAD_REACTORS
330
BE7
102
}
330
BE7
100
AcDbScale
 70
     0
300
1/2" = 1'-0"
140
0.5
141
12.0
290
     0
  0
SCALE
  5
BF3
102
{ACAD_REACTORS
330
BE7
102
}
330
BE7
100
AcDbScale
 70
     0
300
3/4" = 1'-0"
140
0.75
141
12.0
290
     0
  0
SCALE
  5
BF4
102
{ACAD_REACTORS
330
BE7
102
}
330
BE7
100
AcDbScale
 70
     0
300
1" = 1'-0"
140
1.0
141
12.0
290
     0
  0
SCALE
  5
BF5
102
{ACAD_REACTORS
330
BE7
102
}
330
BE7
100
AcDbScale
 70
     0
300
1-1/2" = 1'-0"
140
1.5
141
12.0
290
     0
  0
SCALE
  5
BF6
102
{ACAD_REACTORS
330
BE7
102
}
330
BE7
100
AcDbScale
 70
     0
300
3" = 1'-0"
140
3.0
141
12.0
290
     0
  0
SCALE
  5
BF7
102
{ACAD_REACTORS
330
BE7
102
}
330
BE7
100
AcDbScale
 70
     0
300
6" = 1'-0"
140
6.0
141
12.0
290
     0
  0
SCALE
  5
BF8
102
{ACAD_REACTORS
330
BE7
102
}
330
BE7
100
AcDbScale
 70
     0
300
1'-0" = 1'-0"
140
12.0
141
12.0
290
     0
  0
ACDBSECTIONVIEWSTYLE
  5
BFC
102
{ACAD_REACTORS
330
BFB
102
}
330
BFB
100
AcDbModelDocViewStyle
 70
     0
  3
Imperial24
290
     1
300
Imperial24
 90
        0
100
AcDbSectionViewStyle
 70
     0
 71
     0
 90
       78
 71
     1
340
11
 62
   256
 40
0.24
340
0
340
0
 62
   256
 40
0.24
300
I, O, Q, S, X, Z
 40
0.48
 90
        3
 40
0.18
 90
        1
 71
     2
340
15
 90
       25
 62
   256
340
15
 90
       50
 62
   256
 40
0.24
 40
0.0
 40
0.24
 71
     3
340
11
 62
   256
 40
0.24
 90
        1
 40
0.75
 90
        1
300
%<\AcVar ViewType \f "%tc1">% %<\AcVar ViewSectionStartId>%-%<\AcVar ViewSectionEndId>%\PSCALE %<\AcVar ViewScale \f "%sn">%
 71
     4
 62
   256
 62
   257
300
ANSI31
 40
1.0
 90
        0
290
     0
290
     0
 90
        6
 40
0.0
 40
1.570796326794896
 40
0.2617993877991494
 40
1.308996938995747
 40
-0.2617993877991494
 40
1.832595714594046
  0
TABLESTYLE
  5
BE6
102
{ACAD_XDICTIONARY
360
C16
102
}
102
{ACAD_REACTORS
330
BE5
102
}
330
BE5
100
AcDbTableStyle
280
     0
  3
Standard
 70
     0
 71
     0
 40
0.06
 41
0.06
280
     0
281
     0
  7
STANDARD
140
0.18
170
     2
 62
     0
 63
     7
283
     0
 90
      512
 91
        0
  1

274
    -2
284
     1
 64
     0
275
    -2
285
     1
 65
     0
276
    -2
286
     1
 66
     0
277
    -2
287
     1
 67
     0
278
    -2
288
     1
 68
     0
279
    -2
289
     1
 69
     0
  7
STANDARD
140
0.25
170
     5
 62
     0
 63
     7
283
     0
 90
      512
 91
        0
  1

274
    -2
284
     1
 64
     0
275
    -2
285
     1
 65
     0
276
    -2
286
     1
 66
     0
277
    -2
287
     1
 67
     0
278
    -2
288
     1
 68
     0
279
    -2
289
     1
 69
     0
  7
STANDARD
140
0.18
170
     5
 62
     0
 63
     7
283
     0
 90
      512
 91
        0
  1

274
    -2
284
     1
 64
     0
275
    -2
285
     1
 65
     0
276
    -2
286
     1
 66
     0
277
    -2
287
     1
 67
     0
278
    -2
288
     1
 68
     0
279
    -2
289
     1
 69
     0
  0
VISUALSTYLE
  5
BD2
102
{ACAD_REACTORS
330
BCC
102
}
330
BCC
100
AcDbVisualStyle
  2
2dWireframe
 70
     4
177
     3
291
     0
 70
    58
 90
        0
176
     1
 90
        2
176
     1
 90
        0
176
     1
 90
        0
176
     1
 40
0.6
176
     1
 40
30.0
176
     1
 62
     7
420
 16777215
176
     1
 90
        1
176
     1
 90
        4
176
     1
 62
     7
176
     1
 62
   257
176
     1
 90
        1
176
     1
 90
        1
176
     1
 40
1.0
176
     1
 90
        0
176
     1
 62
   257
176
     1
 40
1.0
176
     1
 90
        1
176
     1
 90
        6
176
     1
 90
        2
176
     1
 62
     7
176
     1
 90
        5
176
     1
 90
        0
176
     1
 90
        0
176
     1
290
     0
176
     1
 90
        1
176
     1
 40
0.0
176
     1
 90
        0
176
     1
290
     1
176
     1
290
     1
176
     1
290
     0
176
     1
290
     0
176
     1
290
     0
176
     1
290
     0
176
     1
290
     0
176
     1
290
     0
176
     1
290
     0
176
     1
 90
       50
176
     1
 40
0.0
176
     1
 40
1.0
176
     1
 90
        0
176
     1
 62
    18
420
        0
176
     1
 90
       50
176
     1
 90
        3
176
     1
 62
     5
420
      255
176
     1
290
     0
176
     1
 90
       50
176
     1
 90
       50
176
     1
 90
       50
176
     1
290
     0
176
     1
 90
       50
176
     1
 62
   256
176
     0
 40
1.0
176
     0
 90
        2
176
     1
  1
strokes_ogs.tif
176
     1
290
     0
176
     1
 40
1.0
176
     1
 40
1.0
176
     1
  0
VISUALSTYLE
  5
BD1
102
{ACAD_REACTORS
330
BCC
102
}
330
BCC
100
AcDbVisualStyle
  2
Basic
 70
     7
177
     3
291
     1
 70
    58
 90
        1
176
     1
 90
        0
176
     1
 90
        1
176
     1
 90
        0
176
     1
 40
0.6
176
     1
 40
30.0
176
     1
 62
     7
420
 16777215
176
     1
 90
        0
176
     1
 90
        4
176
     1
 62
     7
176
     1
 62
   257
176
     1
 90
        1
176
     1
 90
        1
176
     1
 40
1.0
176
     1
 90
        8
176
     1
 62
     7
176
     1
 40
1.0
176
     1
 90
        1
176
     1
 90
        6
176
     1
 90
        2
176
     1
 62
     7
176
     1
 90
        5
176
     1
 90
        0
176
     1
 90
        0
176
     1
290
     0
176
     1
 90
        1
176
     1
 40
0.0
176
     1
 90
        0
176
     1
290
     0
176
     1
290
     1
176
     1
290
     1
176
     1
290
     0
176
     1
290
     0
176
     1
290
     0
176
     1
290
     0
176
     1
290
     0
176
     1
290
     0
176
     1
 90
       50
176
     1
 40
0.0
176
     1
 40
1.0
176
     1
 90
        0
176
     1
 62
    18
420
        0
176
     1
 90
       50
176
     1
 90
        3
176
     1
 62
     5
420
      255
176
     1
290
     0
176
     1
 90
       50
176
     1
 90
       50
176
     1
 90
       50
176
     1
290
     0
176
     1
 90
       50
176
     1
 62
   256
176
     0
 40
1.0
176
     0
 90
        2
176
     1
  1
strokes_ogs.tif
176
     1
290
     0
176
     1
 40
1.0
176
     1
 40
1.0
176
     1
  0
VISUALSTYLE
  5
BD8
102
{ACAD_REACTORS
330
BCC
102
}
330
BCC
100
AcDbVisualStyle
  2
Brighten
 70
    12
177
     3
291
     1
 70
    58
 90
        2
176
     1
 90
        2
176
     1
 90
        0
176
     1
 90
        0
176
     1
 40
0.6
176
     1
 40
30.0
176
     1
 62
     7
420
 16777215
176
     1
 90
        1
176
     1
 90
        4
176
     1
 62
     7
176
     1
 62
   257
176
     1
 90
        1
176
     1
 90
        1
176
     1
 40
1.0
176
     1
 90
        8
176
     1
 62
     7
176
     1
 40
1.0
176
     1
 90
        1
176
     1
 90
        6
176
     1
 90
        2
176
     1
 62
     7
176
     1
 90
        5
176
     1
 90
        0
176
     1
 90
        0
176
     1
290
     0
176
     1
 90
        1
176
     1
 40
50.0
176
     1
 90
        0
176
     1
290
     0
176
     1
290
     1
176
     1
290
     1
176
     1
290
     0
176
     1
290
     0
176
     1
290
     0
176
     1
290
     0
176
     1
290
     0
176
     1
290
     0
176
     1
 90
       50
176
     1
 40
0.0
176
     1
 40
1.0
176
     1
 90
        0
176
     1
 62
    18
420
        0
176
     1
 90
       50
176
     1
 90
        3
176
     1
 62
     5
420
      255
176
     1
290
     0
176
     1
 90
       50
176
     1
 90
       50
176
     1
 90
       50
176
     1
290
     0
176
     1
 90
       50
176
     1
 62
   256
176
     0
 40
1.0
176
     0
 90
        2
176
     1
  1
strokes_ogs.tif
176
     1
290
     0
176
     1
 40
1.0
176
     1
 40
1.0
176
     1
  0
VISUALSTYLE
  5
BDC
102
{ACAD_REACTORS
330
BCC
102
}
330
BCC
100
AcDbVisualStyle
  2
ColorChange
 70
    16
177
     3
291
     1
 70
    58
 90
        2
176
     1
 90
        2
176
     1
 90
        3
176
     1
 90
        0
176
     1
 40
0.6
176
     1
 40
30.0
176
     1
 62
     8
420
  8421504
176
     1
 90
        1
176
     1
 90
        4
176
     1
 62
     7
176
     1
 62
   257
176
     1
 90
        1
176
     1
 90
        1
176
     1
 40
1.0
176
     1
 90
        8
176
     1
 62
     8
420
  8421504
176
     1
 40
1.0
176
     1
 90
        1
176
     1
 90
        6
176
     1
 90
        2
176
     1
 62
     7
176
     1
 90
        5
176
     1
 90
        0
176
     1
 90
        0
176
     1
290
     0
176
     1
 90
        1
176
     1
 40
0.0
176
     1
 90
        0
176
     1
290
     0
176
     1
290
     1
176
     1
290
     1
176
     1
290
     0
176
     1
290
     0
176
     1
290
     0
176
     1
290
     0
176
     1
290
     0
176
     1
290
     0
176
     1
 90
       50
176
     1
 40
0.0
176
     1
 40
1.0
176
     1
 90
        0
176
     1
 62
    18
420
        0
176
     1
 90
       50
176
     1
 90
        3
176
     1
 62
     5
420
      255
176
     1
290
     0
176
     1
 90
       50
176
     1
 90
       50
176
     1
 90
       50
176
     1
290
     0
176
     1
 90
       50
176
     1
 62
   256
176
     0
 40
1.0
176
     0
 90
        2
176
     1
  1
strokes_ogs.tif
176
     1
290
     0
176
     1
 40
1.0
176
     1
 40
1.0
176
     1
  0
VISUALSTYLE
  5
BD5
102
{ACAD_REACTORS
330
BCC
102
}
330
BCC
100
AcDbVisualStyle
  2
Conceptual
 70
     9
177
     3
291
     0
 70
    58
 90
        3
176
     1
 90
        2
176
     1
 90
        0
176
     1
 90
        0
176
     1
 40
0.6
176
     1
 40
30.0
176
     1
 62
     7
420
 16777215
176
     1
 90
        2
176
     1
 90
        2
176
     1
 62
     7
176
     1
 62
   257
176
     1
 90
        1
176
     1
 90
        1
176
     1
 40
179.0
176
     1
 90
        8
176
     1
 62
     7
176
     1
 40
1.0
176
     1
 90
        1
176
     1
 90
        6
176
     1
 90
        2
176
     1
 62
     7
176
     1
 90
        3
176
     1
 90
        0
176
     1
 90
        0
176
     1
290
     0
176
     1
 90
        1
176
     1
 40
0.0
176
     1
 90
        0
176
     1
290
     0
176
     1
290
     1
176
     1
290
     1
176
     1
290
     0
176
     1
290
     0
176
     1
290
     0
176
     1
290
     0
176
     1
290
     0
176
     1
290
     0
176
     1
 90
       50
176
     1
 40
0.0
176
     1
 40
1.0
176
     1
 90
        0
176
     1
 62
    18
420
        0
176
     1
 90
       50
176
     1
 90
        3
176
     1
 62
     5
420
      255
176
     1
290
     0
176
     1
 90
       50
176
     1
 90
       50
176
     1
 90
       50
176
     1
290
     0
176
     1
 90
       50
176
     1
 62
   256
176
     0
 40
1.0
176
     0
 90
        2
176
     1
  1
strokes_ogs.tif
176
     1
290
     0
176
     1
 40
1.0
176
     1
 40
1.0
176
     1
  0
VISUALSTYLE
  5
BD7
102
{ACAD_REACTORS
330
BCC
102
}
330
BCC
100
AcDbVisualStyle
  2
Dim
 70
    11
177
     3
291
     1
 70
    58
 90
        2
176
     1
 90
        2
176
     1
 90
        0
176
     1
 90
        0
176
     1
 40
0.6
176
     1
 40
30.0
176
     1
 62
     7
420
 16777215
176
     1
 90
        1
176
     1
 90
        4
176
     1
 62
     7
176
     1
 62
   257
176
     1
 90
        1
176
     1
 90
        1
176
     1
 40
1.0
176
     1
 90
        8
176
     1
 62
     7
176
     1
 40
1.0
176
     1
 90
        1
176
     1
 90
        6
176
     1
 90
        2
176
     1
 62
     7
176
     1
 90
        5
176
     1
 90
        0
176
     1
 90
        0
176
     1
290
     0
176
     1
 90
        1
176
     1
 40
-50.0
176
     1
 90
        0
176
     1
290
     0
176
     1
290
     1
176
     1
290
     1
176
     1
290
     0
176
     1
290
     0
176
     1
290
     0
176
     1
290
     0
176
     1
290
     0
176
     1
290
     0
176
     1
 90
       50
176
     1
 40
0.0
176
     1
 40
1.0
176
     1
 90
        0
176
     1
 62
    18
420
        0
176
     1
 90
       50
176
     1
 90
        3
176
     1
 62
     5
420
      255
176
     1
290
     0
176
     1
 90
       50
176
     1
 90
       50
176
     1
 90
       50
176
     1
290
     0
176
     1
 90
       50
176
     1
 62
   256
176
     0
 40
1.0
176
     0
 90
        2
176
     1
  1
strokes_ogs.tif
176
     1
290
     0
176
     1
 40
1.0
176
     1
 40
1.0
176
     1
  0
VISUALSTYLE
  5
BE4
102
{ACAD_REACTORS
330
BCC
102
}
330
BCC
100
AcDbVisualStyle
  2
EdgeColorOff
 70
    22
177
     3
291
     1
 70
    58
 90
        2
176
     0
 90
        2
176
     0
 90
        0
176
     0
 90
        0
176
     0
 40
0.6
176
     0
 40
30.0
176
     0
 62
     7
420
 16777215
176
     0
 90
        1
176
     0
 90
        4
176
     0
 62
     7
176
     0
 62
   257
176
     0
 90
        1
176
     0
 90
        1
176
     0
 40
1.0
176
     0
 90
        8
176
     2
 62
     7
176
     0
 40
1.0
176
     0
 90
        1
176
     0
 90
        6
176
     0
 90
        2
176
     0
 62
     7
176
     0
 90
        5
176
     0
 90
        0
176
     0
 90
        0
176
     0
290
     0
176
     0
 90
        1
176
     0
 40
0.0
176
     0
 90
        0
176
     0
290
     0
176
     0
290
     1
176
     0
290
     1
176
     0
290
     0
176
     0
290
     0
176
     0
290
     0
176
     0
290
     0
176
     0
290
     0
176
     0
290
     0
176
     0
 90
       50
176
     0
 40
0.0
176
     0
 40
1.0
176
     0
 90
        0
176
     0
 62
    18
420
        0
176
     0
 90
       50
176
     0
 90
        3
176
     0
 62
     5
420
      255
176
     0
290
     0
176
     0
 90
       50
176
     0
 90
       50
176
     0
 90
       50
176
     0
290
     0
176
     0
 90
       50
176
     0
 62
   256
176
     0
 40
1.0
176
     0
 90
        2
176
     0
  1
strokes_ogs.tif
176
     0
290
     0
176
     0
 40
1.0
176
     0
 40
1.0
176
     0
  0
VISUALSTYLE
  5
BDB
102
{ACAD_REACTORS
330
BCC
102
}
330
BCC
100
AcDbVisualStyle
  2
Facepattern
 70
    15
177
     3
291
     1
 70
    58
 90
        2
176
     1
 90
        2
176
     1
 90
        0
176
     1
 90
        0
176
     1
 40
0.6
176
     1
 40
30.0
176
     1
 62
     7
420
 16777215
176
     1
 90
        1
176
     1
 90
        4
176
     1
 62
     7
176
     1
 62
   257
176
     1
 90
        1
176
     1
 90
        1
176
     1
 40
1.0
176
     1
 90
        8
176
     1
 62
     7
176
     1
 40
1.0
176
     1
 90
        1
176
     1
 90
        6
176
     1
 90
        2
176
     1
 62
     7
176
     1
 90
        5
176
     1
 90
        0
176
     1
 90
        0
176
     1
290
     0
176
     1
 90
        1
176
     1
 40
0.0
176
     1
 90
        0
176
     1
290
     0
176
     1
290
     1
176
     1
290
     1
176
     1
290
     0
176
     1
290
     0
176
     1
290
     0
176
     1
290
     0
176
     1
290
     0
176
     1
290
     0
176
     1
 90
       50
176
     1
 40
0.0
176
     1
 40
1.0
176
     1
 90
        0
176
     1
 62
    18
420
        0
176
     1
 90
       50
176
     1
 90
        3
176
     1
 62
     5
420
      255
176
     1
290
     0
176
     1
 90
       50
176
     1
 90
       50
176
     1
 90
       50
176
     1
290
     0
176
     1
 90
       50
176
     1
 62
   256
176
     0
 40
1.0
176
     0
 90
        2
176
     1
  1
strokes_ogs.tif
176
     1
290
     0
176
     1
 40
1.0
176
     1
 40
1.0
176
     1
  0
VISUALSTYLE
  5
BCD
102
{ACAD_REACTORS
330
BCC
102
}
330
BCC
100
AcDbVisualStyle
  2
Flat
 70
     0
177
     3
291
     1
 70
    58
 90
        2
176
     1
 90
        1
176
     1
 90
        1
176
     1
 90
        2
176
     1
 40
0.6
176
     1
 40
30.0
176
     1
 62
     7
420
 16777215
176
     1
 90
        0
176
     1
 90
        0
176
     1
 62
     7
176
     1
 62
   257
176
     1
 90
        1
176
     1
 90
        1
176
     1
 40
1.0
176
     1
 90
        8
176
     1
 62
     7
176
     1
 40
1.0
176
     1
 90
        1
176
     1
 90
        6
176
     1
 90
        2
176
     1
 62
     7
176
     1
 90
        5
176
     1
 90
        0
176
     1
 90
        0
176
     1
290
     0
176
     1
 90
       13
176
     1
 40
0.0
176
     1
 90
        0
176
     1
290
     0
176
     1
290
     1
176
     1
290
     1
176
     1
290
     0
176
     1
290
     0
176
     1
290
     0
176
     1
290
     0
176
     1
290
     0
176
     1
290
     0
176
     1
 90
       50
176
     1
 40
0.0
176
     1
 40
1.0
176
     1
 90
        0
176
     1
 62
    18
420
        0
176
     1
 90
       50
176
     1
 90
        3
176
     1
 62
     5
420
      255
176
     1
290
     0
176
     1
 90
       50
176
     1
 90
       50
176
     1
 90
       50
176
     1
290
     0
176
     1
 90
       50
176
     1
 62
   256
176
     0
 40
1.0
176
     0
 90
        2
176
     1
  1
strokes_ogs.tif
176
     1
290
     0
176
     1
 40
1.0
176
     1
 40
1.0
176
     1
  0
VISUALSTYLE
  5
BCE
102
{ACAD_REACTORS
330
BCC
102
}
330
BCC
100
AcDbVisualStyle
  2
FlatWithEdges
 70
     1
177
     3
291
     1
 70
    58
 90
        2
176
     1
 90
        1
176
     1
 90
        1
176
     1
 90
        2
176
     1
 40
0.6
176
     1
 40
30.0
176
     1
 62
     7
420
 16777215
176
     1
 90
        1
176
     1
 90
        0
176
     1
 62
     7
176
     1
 62
   257
176
     1
 90
        1
176
     1
 90
        1
176
     1
 40
1.0
176
     1
 90
        0
176
     1
 62
   257
176
     1
 40
1.0
176
     1
 90
        1
176
     1
 90
        6
176
     1
 90
        2
176
     1
 62
     7
176
     1
 90
        5
176
     1
 90
        0
176
     1
 90
        0
176
     1
290
     0
176
     1
 90
       13
176
     1
 40
0.0
176
     1
 90
        0
176
     1
290
     0
176
     1
290
     1
176
     1
290
     1
176
     1
290
     0
176
     1
290
     0
176
     1
290
     0
176
     1
290
     0
176
     1
290
     0
176
     1
290
     0
176
     1
 90
       50
176
     1
 40
0.0
176
     1
 40
1.0
176
     1
 90
        0
176
     1
 62
    18
420
        0
176
     1
 90
       50
176
     1
 90
        3
176
     1
 62
     5
420
      255
176
     1
290
     0
176
     1
 90
       50
176
     1
 90
       50
176
     1
 90
       50
176
     1
290
     0
176
     1
 90
       50
176
     1
 62
   256
176
     0
 40
1.0
176
     0
 90
        2
176
     1
  1
strokes_ogs.tif
176
     1
290
     0
176
     1
 40
1.0
176
     1
 40
1.0
176
     1
  0
VISUALSTYLE
  5
BCF
102
{ACAD_REACTORS
330
BCC
102
}
330
BCC
100
AcDbVisualStyle
  2
Gouraud
 70
     2
177
     3
291
     1
 70
    58
 90
        2
176
     1
 90
        2
176
     1
 90
        1
176
     1
 90
        2
176
     1
 40
0.6
176
     1
 40
30.0
176
     1
 62
     7
420
 16777215
176
     1
 90
        0
176
     1
 90
        0
176
     1
 62
     7
176
     1
 62
   257
176
     1
 90
        1
176
     1
 90
        1
176
     1
 40
1.0
176
     1
 90
        0
176
     1
 62
     7
176
     1
 40
1.0
176
     1
 90
        1
176
     1
 90
        6
176
     1
 90
        2
176
     1
 62
     7
176
     1
 90
        5
176
     1
 90
        0
176
     1
 90
        0
176
     1
290
     0
176
     1
 90
       13
176
     1
 40
0.0
176
     1
 90
        0
176
     1
290
     0
176
     1
290
     1
176
     1
290
     1
176
     1
290
     0
176
     1
290
     0
176
     1
290
     0
176
     1
290
     0
176
     1
290
     0
176
     1
290
     0
176
     1
 90
       50
176
     1
 40
0.0
176
     1
 40
1.0
176
     1
 90
        0
176
     1
 62
    18
420
        0
176
     1
 90
       50
176
     1
 90
        3
176
     1
 62
     5
420
      255
176
     1
290
     0
176
     1
 90
       50
176
     1
 90
       50
176
     1
 90
       50
176
     1
290
     0
176
     1
 90
       50
176
     1
 62
   256
176
     0
 40
1.0
176
     0
 90
        2
176
     1
  1
strokes_ogs.tif
176
     1
290
     0
176
     1
 40
1.0
176
     1
 40
1.0
176
     1
  0
VISUALSTYLE
  5
BD0
102
{ACAD_REACTORS
330
BCC
102
}
330
BCC
100
AcDbVisualStyle
  2
GouraudWithEdges
 70
     3
177
     3
291
     1
 70
    58
 90
        2
176
     1
 90
        2
176
     1
 90
        1
176
     1
 90
        2
176
     1
 40
0.6
176
     1
 40
30.0
176
     1
 62
     7
420
 16777215
176
     1
 90
        1
176
     1
 90
        0
176
     1
 62
     7
176
     1
 62
   257
176
     1
 90
        1
176
     1
 90
        1
176
     1
 40
1.0
176
     1
 90
        0
176
     1
 62
   257
176
     1
 40
1.0
176
     1
 90
        1
176
     1
 90
        6
176
     1
 90
        2
176
     1
 62
     7
176
     1
 90
        5
176
     1
 90
        0
176
     1
 90
        0
176
     1
290
     0
176
     1
 90
       13
176
     1
 40
0.0
176
     1
 90
        0
176
     1
290
     0
176
     1
290
     1
176
     1
290
     1
176
     1
290
     0
176
     1
290
     0
176
     1
290
     0
176
     1
290
     0
176
     1
290
     0
176
     1
290
     0
176
     1
 90
       50
176
     1
 40
0.0
176
     1
 40
1.0
176
     1
 90
        0
176
     1
 62
    18
420
        0
176
     1
 90
       50
176
     1
 90
        3
176
     1
 62
     5
420
      255
176
     1
290
     0
176
     1
 90
       50
176
     1
 90
       50
176
     1
 90
       50
176
     1
290
     0
176
     1
 90
       50
176
     1
 62
   256
176
     0
 40
1.0
176
     0
 90
        2
176
     1
  1
strokes_ogs.tif
176
     1
290
     0
176
     1
 40
1.0
176
     1
 40
1.0
176
     1
  0
VISUALSTYLE
  5
BD4
102
{ACAD_REACTORS
330
BCC
102
}
330
BCC
100
AcDbVisualStyle
  2
Hidden
 70
     6
177
     3
291
     0
 70
    58
 90
        1
176
     1
 90
        2
176
     1
 90
        2
176
     1
 90
        0
176
     1
 40
0.6
176
     1
 40
30.0
176
     1
 62
     7
420
 16777215
176
     1
 90
        2
176
     1
 90
        2
176
     1
 62
     7
176
     1
 62
   257
176
     1
 90
        2
176
     1
 90
        1
176
     1
 40
40.0
176
     1
 90
        0
176
     1
 62
   257
176
     1
 40
1.0
176
     1
 90
        1
176
     1
 90
        6
176
     1
 90
        2
176
     1
 62
     7
176
     1
 90
        3
176
     1
 90
        0
176
     1
 90
        0
176
     1
290
     0
176
     1
 90
        1
176
     1
 40
0.0
176
     1
 90
        0
176
     1
290
     0
176
     1
290
     1
176
     1
290
     1
176
     1
290
     0
176
     1
290
     0
176
     1
290
     0
176
     1
290
     0
176
     1
290
     0
176
     1
290
     0
176
     1
 90
       50
176
     1
 40
0.0
176
     1
 40
1.0
176
     1
 90
        0
176
     1
 62
    18
420
        0
176
     1
 90
       50
176
     1
 90
        3
176
     1
 62
     5
420
      255
176
     1
290
     0
176
     1
 90
       50
176
     1
 90
       50
176
     1
 90
       50
176
     1
290
     0
176
     1
 90
       50
176
     1
 62
   256
176
     0
 40
1.0
176
     0
 90
        2
176
     1
  1
strokes_ogs.tif
176
     1
290
     0
176
     1
 40
1.0
176
     1
 40
1.0
176
     1
  0
VISUALSTYLE
  5
BE2
102
{ACAD_REACTORS
330
BCC
102
}
330
BCC
100
AcDbVisualStyle
  2
JitterOff
 70
    20
177
     3
291
     1
 70
    58
 90
        2
176
     0
 90
        2
176
     0
 90
        0
176
     0
 90
        0
176
     0
 40
0.6
176
     0
 40
30.0
176
     0
 62
     7
420
 16777215
176
     0
 90
        1
176
     0
 90
        4
176
     0
 62
     7
176
     0
 62
   257
176
     0
 90
        1
176
     0
 90
        1
176
     0
 40
1.0
176
     0
 90
       10
176
     2
 62
     7
176
     0
 40
1.0
176
     0
 90
        1
176
     0
 90
        6
176
     0
 90
        2
176
     0
 62
     7
176
     0
 90
        5
176
     0
 90
        0
176
     0
 90
        0
176
     0
290
     0
176
     0
 90
        1
176
     0
 40
0.0
176
     0
 90
        0
176
     0
290
     0
176
     0
290
     1
176
     0
290
     1
176
     0
290
     0
176
     0
290
     0
176
     0
290
     0
176
     0
290
     0
176
     0
290
     0
176
     0
290
     0
176
     0
 90
       50
176
     0
 40
0.0
176
     0
 40
1.0
176
     0
 90
        0
176
     0
 62
    18
420
        0
176
     0
 90
       50
176
     0
 90
        3
176
     0
 62
     5
420
      255
176
     0
290
     0
176
     0
 90
       50
176
     0
 90
       50
176
     0
 90
       50
176
     0
290
     0
176
     0
 90
       50
176
     0
 62
   256
176
     0
 40
1.0
176
     0
 90
        2
176
     0
  1
strokes_ogs.tif
176
     0
290
     0
176
     0
 40
1.0
176
     0
 40
1.0
176
     0
  0
VISUALSTYLE
  5
BDA
102
{ACAD_REACTORS
330
BCC
102
}
330
BCC
100
AcDbVisualStyle
  2
Linepattern
 70
    14
177
     3
291
     1
 70
    58
 90
        2
176
     1
 90
        2
176
     1
 90
        0
176
     1
 90
        0
176
     1
 40
0.6
176
     1
 40
30.0
176
     1
 62
     7
420
 16777215
176
     1
 90
        1
176
     1
 90
        4
176
     1
 62
     7
176
     1
 62
   257
176
     1
 90
        7
176
     1
 90
        7
176
     1
 40
1.0
176
     1
 90
        8
176
     1
 62
     7
176
     1
 40
1.0
176
     1
 90
        1
176
     1
 90
        6
176
     1
 90
        2
176
     1
 62
     7
176
     1
 90
        5
176
     1
 90
        0
176
     1
 90
        0
176
     1
290
     0
176
     1
 90
        1
176
     1
 40
0.0
176
     1
 90
        0
176
     1
290
     0
176
     1
290
     1
176
     1
290
     1
176
     1
290
     0
176
     1
290
     0
176
     1
290
     0
176
     1
290
     0
176
     1
290
     0
176
     1
290
     0
176
     1
 90
       50
176
     1
 40
0.0
176
     1
 40
1.0
176
     1
 90
        0
176
     1
 62
    18
420
        0
176
     1
 90
       50
176
     1
 90
        3
176
     1
 62
     5
420
      255
176
     1
290
     0
176
     1
 90
       50
176
     1
 90
       50
176
     1
 90
       50
176
     1
290
     0
176
     1
 90
       50
176
     1
 62
   256
176
     0
 40
1.0
176
     0
 90
        2
176
     1
  1
strokes_ogs.tif
176
     1
290
     0
176
     1
 40
1.0
176
     1
 40
1.0
176
     1
  0
VISUALSTYLE
  5
BE3
102
{ACAD_REACTORS
330
BCC
102
}
330
BCC
100
AcDbVisualStyle
  2
OverhangOff
 70
    21
177
     3
291
     1
 70
    58
 90
        2
176
     0
 90
        2
176
     0
 90
        0
176
     0
 90
        0
176
     0
 40
0.6
176
     0
 40
30.0
176
     0
 62
     7
420
 16777215
176
     0
 90
        1
176
     0
 90
        4
176
     0
 62
     7
176
     0
 62
   257
176
     0
 90
        1
176
     0
 90
        1
176
     0
 40
1.0
176
     0
 90
        9
176
     2
 62
     7
176
     0
 40
1.0
176
     0
 90
        1
176
     0
 90
        6
176
     0
 90
        2
176
     0
 62
     7
176
     0
 90
        5
176
     0
 90
        0
176
     0
 90
        0
176
     0
290
     0
176
     0
 90
        1
176
     0
 40
0.0
176
     0
 90
        0
176
     0
290
     0
176
     0
290
     1
176
     0
290
     1
176
     0
290
     0
176
     0
290
     0
176
     0
290
     0
176
     0
290
     0
176
     0
290
     0
176
     0
290
     0
176
     0
 90
       50
176
     0
 40
0.0
176
     0
 40
1.0
176
     0
 90
        0
176
     0
 62
    18
420
        0
176
     0
 90
       50
176
     0
 90
        3
176
     0
 62
     5
420
      255
176
     0
290
     0
176
     0
 90
       50
176
     0
 90
       50
176
     0
 90
       50
176
     0
290
     0
176
     0
 90
       50
176
     0
 62
   256
176
     0
 40
1.0
176
     0
 90
        2
176
     0
  1
strokes_ogs.tif
176
     0
290
     0
176
     0
 40
1.0
176
     0
 40
1.0
176
     0
  0
VISUALSTYLE
  5
BD6
102
{ACAD_REACTORS
330
BCC
102
}
330
BCC
100
AcDbVisualStyle
  2
Realistic
 70
     8
177
     3
291
     0
 70
    58
 90
        2
176
     1
 90
        3
176
     1
 90
        0
176
     1
 90
        2
176
     1
 40
0.6
176
     1
 40
30.0
176
     1
 62
     7
420
 16777215
176
     1
 90
        0
176
     1
 90
        0
176
     1
 62
     7
176
     1
 62
   257
176
     1
 90
        1
176
     1
 90
        1
176
     1
 40
1.0
176
     1
 90
        8
176
     1
 62
   257
176
     1
 40
1.0
176
     1
 90
        1
176
     1
 90
        6
176
     1
 90
        2
176
     1
 62
     7
176
     1
 90
        3
176
     1
 90
        0
176
     1
 90
        0
176
     1
290
     0
176
     1
 90
       13
176
     1
 40
0.0
176
     1
 90
        0
176
     1
290
     0
176
     1
290
     1
176
     1
290
     1
176
     1
290
     0
176
     1
290
     0
176
     1
290
     0
176
     1
290
     0
176
     1
290
     0
176
     1
290
     0
176
     1
 90
       50
176
     1
 40
0.0
176
     1
 40
1.0
176
     1
 90
        0
176
     1
 62
    18
420
        0
176
     1
 90
       50
176
     1
 90
        3
176
     1
 62
     5
420
      255
176
     1
290
     0
176
     1
 90
       50
176
     1
 90
       50
176
     1
 90
       50
176
     1
290
     0
176
     1
 90
       50
176
     1
 62
   256
176
     0
 40
1.0
176
     0
 90
        2
176
     1
  1
strokes_ogs.tif
176
     1
290
     0
176
     1
 40
1.0
176
     1
 40
1.0
176
     1
  0
VISUALSTYLE
  5
BE1
102
{ACAD_REACTORS
330
BCC
102
}
330
BCC
100
AcDbVisualStyle
  2
Shaded
 70
    27
177
     3
291
     0
 70
    58
 90
        2
176
     1
 90
        2
176
     1
 90
        1
176
     1
 90
        2
176
     1
 40
0.6
176
     1
 40
30.0
176
     1
 62
     7
420
 16777215
176
     1
 90
        0
176
     1
 90
        4
176
     1
 62
     7
176
     1
 62
   257
176
     1
 90
        1
176
     1
 90
        1
176
     1
 40
1.0
176
     1
 90
        8
176
     1
 62
   257
176
     1
 40
1.0
176
     1
 90
        1
176
     1
 90
        6
176
     1
 90
        2
176
     1
 62
     8
420
  7895160
176
     1
 90
        3
176
     1
 90
        0
176
     1
 90
        0
176
     1
290
     0
176
     1
 90
        5
176
     1
 40
0.0
176
     1
 90
        0
176
     1
290
     0
176
     1
290
     1
176
     1
290
     1
176
     1
290
     0
176
     1
290
     0
176
     1
290
     0
176
     1
290
     0
176
     1
290
     0
176
     1
290
     0
176
     1
 90
       50
176
     1
 40
0.0
176
     1
 40
1.0
176
     1
 90
        0
176
     1
 62
    18
420
        0
176
     1
 90
       50
176
     1
 90
        3
176
     1
 62
     5
420
      255
176
     1
290
     0
176
     1
 90
       50
176
     1
 90
       50
176
     1
 90
       50
176
     1
290
     0
176
     1
 90
       50
176
     1
 62
   256
176
     0
 40
1.0
176
     0
 90
        2
176
     1
  1
strokes_ogs.tif
176
     1
290
     0
176
     1
 40
1.0
176
     1
 40
1.0
176
     1
  0
VISUALSTYLE
  5
BE0
102
{ACAD_REACTORS
330
BCC
102
}
330
BCC
100
AcDbVisualStyle
  2
Shaded with edges
 70
    26
177
     3
291
     0
 70
    58
 90
        2
176
     1
 90
        2
176
     1
 90
        1
176
     1
 90
        2
176
     1
 40
0.6
176
     1
 40
30.0
176
     1
 62
     7
420
 16777215
176
     1
 90
        1
176
     1
 90
        2
176
     1
 62
     7
176
     1
 62
   257
176
     1
 90
        2
176
     1
 90
        1
176
     1
 40
1.0
176
     1
 90
        8
176
     1
 62
   257
176
     1
 40
1.0
176
     1
 90
        1
176
     1
 90
        6
176
     1
 90
        2
176
     1
 62
     7
176
     1
 90
        3
176
     1
 90
        0
176
     1
 90
        0
176
     1
290
     0
176
     1
 90
        5
176
     1
 40
0.0
176
     1
 90
        0
176
     1
290
     0
176
     1
290
     1
176
     1
290
     1
176
     1
290
     0
176
     1
290
     0
176
     1
290
     0
176
     1
290
     0
176
     1
290
     0
176
     1
290
     0
176
     1
 90
       50
176
     1
 40
0.0
176
     1
 40
1.0
176
     1
 90
        0
176
     1
 62
    18
420
        0
176
     1
 90
       50
176
     1
 90
        3
176
     1
 62
     5
420
      255
176
     1
290
     0
176
     1
 90
       50
176
     1
 90
       50
176
     1
 90
       50
176
     1
290
     0
176
     1
 90
       50
176
     1
 62
   256
176
     0
 40
1.0
176
     0
 90
        2
176
     1
  1
strokes_ogs.tif
176
     1
290
     0
176
     1
 40
1.0
176
     1
 40
1.0
176
     1
  0
VISUALSTYLE
  5
BDD
102
{ACAD_REACTORS
330
BCC
102
}
330
BCC
100
AcDbVisualStyle
  2
Shades of Gray
 70
    23
177
     3
291
     0
 70
    58
 90
        2
176
     1
 90
        2
176
     1
 90
        3
176
     1
 90
        0
176
     1
 40
0.6
176
     1
 40
30.0
176
     1
 62
     7
420
 16777215
176
     1
 90
        2
176
     1
 90
        2
176
     1
 62
     7
176
     1
 62
     7
176
     1
 90
        1
176
     1
 90
        1
176
     1
 40
40.0
176
     1
 90
        8
176
     1
 62
     7
176
     1
 40
1.0
176
     1
 90
        1
176
     1
 90
        6
176
     1
 90
        2
176
     1
 62
     7
176
     1
 90
        3
176
     1
 90
        0
176
     1
 90
        0
176
     1
290
     0
176
     1
 90
        1
176
     1
 40
0.0
176
     1
 90
        0
176
     1
290
     0
176
     1
290
     1
176
     1
290
     1
176
     1
290
     0
176
     1
290
     0
176
     1
290
     0
176
     1
290
     0
176
     1
290
     0
176
     1
290
     0
176
     1
 90
       50
176
     1
 40
0.0
176
     1
 40
1.0
176
     1
 90
        0
176
     1
 62
    18
420
        0
176
     1
 90
       50
176
     1
 90
        3
176
     1
 62
     5
420
      255
176
     1
290
     0
176
     1
 90
       50
176
     1
 90
       50
176
     1
 90
       50
176
     1
290
     0
176
     1
 90
       50
176
     1
 62
   256
176
     0
 40
1.0
176
     0
 90
        2
176
     1
  1
strokes_ogs.tif
176
     1
290
     0
176
     1
 40
1.0
176
     1
 40
1.0
176
     1
  0
VISUALSTYLE
  5
BDE
102
{ACAD_REACTORS
330
BCC
102
}
330
BCC
100
AcDbVisualStyle
  2
Sketchy
 70
    24
177
     3
291
     0
 70
    58
 90
        1
176
     1
 90
        2
176
     1
 90
        2
176
     1
 90
        0
176
     1
 40
0.6
176
     1
 40
30.0
176
     1
 62
     7
420
 16777215
176
     1
 90
        2
176
     1
 90
        2
176
     1
 62
     7
176
     1
 62
     7
176
     1
 90
        1
176
     1
 90
        1
176
     1
 40
40.0
176
     1
 90
       11
176
     1
 62
     7
176
     1
 40
1.0
176
     1
 90
        1
176
     1
 90
        6
176
     1
 90
        2
176
     1
 62
     7
176
     1
 90
        6
176
     1
 90
        0
176
     1
 90
        0
176
     1
290
     0
176
     1
 90
        1
176
     1
 40
0.0
176
     1
 90
        0
176
     1
290
     0
176
     1
290
     1
176
     1
290
     1
176
     1
290
     0
176
     1
290
     0
176
     1
290
     0
176
     1
290
     0
176
     1
290
     0
176
     1
290
     0
176
     1
 90
       50
176
     1
 40
0.0
176
     1
 40
1.0
176
     1
 90
        0
176
     1
 62
    18
420
        0
176
     1
 90
       50
176
     1
 90
        3
176
     1
 62
     5
420
      255
176
     1
290
     0
176
     1
 90
       50
176
     1
 90
       50
176
     1
 90
       50
176
     1
290
     0
176
     1
 90
       50
176
     1
 62
   256
176
     0
 40
1.0
176
     0
 90
        2
176
     1
  1
strokes_ogs.tif
176
     1
290
     0
176
     1
 40
1.0
176
     1
 40
1.0
176
     1
  0
VISUALSTYLE
  5
BD9
102
{ACAD_REACTORS
330
BCC
102
}
330
BCC
100
AcDbVisualStyle
  2
Thicken
 70
    13
177
     3
291
     1
 70
    58
 90
        2
176
     1
 90
        2
176
     1
 90
        0
176
     1
 90
        0
176
     1
 40
0.6
176
     1
 40
30.0
176
     1
 62
     7
420
 16777215
176
     1
 90
        1
176
     1
 90
        4
176
     1
 62
     7
176
     1
 62
   257
176
     1
 90
        1
176
     1
 90
        1
176
     1
 40
1.0
176
     1
 90
       12
176
     1
 62
     7
176
     1
 40
1.0
176
     1
 90
        1
176
     1
 90
        6
176
     1
 90
        2
176
     1
 62
     7
176
     1
 90
        5
176
     1
 90
        0
176
     1
 90
        0
176
     1
290
     0
176
     1
 90
        1
176
     1
 40
0.0
176
     1
 90
        0
176
     1
290
     0
176
     1
290
     1
176
     1
290
     1
176
     1
290
     0
176
     1
290
     0
176
     1
290
     0
176
     1
290
     0
176
     1
290
     0
176
     1
290
     0
176
     1
 90
       50
176
     1
 40
0.0
176
     1
 40
1.0
176
     1
 90
        0
176
     1
 62
    18
420
        0
176
     1
 90
       50
176
     1
 90
        3
176
     1
 62
     5
420
      255
176
     1
290
     0
176
     1
 90
       50
176
     1
 90
       50
176
     1
 90
       50
176
     1
290
     0
176
     1
 90
       50
176
     1
 62
   256
176
     0
 40
1.0
176
     0
 90
        2
176
     1
  1
strokes_ogs.tif
176
     1
290
     0
176
     1
 40
1.0
176
     1
 40
1.0
176
     1
  0
VISUALSTYLE
  5
BD3
102
{ACAD_REACTORS
330
BCC
102
}
330
BCC
100
AcDbVisualStyle
  2
Wireframe
 70
     5
177
     3
291
     0
 70
    58
 90
        0
176
     1
 90
        2
176
     1
 90
        0
176
     1
 90
        0
176
     1
 40
0.6
176
     1
 40
30.0
176
     1
 62
     7
420
 16777215
176
     1
 90
        1
176
     1
 90
        4
176
     1
 62
     7
176
     1
 62
   257
176
     1
 90
        1
176
     1
 90
        1
176
     1
 40
1.0
176
     1
 90
        0
176
     1
 62
   257
176
     1
 40
1.0
176
     1
 90
        1
176
     1
 90
        6
176
     1
 90
        2
176
     1
 62
     7
176
     1
 90
        3
176
     1
 90
        0
176
     1
 90
        0
176
     1
290
     0
176
     1
 90
        1
176
     1
 40
0.0
176
     1
 90
        0
176
     1
290
     0
176
     1
290
     1
176
     1
290
     1
176
     1
290
     0
176
     1
290
     0
176
     1
290
     0
176
     1
290
     0
176
     1
290
     0
176
     1
290
     0
176
     1
 90
       50
176
     1
 40
0.0
176
     1
 40
1.0
176
     1
 90
        0
176
     1
 62
    18
420
        0
176
     1
 90
       50
176
     1
 90
        3
176
     1
 62
     5
420
      255
176
     1
290
     0
176
     1
 90
       50
176
     1
 90
       50
176
     1
 90
       50
176
     1
290
     0
176
     1
 90
       50
176
     1
 62
   256
176
     0
 40
1.0
176
     0
 90
        2
176
     1
  1
strokes_ogs.tif
176
     1
290
     0
176
     1
 40
1.0
176
     1
 40
1.0
176
     1
  0
VISUALSTYLE
  5
BDF
102
{ACAD_REACTORS
330
BCC
102
}
330
BCC
100
AcDbVisualStyle
  2
X-Ray
 70
    25
177
     3
291
     0
 70
    58
 90
        2
176
     1
 90
        2
176
     1
 90
        1
176
     1
 90
        1
176
     1
 40
0.5
176
     1
 40
30.0
176
     1
 62
     7
420
 16777215
176
     1
 90
        1
176
     1
 90
        0
176
     1
 62
     7
176
     1
 62
   257
176
     1
 90
        1
176
     1
 90
        1
176
     1
 40
1.0
176
     1
 90
        8
176
     1
 62
     7
176
     1
 40
1.0
176
     1
 90
        1
176
     1
 90
        6
176
     1
 90
        2
176
     1
 62
     7
176
     1
 90
        3
176
     1
 90
        0
176
     1
 90
        0
176
     1
290
     0
176
     1
 90
       13
176
     1
 40
0.0
176
     1
 90
        0
176
     1
290
     0
176
     1
290
     1
176
     1
290
     1
176
     1
290
     0
176
     1
290
     0
176
     1
290
     0
176
     1
290
     0
176
     1
290
     0
176
     1
290
     0
176
     1
 90
       50
176
     1
 40
0.0
176
     1
 40
1.0
176
     1
 90
        0
176
     1
 62
    18
420
        0
176
     1
 90
       50
176
     1
 90
        3
176
     1
 62
     5
420
      255
176
     1
290
     0
176
     1
 90
       50
176
     1
 90
       50
176
     1
 90
       50
176
     1
290
     0
176
     1
 90
       50
176
     1
 62
   256
176
     0
 40
1.0
176
     0
 90
        2
176
     1
  1
strokes_ogs.tif
176
     1
290
     0
176
     1
 40
1.0
176
     1
 40
1.0
176
     1
  0
DICTIONARYVAR
  5
C11
102
{ACAD_REACTORS
330
235
102
}
330
235
100
DictionaryVariables
280
     0
  1
1:1
  0
DICTIONARYVAR
  5
C0D
102
{ACAD_REACTORS
330
235
102
}
330
235
100
DictionaryVariables
280
     0
  1
STANDARD
  0
DICTIONARYVAR
  5
C0C
102
{ACAD_REACTORS
330
235
102
}
330
235
100
DictionaryVariables
280
     0
  1
STANDARD
  0
DICTIONARYVAR
  5
C0E
102
{ACAD_REACTORS
330
235
102
}
330
235
100
DictionaryVariables
280
     0
  1
Imperial24
  0
DICTIONARYVAR
  5
C0F
102
{ACAD_REACTORS
330
235
102
}
330
235
100
DictionaryVariables
280
     0
  1
Imperial24
  0
DICTIONARYVAR
  5
236
102
{ACAD_REACTORS
330
235
102
}
330
235
100
DictionaryVariables
280
     0
  1
1
  0
DICTIONARYVAR
  5
C13
102
{ACAD_REACTORS
330
235
102
}
330
235
100
DictionaryVariables
280
     0
  1
1
  0
DICTIONARYVAR
  5
C14
102
{ACAD_REACTORS
330
235
102
}
330
235
100
DictionaryVariables
280
     0
  1
15
  0
DICTIONARYVAR
  5
C12
102
{ACAD_REACTORS
330
235
102
}
330
235
100
DictionaryVariables
280
     0
  1
0
  0
DICTIONARYVAR
  5
C10
102
{ACAD_REACTORS
330
235
102
}
330
235
100
DictionaryVariables
280
     0
  1
0
  0
DICTIONARYVAR
  5
237
102
{ACAD_REACTORS
330
235
102
}
330
235
100
DictionaryVariables
280
     0
  1

  0
DICTIONARY
  5
BBD
330
BBC
100
AcDbDictionary
280
     1
281
     1
  3
BUMPTILE
360
BBF
  3
DIFFUSETILE
360
BBE
  3
OPACITYTILE
360
BC2
  3
REFLECTIONTILE
360
BC1
  3
REFRACTIONTILE
360
BC3
  3
SPECULARTILE
360
BC0
  0
DICTIONARY
  5
BB5
330
BB4
100
AcDbDictionary
280
     1
281
     1
  3
BUMPTILE
360
BB7
  3
DIFFUSETILE
360
BB6
  3
OPACITYTILE
360
BBA
  3
REFLECTIONTILE
360
BB9
  3
REFRACTIONTILE
360
BBB
  3
SPECULARTILE
360
BB8
  0
DICTIONARY
  5
BC5
330
BC4
100
AcDbDictionary
280
     1
281
     1
  3
BUMPTILE
360
BC7
  3
DIFFUSETILE
360
BC6
  3
OPACITYTILE
360
BCA
  3
REFLECTIONTILE
360
BC9
  3
REFRACTIONTILE
360
BCB
  3
SPECULARTILE
360
BC8
  0
DICTIONARY
  5
C16
330
BE6
100
AcDbDictionary
280
     1
281
     1
  3
ACAD_ROUNDTRIP_2008_TABLESTYLE_CELLSTYLEMAP
360
C17
  0
XRECORD
  5
BBF
102
{ACAD_REACTORS
330
BBD
102
}
330
BBD
100
AcDbXrecord
280
     1
270
     1
271
     1
  0
XRECORD
  5
BBE
102
{ACAD_REACTORS
330
BBD
102
}
330
BBD
100
AcDbXrecord
280
     1
270
     1
271
     1
  0
XRECORD
  5
BC2
102
{ACAD_REACTORS
330
BBD
102
}
330
BBD
100
AcDbXrecord
280
     1
270
     1
271
     1
  0
XRECORD
  5
BC1
102
{ACAD_REACTORS
330
BBD
102
}
330
BBD
100
AcDbXrecord
280
     1
270
     1
271
     1
  0
XRECORD
  5
BC3
102
{ACAD_REACTORS
330
BBD
102
}
330
BBD
100
AcDbXrecord
280
     1
270
     1
271
     1
  0
XRECORD
  5
BC0
102
{ACAD_REACTORS
330
BBD
102
}
330
BBD
100
AcDbXrecord
280
     1
270
     1
271
     1
  0
XRECORD
  5
BB7
102
{ACAD_REACTORS
330
BB5
102
}
330
BB5
100
AcDbXrecord
280
     1
270
     1
271
     1
  0
XRECORD
  5
BB6
102
{ACAD_REACTORS
330
BB5
102
}
330
BB5
100
AcDbXrecord
280
     1
270
     1
271
     1
  0
XRECORD
  5
BBA
102
{ACAD_REACTORS
330
BB5
102
}
330
BB5
100
AcDbXrecord
280
     1
270
     1
271
     1
  0
XRECORD
  5
BB9
102
{ACAD_REACTORS
330
BB5
102
}
330
BB5
100
AcDbXrecord
280
     1
270
     1
271
     1
  0
XRECORD
  5
BBB
102
{ACAD_REACTORS
330
BB5
102
}
330
BB5
100
AcDbXrecord
280
     1
270
     1
271
     1
  0
XRECORD
  5
BB8
102
{ACAD_REACTORS
330
BB5
102
}
330
BB5
100
AcDbXrecord
280
     1
270
     1
271
     1
  0
XRECORD
  5
BC7
102
{ACAD_REACTORS
330
BC5
102
}
330
BC5
100
AcDbXrecord
280
     1
270
     1
271
     1
  0
XRECORD
  5
BC6
102
{ACAD_REACTORS
330
BC5
102
}
330
BC5
100
AcDbXrecord
280
     1
270
     1
271
     1
  0
XRECORD
  5
BCA
102
{ACAD_REACTORS
330
BC5
102
}
330
BC5
100
AcDbXrecord
280
     1
270
     1
271
     1
  0
XRECORD
  5
BC9
102
{ACAD_REACTORS
330
BC5
102
}
330
BC5
100
AcDbXrecord
280
     1
270
     1
271
     1
  0
XRECORD
  5
BCB
102
{ACAD_REACTORS
330
BC5
102
}
330
BC5
100
AcDbXrecord
280
     1
270
     1
271
     1
  0
XRECORD
  5
BC8
102
{ACAD_REACTORS
330
BC5
102
}
330
BC5
100
AcDbXrecord
280
     1
270
     1
271
     1
  0
CELLSTYLEMAP
  5
C17
102
{ACAD_REACTORS
330
C16
102
}
330
C16
100
AcDbCellStyleMap
 90
        3
300
CELLSTYLE
  1
TABLEFORMAT_BEGIN
 90
        5
170
     1
 91
        0
 92
    32768
 62
   257
 93
        1
300
CONTENTFORMAT
  1
CONTENTFORMAT_BEGIN
 90
        0
 91
        0
 92
      512
 93
        0
300

 40
0.0
140
1.0
 94
        5
 62
     0
340
11
144
0.25
309
CONTENTFORMAT_END
171
     0
 94
        0
309
TABLEFORMAT_END
  1
CELLSTYLE_BEGIN
 90
        1
 91
        1
300
_TITLE
309
CELLSTYLE_END
300
CELLSTYLE
  1
TABLEFORMAT_BEGIN
 90
        5
170
     1
 91
        0
 92
        0
 62
   257
 93
        1
300
CONTENTFORMAT
  1
CONTENTFORMAT_BEGIN
 90
        0
 91
        0
 92
      512
 93
        0
300

 40
0.0
140
1.0
 94
        5
 62
     0
340
11
144
0.18
309
CONTENTFORMAT_END
171
     0
 94
        0
309
TABLEFORMAT_END
  1
CELLSTYLE_BEGIN
 90
        2
 91
        1
300
_HEADER
309
CELLSTYLE_END
300
CELLSTYLE
  1
TABLEFORMAT_BEGIN
 90
        5
170
     1
 91
        0
 92
        0
 62
   257
 93
        1
300
CONTENTFORMAT
  1
CONTENTFORMAT_BEGIN
 90
        0
 91
        0
 92
      512
 93
        0
300

 40
0.0
140
1.0
 94
        2
 62
     0
340
11
144
0.18
309
CONTENTFORMAT_END
171
     0
 94
        0
309
TABLEFORMAT_END
  1
CELLSTYLE_BEGIN
 90
        3
 91
        2
300
_DATA
309
CELLSTYLE_END
  0
ENDSEC
  0
EOF
