  0
SECTION
  2
HEADER
  9
$ACADVER
  1
AC1015
  9
$ACADMAINTVER
 70
    20
  9
$DWGCODEPAGE
  3
ANSI_932
  9
$INSBASE
 10
0.0
 20
0.0
 30
0.0
  9
$EXTMIN
 10
299.7015931192836
 20
199.8230080583871
 30
-0.0000000349181948
  9
$EXTMAX
 10
5640.297456922548
 20
3900.201425445501
 30
0.0000000814935746
  9
$LIMMIN
 10
0.0
 20
0.0
  9
$LIMMAX
 10
5940.0
 20
4200.0
  9
$ORTHOMODE
 70
     1
  9
$REGENMODE
 70
     1
  9
$FILLMODE
 70
     1
  9
$QTEXTMODE
 70
     0
  9
$MIRRTEXT
 70
     0
  9
$LTSCALE
 40
20.0
  9
$ATTMODE
 70
     1
  9
$TEXTSIZE
 40
0.2
  9
$TRACEWID
 40
0.05
  9
$TEXTSTYLE
  7
STANDARD
  9
$CLAYER
  8
0
  9
$CELTYPE
  6
CONTINUOUS
  9
$CECOLOR
 62
   256
  9
$CELTSCALE
 40
1.0
  9
$DISPSILH
 70
     0
  9
$DIMSCALE
 40
1.0
  9
$DIMASZ
 40
0.18
  9
$DIMEXO
 40
0.0625
  9
$DIMDLI
 40
0.38
  9
$DIMRND
 40
0.0
  9
$DIMDLE
 40
0.0
  9
$DIMEXE
 40
0.18
  9
$DIMTP
 40
0.0
  9
$DIMTM
 40
0.0
  9
$DIMTXT
 40
0.18
  9
$DIMCEN
 40
0.09
  9
$DIMTSZ
 40
0.0
  9
$DIMTOL
 70
     0
  9
$DIMLIM
 70
     0
  9
$DIMTIH
 70
     1
  9
$DIMTOH
 70
     1
  9
$DIMSE1
 70
     0
  9
$DIMSE2
 70
     0
  9
$DIMTAD
 70
     0
  9
$DIMZIN
 70
     0
  9
$DIMBLK
  1

  9
$DIMASO
 70
     1
  9
$DIMSHO
 70
     1
  9
$DIMPOST
  1

  9
$DIMAPOST
  1

  9
$DIMALT
 70
     0
  9
$DIMALTD
 70
     2
  9
$DIMALTF
 40
25.4
  9
$DIMLFAC
 40
1.0
  9
$DIMTOFL
 70
     0
  9
$DIMTVP
 40
0.0
  9
$DIMTIX
 70
     0
  9
$DIMSOXD
 70
     0
  9
$DIMSAH
 70
     0
  9
$DIMBLK1
  1

  9
$DIMBLK2
  1

  9
$DIMSTYLE
  2
Standard
  9
$DIMCLRD
 70
     0
  9
$DIMCLRE
 70
     0
  9
$DIMCLRT
 70
     0
  9
$DIMTFAC
 40
1.0
  9
$DIMGAP
 40
0.09
  9
$DIMJUST
 70
     0
  9
$DIMSD1
 70
     0
  9
$DIMSD2
 70
     0
  9
$DIMTOLJ
 70
     1
  9
$DIMTZIN
 70
     0
  9
$DIMALTZ
 70
     0
  9
$DIMALTTZ
 70
     0
  9
$DIMUPT
 70
     0
  9
$DIMDEC
 70
     4
  9
$DIMTDEC
 70
     4
  9
$DIMALTU
 70
     2
  9
$DIMALTTD
 70
     2
  9
$DIMTXSTY
  7
STANDARD
  9
$DIMAUNIT
 70
     0
  9
$DIMADEC
 70
     0
  9
$DIMALTRND
 40
0.0
  9
$DIMAZIN
 70
     0
  9
$DIMDSEP
 70
    46
  9
$DIMATFIT
 70
     3
  9
$DIMFRAC
 70
     0
  9
$DIMLDRBLK
  1

  9
$DIMLUNIT
 70
     2
  9
$DIMLWD
 70
    -2
  9
$DIMLWE
 70
    -2
  9
$DIMTMOVE
 70
     0
  9
$LUNITS
 70
     2
  9
$LUPREC
 70
     4
  9
$SKETCHINC
 40
0.1
  9
$FILLETRAD
 40
0.0
  9
$AUNITS
 70
     0
  9
$AUPREC
 70
     0
  9
$MENU
  1
.
  9
$ELEVATION
 40
0.0
  9
$PELEVATION
 40
0.0
  9
$THICKNESS
 40
0.0
  9
$LIMCHECK
 70
     0
  9
$CHAMFERA
 40
0.0
  9
$CHAMFERB
 40
0.0
  9
$CHAMFERC
 40
0.0
  9
$CHAMFERD
 40
0.0
  9
$SKPOLY
 70
     0
  9
$TDCREATE
 40
2456348.949159687
  9
$TDUCREATE
 40
2456348.574159687
  9
$TDUPDATE
 40
2456348.955322604
  9
$TDUUPDATE
 40
2456348.580322604
  9
$TDINDWG
 40
0.0061639236
  9
$TDUSRTIMER
 40
0.0061639236
  9
$USRTIMER
 70
     1
  9
$ANGBASE
 50
0.0
  9
$ANGDIR
 70
     0
  9
$PDMODE
 70
     0
  9
$PDSIZE
 40
0.0
  9
$PLINEWID
 40
0.0
  9
$SPLFRAME
 70
     0
  9
$SPLINETYPE
 70
     6
  9
$SPLINESEGS
 70
     8
  9
$HANDSEED
  5
7D8
  9
$SURFTAB1
 70
     6
  9
$SURFTAB2
 70
     6
  9
$SURFTYPE
 70
     6
  9
$SURFU
 70
     6
  9
$SURFV
 70
     6
  9
$UCSBASE
  2

  9
$UCSNAME
  2

  9
$UCSORG
 10
0.0
 20
0.0
 30
0.0
  9
$UCSXDIR
 10
1.0
 20
0.0
 30
0.0
  9
$UCSYDIR
 10
0.0
 20
1.0
 30
0.0
  9
$UCSORTHOREF
  2

  9
$UCSORTHOVIEW
 70
     0
  9
$UCSORGTOP
 10
0.0
 20
0.0
 30
0.0
  9
$UCSORGBOTTOM
 10
0.0
 20
0.0
 30
0.0
  9
$UCSORGLEFT
 10
0.0
 20
0.0
 30
0.0
  9
$UCSORGRIGHT
 10
0.0
 20
0.0
 30
0.0
  9
$UCSORGFRONT
 10
0.0
 20
0.0
 30
0.0
  9
$UCSORGBACK
 10
0.0
 20
0.0
 30
0.0
  9
$PUCSBASE
  2

  9
$PUCSNAME
  2

  9
$PUCSORG
 10
0.0
 20
0.0
 30
0.0
  9
$PUCSXDIR
 10
1.0
 20
0.0
 30
0.0
  9
$PUCSYDIR
 10
0.0
 20
1.0
 30
0.0
  9
$PUCSORTHOREF
  2

  9
$PUCSORTHOVIEW
 70
     0
  9
$PUCSORGTOP
 10
0.0
 20
0.0
 30
0.0
  9
$PUCSORGBOTTOM
 10
0.0
 20
0.0
 30
0.0
  9
$PUCSORGLEFT
 10
0.0
 20
0.0
 30
0.0
  9
$PUCSORGRIGHT
 10
0.0
 20
0.0
 30
0.0
  9
$PUCSORGFRONT
 10
0.0
 20
0.0
 30
0.0
  9
$PUCSORGBACK
 10
0.0
 20
0.0
 30
0.0
  9
$USERI1
 70
     0
  9
$USERI2
 70
     0
  9
$USERI3
 70
     0
  9
$USERI4
 70
     0
  9
$USERI5
 70
     0
  9
$USERR1
 40
0.0
  9
$USERR2
 40
0.0
  9
$USERR3
 40
0.0
  9
$USERR4
 40
0.0
  9
$USERR5
 40
0.0
  9
$WORLDVIEW
 70
     1
  9
$SHADEDGE
 70
     3
  9
$SHADEDIF
 70
    70
  9
$TILEMODE
 70
     1
  9
$MAXACTVP
 70
    64
  9
$PINSBASE
 10
0.0
 20
0.0
 30
0.0
  9
$PLIMCHECK
 70
     0
  9
$PEXTMIN
 10
1.000000000000000E+20
 20
1.000000000000000E+20
 30
1.000000000000000E+20
  9
$PEXTMAX
 10
-1.000000000000000E+20
 20
-1.000000000000000E+20
 30
-1.000000000000000E+20
  9
$PLIMMIN
 10
0.0
 20
0.0
  9
$PLIMMAX
 10
12.0
 20
9.0
  9
$UNITMODE
 70
     0
  9
$VISRETAIN
 70
     1
  9
$PLINEGEN
 70
     0
  9
$PSLTSCALE
 70
     1
  9
$TREEDEPTH
 70
  3020
  9
$CMLSTYLE
  2
Standard
  9
$CMLJUST
 70
     0
  9
$CMLSCALE
 40
1.0
  9
$PROXYGRAPHICS
 70
     1
  9
$MEASUREMENT
 70
     0
  9
$CELWEIGHT
370
    -1
  9
$ENDCAPS
280
     0
  9
$JOINSTYLE
280
     0
  9
$LWDISPLAY
290
     0
  9
$INSUNITS
 70
     0
  9
$HYPERLINKBASE
  1

  9
$STYLESHEET
  1

  9
$XEDIT
290
     1
  9
$CEPSNTYPE
380
     0
  9
$PSTYLEMODE
290
     1
  9
$FINGERPRINTGUID
  2
{9E530446-879F-4E0E-A0B9-8B476BEEC2E5}
  9
$VERSIONGUID
  2
{385DC5D1-ADAD-46D9-A920-B60842BDACFF}
  9
$EXTNAMES
290
     1
  9
$PSVPSCALE
 40
0.0
  9
$OLESTARTUP
290
     0
  0
ENDSEC
  0
SECTION
  2
CLASSES
  0
CLASS
  1
ACDBDICTIONARYWDFLT
  2
AcDbDictionaryWithDefault
  3
ObjectDBX Classes
 90
        0
280
     0
281
     0
  0
CLASS
  1
DICTIONARYVAR
  2
AcDbDictionaryVar
  3
ObjectDBX Classes
 90
        0
280
     0
281
     0
  0
CLASS
  1
ACDBPLACEHOLDER
  2
AcDbPlaceHolder
  3
ObjectDBX Classes
 90
        0
280
     0
281
     0
  0
CLASS
  1
LAYOUT
  2
AcDbLayout
  3
ObjectDBX Classes
 90
        0
280
     0
281
     0
  0
ENDSEC
  0
SECTION
  2
TABLES
  0
TABLE
  2
VPORT
  5
8
330
0
100
AcDbSymbolTable
 70
     8
  0
VPORT
  5
7D0
330
8
100
AcDbSymbolTableRecord
100
AcDbViewportTableRecord
  2
*Active
 70
     0
 10
0.0
 20
0.0
 11
1.0
 21
1.0
 12
2970.0
 22
2100.0
 13
0.0
 23
0.0
 14
1.0
 24
1.0
 15
0.0
 25
0.0
 16
0.0
 26
0.0
 36
1.0
 17
0.0
 27
0.0
 37
0.0
 40
4238.948995363215
 41
1.439628482972136
 42
50.0
 43
0.0
 44
0.0
 50
0.0
 51
0.0
 71
     0
 72
   100
 73
     1
 74
     1
 75
     0
 76
     0
 77
     0
 78
     0
281
     0
 65
     1
110
0.0
120
0.0
130
0.0
111
1.0
121
0.0
131
0.0
112
0.0
122
1.0
132
0.0
 79
     0
146
0.0
  0
ENDTAB
  0
TABLE
  2
LTYPE
  5
5
330
0
100
AcDbSymbolTable
 70
    35
  0
LTYPE
  5
13
330
5
100
AcDbSymbolTableRecord
100
AcDbLinetypeTableRecord
  2
ByBlock
 70
     0
  3

 72
    65
 73
     0
 40
0.0
  0
LTYPE
  5
14
330
5
100
AcDbSymbolTableRecord
100
AcDbLinetypeTableRecord
  2
ByLayer
 70
     0
  3

 72
    65
 73
     0
 40
0.0
  0
LTYPE
  5
15
330
5
100
AcDbSymbolTableRecord
100
AcDbLinetypeTableRecord
  2
CONTINUOUS
 70
     0
  3
実線
 72
    65
 73
     0
 40
0.0
  0
LTYPE
  5
24
330
5
100
AcDbSymbolTableRecord
100
AcDbLinetypeTableRecord
  2
DASHED1
 70
     0
  3
--  --  --  --  --  --  --  --  
 72
    65
 73
     2
 40
2.5
 49
1.25
 74
     0
 49
-1.25
 74
     0
  0
LTYPE
  5
25
330
5
100
AcDbSymbolTableRecord
100
AcDbLinetypeTableRecord
  2
DASHED2
 70
     0
  3
----    ----    ----    ----    
 72
    65
 73
     2
 40
5.0
 49
2.5
 74
     0
 49
-2.5
 74
     0
  0
LTYPE
  5
26
330
5
100
AcDbSymbolTableRecord
100
AcDbLinetypeTableRecord
  2
DASHED3
 70
     0
  3
------  ------  ------  ------  
 72
    65
 73
     2
 40
5.0
 49
3.75
 74
     0
 49
-1.25
 74
     0
  0
LTYPE
  5
27
330
5
100
AcDbSymbolTableRecord
100
AcDbLinetypeTableRecord
  2
CENTER1
 70
     0
  3
----- - ----- - ----- - ----- - 
 72
    65
 73
     4
 40
10.0
 49
6.25
 74
     0
 49
-1.25
 74
     0
 49
1.25
 74
     0
 49
-1.25
 74
     0
  0
LTYPE
  5
28
330
5
100
AcDbSymbolTableRecord
100
AcDbLinetypeTableRecord
  2
CENTER2
 70
     0
  3
----------  --  ----------  --  
 72
    65
 73
     4
 40
20.0
 49
12.5
 74
     0
 49
-2.5
 74
     0
 49
2.5
 74
     0
 49
-2.5
 74
     0
  0
LTYPE
  5
29
330
5
100
AcDbSymbolTableRecord
100
AcDbLinetypeTableRecord
  2
PHANTOM1
 70
     0
  3
--- - - --- - - --- - - --- - - 
 72
    65
 73
     6
 40
10.0
 49
3.25
 74
     0
 49
-1.25
 74
     0
 49
1.25
 74
     0
 49
-1.25
 74
     0
 49
1.25
 74
     0
 49
-1.25
 74
     0
  0
LTYPE
  5
2A
330
5
100
AcDbSymbolTableRecord
100
AcDbLinetypeTableRecord
  2
PHANTOM2
 70
     0
  3
--------  -  -  --------  -  -  
 72
    65
 73
     6
 40
20.0
 49
10.0
 74
     0
 49
-2.5
 74
     0
 49
1.25
 74
     0
 49
-2.5
 74
     0
 49
1.25
 74
     0
 49
-2.5
 74
     0
  0
LTYPE
  5
2B
330
5
100
AcDbSymbolTableRecord
100
AcDbLinetypeTableRecord
  2
DOT
 70
     0
  3
-   -   -   -   -   -   -   -   
 72
    65
 73
     2
 40
2.5
 49
0.625
 74
     0
 49
-1.875
 74
     0
  0
LTYPE
  5
2C
330
5
100
AcDbSymbolTableRecord
100
AcDbLinetypeTableRecord
  2
DUMMY
 70
     0
  3
ダミー
 72
    65
 73
     0
 40
0.0
  0
LTYPE
  5
2D
330
5
100
AcDbSymbolTableRecord
100
AcDbLinetypeTableRecord
  2
RAND1
 70
     0
  3
ランダム線1
 72
    65
 73
     4
 40
10.0
 49
1.0
 74
     0
 49
-2.0
 74
     0
 49
3.0
 74
     0
 49
-4.0
 74
     0
  0
LTYPE
  5
2E
330
5
100
AcDbSymbolTableRecord
100
AcDbLinetypeTableRecord
  2
RAND2
 70
     0
  3
ランダム線2
 72
    65
 73
     4
 40
14.0
 49
2.0
 74
     0
 49
-3.0
 74
     0
 49
4.0
 74
     0
 49
-5.0
 74
     0
  0
LTYPE
  5
2F
330
5
100
AcDbSymbolTableRecord
100
AcDbLinetypeTableRecord
  2
RAND3
 70
     0
  3
ランダム線3
 72
    65
 73
     4
 40
18.0
 49
3.0
 74
     0
 49
-4.0
 74
     0
 49
5.0
 74
     0
 49
-6.0
 74
     0
  0
LTYPE
  5
30
330
5
100
AcDbSymbolTableRecord
100
AcDbLinetypeTableRecord
  2
RAND4
 70
     0
  3
ランダム線4
 72
    65
 73
     4
 40
22.0
 49
4.0
 74
     0
 49
-5.0
 74
     0
 49
6.0
 74
     0
 49
-7.0
 74
     0
  0
LTYPE
  5
31
330
5
100
AcDbSymbolTableRecord
100
AcDbLinetypeTableRecord
  2
RAND5
 70
     0
  3
ランダム線5
 72
    65
 73
     4
 40
26.0
 49
5.0
 74
     0
 49
-6.0
 74
     0
 49
7.0
 74
     0
 49
-8.0
 74
     0
  0
LTYPE
  5
32
330
5
100
AcDbSymbolTableRecord
100
AcDbLinetypeTableRecord
  2
LONG1
 70
     0
  3
----------  --  ----------  --  
 72
    65
 73
     4
 40
40.0
 49
32.5
 74
     0
 49
-2.5
 74
     0
 49
2.5
 74
     0
 49
-2.5
 74
     0
  0
LTYPE
  5
33
330
5
100
AcDbSymbolTableRecord
100
AcDbLinetypeTableRecord
  2
LONG2
 70
     0
  3
--------  -  -  --------  -  -  
 72
    65
 73
     6
 40
40.0
 49
30.0
 74
     0
 49
-2.5
 74
     0
 49
1.25
 74
     0
 49
-2.5
 74
     0
 49
1.25
 74
     0
 49
-2.5
 74
     0
  0
LTYPE
  5
34
330
5
100
AcDbSymbolTableRecord
100
AcDbLinetypeTableRecord
  2
LONG3
 70
     0
  3
+++++++++++++++..+++++++++++++++
 72
    65
 73
     2
 40
40.0
 49
37.5
 74
     0
 49
-2.5
 74
     0
  0
LTYPE
  5
35
330
5
100
AcDbSymbolTableRecord
100
AcDbLinetypeTableRecord
  2
LONG4
 70
     0
  3
+++++++++++++++..+++++++++++++++
 72
    65
 73
     2
 40
80.0
 49
75.0
 74
     0
 49
-5.0
 74
     0
  0
LTYPE
  5
36
330
5
100
AcDbSymbolTableRecord
100
AcDbLinetypeTableRecord
  2
LONG5
 70
     0
  3
----------  --  ----------  --  
 72
    65
 73
     4
 40
60.0
 49
37.5
 74
     0
 49
-7.5
 74
     0
 49
7.5
 74
     0
 49
-7.5
 74
     0
  0
LTYPE
  5
37
330
5
100
AcDbSymbolTableRecord
100
AcDbLinetypeTableRecord
  2
DASHED
 70
     0
  3
-------   -------------   ------
 72
    65
 73
     2
 40
7.5
 49
6.0
 74
     0
 49
-1.5
 74
     0
  0
LTYPE
  5
38
330
5
100
AcDbSymbolTableRecord
100
AcDbLinetypeTableRecord
  2
DASHED_SPACED
 70
     0
  3
----        --------        ----
 72
    65
 73
     2
 40
12.0
 49
6.0
 74
     0
 49
-6.0
 74
     0
  0
LTYPE
  5
39
330
5
100
AcDbSymbolTableRecord
100
AcDbLinetypeTableRecord
  2
LONG_DASHED_DOTTED
 70
     0
  3
------------- --- --------------
 72
    65
 73
     4
 40
15.25
 49
12.0
 74
     0
 49
-1.5
 74
     0
 49
0.25
 74
     0
 49
-1.5
 74
     0
  0
LTYPE
  5
3A
330
5
100
AcDbSymbolTableRecord
100
AcDbLinetypeTableRecord
  2
LONG_DASHED_DOUBLE-DOTTED
 70
     0
  3
----------- --- --- ------------
 72
    65
 73
     6
 40
17.0
 49
12.0
 74
     0
 49
-1.5
 74
     0
 49
0.25
 74
     0
 49
-1.5
 74
     0
 49
0.25
 74
     0
 49
-1.5
 74
     0
  0
LTYPE
  5
3B
330
5
100
AcDbSymbolTableRecord
100
AcDbLinetypeTableRecord
  2
LONG_DASHED_TRIPLICATE-DOTTED
 70
     0
  3
--------- --- --- --- ----------
 72
    65
 73
     8
 40
18.75
 49
12.0
 74
     0
 49
-1.5
 74
     0
 49
0.25
 74
     0
 49
-1.5
 74
     0
 49
0.25
 74
     0
 49
-1.5
 74
     0
 49
0.25
 74
     0
 49
-1.5
 74
     0
  0
LTYPE
  5
3C
330
5
100
AcDbSymbolTableRecord
100
AcDbLinetypeTableRecord
  2
DOTTED
 70
     0
  3
   -       -       -       -    
 72
    65
 73
     2
 40
1.75
 49
0.25
 74
     0
 49
-1.5
 74
     0
  0
LTYPE
  5
3D
330
5
100
AcDbSymbolTableRecord
100
AcDbLinetypeTableRecord
  2
CHAIN
 70
     0
  3
-------------- -- --------------
 72
    65
 73
     4
 40
18.5
 49
12.0
 74
     0
 49
-1.5
 74
     0
 49
3.5
 74
     0
 49
-1.5
 74
     0
  0
LTYPE
  5
3E
330
5
100
AcDbSymbolTableRecord
100
AcDbLinetypeTableRecord
  2
CHAIN_DOUBLE_DASH
 70
     0
  3
------------ -- -- -------------
 72
    65
 73
     6
 40
23.5
 49
12.0
 74
     0
 49
-1.5
 74
     0
 49
3.5
 74
     0
 49
-1.5
 74
     0
 49
3.5
 74
     0
 49
-1.5
 74
     0
  0
LTYPE
  5
3F
330
5
100
AcDbSymbolTableRecord
100
AcDbLinetypeTableRecord
  2
DASHED_DOTTED
 70
     0
  3
-----------     -     ----------
 72
    65
 73
     4
 40
9.25
 49
6.0
 74
     0
 49
-1.5
 74
     0
 49
0.25
 74
     0
 49
-1.5
 74
     0
  0
LTYPE
  5
40
330
5
100
AcDbSymbolTableRecord
100
AcDbLinetypeTableRecord
  2
DOUBLE-DASHED_DOTTED
 70
     0
  3
------   -----------   -   -----
 72
    65
 73
     6
 40
16.75
 49
6.0
 74
     0
 49
-1.5
 74
     0
 49
6.0
 74
     0
 49
-1.5
 74
     0
 49
0.25
 74
     0
 49
-1.5
 74
     0
  0
LTYPE
  5
41
330
5
100
AcDbSymbolTableRecord
100
AcDbLinetypeTableRecord
  2
DASHED_DOUBLE-DOTTED
 70
     0
  3
---------    -    -    ---------
 72
    65
 73
     6
 40
11.0
 49
6.0
 74
     0
 49
-1.5
 74
     0
 49
0.25
 74
     0
 49
-1.5
 74
     0
 49
0.25
 74
     0
 49
-1.5
 74
     0
  0
LTYPE
  5
42
330
5
100
AcDbSymbolTableRecord
100
AcDbLinetypeTableRecord
  2
DOUBLE-DASHED_DOUBLE-DOTTED
 70
     0
  3
-----   ---------   -   -   ----
 72
    65
 73
     8
 40
18.5
 49
6.0
 74
     0
 49
-1.5
 74
     0
 49
6.0
 74
     0
 49
-1.5
 74
     0
 49
0.25
 74
     0
 49
-1.5
 74
     0
 49
0.25
 74
     0
 49
-1.5
 74
     0
  0
LTYPE
  5
43
330
5
100
AcDbSymbolTableRecord
100
AcDbLinetypeTableRecord
  2
DASHED_TRIPLICATE-DOTTED
 70
     0
  3
-------    -    -    -    ------
 72
    65
 73
     8
 40
12.75
 49
6.0
 74
     0
 49
-1.5
 74
     0
 49
0.25
 74
     0
 49
-1.5
 74
     0
 49
0.25
 74
     0
 49
-1.5
 74
     0
 49
0.25
 74
     0
 49
-1.5
 74
     0
  0
LTYPE
  5
44
330
5
100
AcDbSymbolTableRecord
100
AcDbLinetypeTableRecord
  2
DOUBLE-DASHED_TRIPLICATE-DOTTED
 70
     0
  3
-----  ---------  -  -  -  -----
 72
    65
 73
    10
 40
20.25
 49
6.0
 74
     0
 49
-1.5
 74
     0
 49
6.0
 74
     0
 49
-1.5
 74
     0
 49
0.25
 74
     0
 49
-1.5
 74
     0
 49
0.25
 74
     0
 49
-1.5
 74
     0
 49
0.25
 74
     0
 49
-1.5
 74
     0
  0
LTYPE
  5
45
330
5
100
AcDbSymbolTableRecord
100
AcDbLinetypeTableRecord
  2
UNDEFINED
 70
     0
  3
--------------------------------
 72
    65
 73
     0
 40
0.0
  0
ENDTAB
  0
TABLE
  2
LAYER
  5
2
330
0
100
AcDbSymbolTable
 70
     3
  0
LAYER
  5
10
330
2
100
AcDbSymbolTableRecord
100
AcDbLayerTableRecord
  2
0
 70
     0
 62
     7
  6
CONTINUOUS
370
    -3
390
F
  0
LAYER
  5
47
330
2
100
AcDbSymbolTableRecord
100
AcDbLayerTableRecord
  2
_0-0_
 70
     0
 62
     7
  6
CONTINUOUS
370
    -3
390
F
  0
LAYER
  5
48
330
2
100
AcDbSymbolTableRecord
100
AcDbLayerTableRecord
  2
ADD_LINE
 70
     0
 62
     7
  6
CONTINUOUS
370
    -3
390
F
  0
ENDTAB
  0
TABLE
  2
STYLE
  5
3
330
0
100
AcDbSymbolTable
 70
     2
  0
STYLE
  5
11
330
3
100
AcDbSymbolTableRecord
100
AcDbTextStyleTableRecord
  2
STANDARD
 70
     0
 40
0.0
 41
1.0
 50
0.0
 71
     0
 42
0.2
  3

  4

1001
ACAD
1000
MS Gothic
1071
    32817
  0
STYLE
  5
46
330
3
100
AcDbSymbolTableRecord
100
AcDbTextStyleTableRecord
  2
TATEGAKI
 70
     4
 40
0.0
 41
1.0
 50
0.0
 71
     0
 42
1.0
  3
txt
  4
bigfont.shx
  0
ENDTAB
  0
TABLE
  2
VIEW
  5
6
330
0
100
AcDbSymbolTable
 70
     0
  0
ENDTAB
  0
TABLE
  2
UCS
  5
7
330
0
100
AcDbSymbolTable
 70
     0
  0
ENDTAB
  0
TABLE
  2
APPID
  5
9
330
0
100
AcDbSymbolTable
 70
     1
  0
APPID
  5
12
330
9
100
AcDbSymbolTableRecord
100
AcDbRegAppTableRecord
  2
ACAD
 70
     0
  0
ENDTAB
  0
TABLE
  2
DIMSTYLE
  5
A
330
0
100
AcDbSymbolTable
 70
     1
100
AcDbDimStyleTable
 71
     0
  0
DIMSTYLE
105
32A
330
A
100
AcDbSymbolTableRecord
100
AcDbDimStyleTableRecord
  2
Standard
 70
     0
340
11
  0
ENDTAB
  0
TABLE
  2
BLOCK_RECORD
  5
1
330
0
100
AcDbSymbolTable
 70
     1
  0
BLOCK_RECORD
  5
20
330
1
100
AcDbSymbolTableRecord
100
AcDbBlockTableRecord
  2
*Model_Space
340
23
  0
BLOCK_RECORD
  5
1C
330
1
100
AcDbSymbolTableRecord
100
AcDbBlockTableRecord
  2
*Paper_Space
340
1F
  0
ENDTAB
  0
ENDSEC
  0
SECTION
  2
BLOCKS
  0
BLOCK
  5
21
330
20
100
AcDbEntity
  8
0
100
AcDbBlockBegin
  2
*Model_Space
 70
     0
 10
0.0
 20
0.0
 30
0.0
  3
*Model_Space
  1

  0
ENDBLK
  5
22
330
20
100
AcDbEntity
  8
0
100
AcDbBlockEnd
  0
BLOCK
  5
1D
330
1C
100
AcDbEntity
 67
     1
  8
0
100
AcDbBlockBegin
  2
*Paper_Space
 70
     0
 10
0.0
 20
0.0
 30
0.0
  3
*Paper_Space
  1

  0
ENDBLK
  5
1E
330
1C
100
AcDbEntity
 67
     1
  8
0
100
AcDbBlockEnd
  0
ENDSEC
  0
SECTION
  2
ENTITIES
  0
LINE
  5
4C
330
20
100
AcDbEntity
  8
_0-0_
  6
Continuous
 62
     4
100
AcDbLine
 10
3970.0
 20
1920.0
 30
0.0
 11
3970.0
 21
1720.0
 31
0.0
  0
LINE
  5
4D
330
20
100
AcDbEntity
  8
_0-0_
  6
Continuous
 62
     4
100
AcDbLine
 10
4390.0
 20
1900.0
 30
0.0
 11
4510.0
 21
1900.0
 31
0.0
  0
TEXT
  5
4E
330
20
100
AcDbEntity
  8
_0-0_
 62
     7
100
AcDbText
 10
4397.499999999999
 20
1900.0
 30
0.0
 40
100.0
  1
120
 41
0.5999999999999999
100
AcDbText
  0
LINE
  5
4F
330
20
100
AcDbEntity
  8
_0-0_
  6
Continuous
 62
     7
100
AcDbLine
 10
1460.0
 20
3090.0
 30
0.0
 11
2670.0
 21
3090.0
 31
0.0
  0
LINE
  5
50
330
20
100
AcDbEntity
  8
_0-0_
  6
CENTER1
 62
     4
100
AcDbLine
 10
3130.0
 20
1115.0
 30
0.0
 11
2990.0
 21
1115.0
 31
0.0
  0
LINE
  5
51
330
20
100
AcDbEntity
  8
_0-0_
  6
Continuous
 62
     2
100
AcDbLine
 10
300.0
 20
3900.0
 30
0.0
 11
5640.0
 21
3900.0
 31
0.0
  0
LINE
  5
52
330
20
100
AcDbEntity
  8
_0-0_
  6
Continuous
 62
     2
100
AcDbLine
 10
5640.0
 20
3900.0
 30
0.0
 11
5640.0
 21
200.0
 31
0.0
  0
LINE
  5
53
330
20
100
AcDbEntity
  8
_0-0_
  6
Continuous
 62
     2
100
AcDbLine
 10
5640.0
 20
200.0
 30
0.0
 11
300.0
 21
200.0
 31
0.0
  0
LINE
  5
54
330
20
100
AcDbEntity
  8
_0-0_
  6
Continuous
 62
     2
100
AcDbLine
 10
300.0
 20
200.0
 30
0.0
 11
300.0
 21
3900.0
 31
0.0
  0
LINE
  5
55
330
20
100
AcDbEntity
  8
_0-0_
  6
Continuous
 62
     7
100
AcDbLine
 10
1556.0
 20
1700.0
 30
0.0
 11
1556.0
 21
1670.0
 31
0.0
  0
LINE
  5
56
330
20
100
AcDbEntity
  8
_0-0_
  6
Continuous
 62
     7
100
AcDbLine
 10
1567.5
 20
1700.0
 30
0.0
 11
1567.5
 21
1670.0
 31
0.0
  0
LINE
  5
57
330
20
100
AcDbEntity
  8
_0-0_
  6
Continuous
 62
     7
100
AcDbLine
 10
2574.0
 20
1700.0
 30
0.0
 11
2574.0
 21
1670.0
 31
0.0
  0
LINE
  5
58
330
20
100
AcDbEntity
  8
_0-0_
  6
Continuous
 62
     7
100
AcDbLine
 10
2562.5
 20
1700.0
 30
0.0
 11
2562.5
 21
1670.0
 31
0.0
  0
LINE
  5
59
330
20
100
AcDbEntity
  8
_0-0_
  6
Continuous
 62
     3
100
AcDbLine
 10
1606.1
 20
1700.0
 30
0.0
 11
1606.1
 21
1670.0
 31
0.0
  0
LINE
  5
5A
330
20
100
AcDbEntity
  8
_0-0_
  6
Continuous
 62
     3
100
AcDbLine
 10
1641.4
 20
1700.0
 30
0.0
 11
1641.4
 21
1670.0
 31
0.0
  0
LINE
  5
5B
330
20
100
AcDbEntity
  8
_0-0_
  6
Continuous
 62
     3
100
AcDbLine
 10
1676.699999999999
 20
1700.0
 30
0.0
 11
1676.699999999999
 21
1670.0
 31
0.0
  0
LINE
  5
5C
330
20
100
AcDbEntity
  8
_0-0_
  6
Continuous
 62
     3
100
AcDbLine
 10
1712.0
 20
1700.0
 30
0.0
 11
1712.0
 21
1670.0
 31
0.0
  0
LINE
  5
5D
330
20
100
AcDbEntity
  8
_0-0_
  6
Continuous
 62
     3
100
AcDbLine
 10
1747.3
 20
1700.0
 30
0.0
 11
1747.3
 21
1670.0
 31
0.0
  0
LINE
  5
5E
330
20
100
AcDbEntity
  8
_0-0_
  6
Continuous
 62
     3
100
AcDbLine
 10
1782.6
 20
1700.0
 30
0.0
 11
1782.6
 21
1670.0
 31
0.0
  0
LINE
  5
5F
330
20
100
AcDbEntity
  8
_0-0_
  6
Continuous
 62
     3
100
AcDbLine
 10
1817.9
 20
1700.0
 30
0.0
 11
1817.9
 21
1670.0
 31
0.0
  0
LINE
  5
60
330
20
100
AcDbEntity
  8
_0-0_
  6
Continuous
 62
     3
100
AcDbLine
 10
1853.2
 20
1700.0
 30
0.0
 11
1853.2
 21
1670.0
 31
0.0
  0
LINE
  5
61
330
20
100
AcDbEntity
  8
_0-0_
  6
Continuous
 62
     3
100
AcDbLine
 10
1888.5
 20
1700.0
 30
0.0
 11
1888.5
 21
1670.0
 31
0.0
  0
LINE
  5
62
330
20
100
AcDbEntity
  8
_0-0_
  6
Continuous
 62
     3
100
AcDbLine
 10
1923.8
 20
1700.0
 30
0.0
 11
1923.8
 21
1670.0
 31
0.0
  0
LINE
  5
63
330
20
100
AcDbEntity
  8
_0-0_
  6
Continuous
 62
     3
100
AcDbLine
 10
1959.1
 20
1700.0
 30
0.0
 11
1959.1
 21
1670.0
 31
0.0
  0
LINE
  5
64
330
20
100
AcDbEntity
  8
_0-0_
  6
Continuous
 62
     3
100
AcDbLine
 10
1994.4
 20
1700.0
 30
0.0
 11
1994.4
 21
1670.0
 31
0.0
  0
LINE
  5
65
330
20
100
AcDbEntity
  8
_0-0_
  6
Continuous
 62
     3
100
AcDbLine
 10
2029.7
 20
1700.0
 30
0.0
 11
2029.7
 21
1670.0
 31
0.0
  0
LINE
  5
66
330
20
100
AcDbEntity
  8
_0-0_
  6
Continuous
 62
     3
100
AcDbLine
 10
2065.0
 20
1700.0
 30
0.0
 11
2065.0
 21
1670.0
 31
0.0
  0
LINE
  5
67
330
20
100
AcDbEntity
  8
_0-0_
  6
Continuous
 62
     3
100
AcDbLine
 10
2100.3
 20
1700.0
 30
0.0
 11
2100.3
 21
1670.0
 31
0.0
  0
LINE
  5
68
330
20
100
AcDbEntity
  8
_0-0_
  6
Continuous
 62
     3
100
AcDbLine
 10
2135.6
 20
1700.0
 30
0.0
 11
2135.6
 21
1670.0
 31
0.0
  0
LINE
  5
69
330
20
100
AcDbEntity
  8
_0-0_
  6
Continuous
 62
     3
100
AcDbLine
 10
2170.9
 20
1700.0
 30
0.0
 11
2170.9
 21
1670.0
 31
0.0
  0
LINE
  5
6A
330
20
100
AcDbEntity
  8
_0-0_
  6
Continuous
 62
     3
100
AcDbLine
 10
2206.2
 20
1700.0
 30
0.0
 11
2206.2
 21
1670.0
 31
0.0
  0
LINE
  5
6B
330
20
100
AcDbEntity
  8
_0-0_
  6
Continuous
 62
     3
100
AcDbLine
 10
2241.5
 20
1700.0
 30
0.0
 11
2241.5
 21
1670.0
 31
0.0
  0
LINE
  5
6C
330
20
100
AcDbEntity
  8
_0-0_
  6
Continuous
 62
     3
100
AcDbLine
 10
2276.8
 20
1700.0
 30
0.0
 11
2276.8
 21
1670.0
 31
0.0
  0
LINE
  5
6D
330
20
100
AcDbEntity
  8
_0-0_
  6
Continuous
 62
     3
100
AcDbLine
 10
2312.1
 20
1700.0
 30
0.0
 11
2312.1
 21
1670.0
 31
0.0
  0
LINE
  5
6E
330
20
100
AcDbEntity
  8
_0-0_
  6
Continuous
 62
     3
100
AcDbLine
 10
2347.4
 20
1700.0
 30
0.0
 11
2347.4
 21
1670.0
 31
0.0
  0
LINE
  5
6F
330
20
100
AcDbEntity
  8
_0-0_
  6
Continuous
 62
     3
100
AcDbLine
 10
2382.700000000001
 20
1700.0
 30
0.0
 11
2382.700000000001
 21
1670.0
 31
0.0
  0
LINE
  5
70
330
20
100
AcDbEntity
  8
_0-0_
  6
Continuous
 62
     3
100
AcDbLine
 10
2418.0
 20
1700.0
 30
0.0
 11
2418.0
 21
1670.0
 31
0.0
  0
LINE
  5
71
330
20
100
AcDbEntity
  8
_0-0_
  6
Continuous
 62
     3
100
AcDbLine
 10
2453.3
 20
1700.0
 30
0.0
 11
2453.3
 21
1670.0
 31
0.0
  0
LINE
  5
72
330
20
100
AcDbEntity
  8
_0-0_
  6
Continuous
 62
     3
100
AcDbLine
 10
2488.600000000001
 20
1700.0
 30
0.0
 11
2488.600000000001
 21
1670.0
 31
0.0
  0
LINE
  5
73
330
20
100
AcDbEntity
  8
_0-0_
  6
Continuous
 62
     3
100
AcDbLine
 10
2523.9
 20
1700.0
 30
0.0
 11
2523.9
 21
1670.0
 31
0.0
  0
LINE
  5
74
330
20
100
AcDbEntity
  8
_0-0_
  6
DASHED1
 62
     3
100
AcDbLine
 10
1606.1
 20
1670.0
 30
0.0
 11
1606.1
 21
1620.0
 31
0.0
  0
LINE
  5
75
330
20
100
AcDbEntity
  8
_0-0_
  6
DASHED1
 62
     3
100
AcDbLine
 10
1641.4
 20
1670.0
 30
0.0
 11
1641.4
 21
1620.0
 31
0.0
  0
LINE
  5
76
330
20
100
AcDbEntity
  8
_0-0_
  6
DASHED1
 62
     3
100
AcDbLine
 10
1676.699999999999
 20
1670.0
 30
0.0
 11
1676.699999999999
 21
1620.0
 31
0.0
  0
LINE
  5
77
330
20
100
AcDbEntity
  8
_0-0_
  6
DASHED1
 62
     3
100
AcDbLine
 10
1712.0
 20
1670.0
 30
0.0
 11
1712.0
 21
1620.0
 31
0.0
  0
LINE
  5
78
330
20
100
AcDbEntity
  8
_0-0_
  6
DASHED1
 62
     3
100
AcDbLine
 10
1747.3
 20
1670.0
 30
0.0
 11
1747.3
 21
1620.0
 31
0.0
  0
LINE
  5
79
330
20
100
AcDbEntity
  8
_0-0_
  6
DASHED1
 62
     3
100
AcDbLine
 10
1782.6
 20
1670.0
 30
0.0
 11
1782.6
 21
1620.0
 31
0.0
  0
LINE
  5
7A
330
20
100
AcDbEntity
  8
_0-0_
  6
DASHED1
 62
     3
100
AcDbLine
 10
1817.9
 20
1670.0
 30
0.0
 11
1817.9
 21
1620.0
 31
0.0
  0
LINE
  5
7B
330
20
100
AcDbEntity
  8
_0-0_
  6
DASHED1
 62
     3
100
AcDbLine
 10
1853.2
 20
1670.0
 30
0.0
 11
1853.2
 21
1620.0
 31
0.0
  0
LINE
  5
7C
330
20
100
AcDbEntity
  8
_0-0_
  6
DASHED1
 62
     3
100
AcDbLine
 10
1888.5
 20
1670.0
 30
0.0
 11
1888.5
 21
1620.0
 31
0.0
  0
LINE
  5
7D
330
20
100
AcDbEntity
  8
_0-0_
  6
DASHED1
 62
     3
100
AcDbLine
 10
1923.8
 20
1670.0
 30
0.0
 11
1923.8
 21
1620.0
 31
0.0
  0
LINE
  5
7E
330
20
100
AcDbEntity
  8
_0-0_
  6
DASHED1
 62
     3
100
AcDbLine
 10
1959.1
 20
1670.0
 30
0.0
 11
1959.1
 21
1620.0
 31
0.0
  0
LINE
  5
7F
330
20
100
AcDbEntity
  8
_0-0_
  6
DASHED1
 62
     3
100
AcDbLine
 10
1994.4
 20
1670.0
 30
0.0
 11
1994.4
 21
1620.0
 31
0.0
  0
LINE
  5
80
330
20
100
AcDbEntity
  8
_0-0_
  6
DASHED1
 62
     3
100
AcDbLine
 10
2029.7
 20
1670.0
 30
0.0
 11
2029.7
 21
1620.0
 31
0.0
  0
LINE
  5
81
330
20
100
AcDbEntity
  8
_0-0_
  6
DASHED1
 62
     3
100
AcDbLine
 10
2065.0
 20
1670.0
 30
0.0
 11
2065.0
 21
1620.0
 31
0.0
  0
LINE
  5
82
330
20
100
AcDbEntity
  8
_0-0_
  6
DASHED1
 62
     3
100
AcDbLine
 10
2100.3
 20
1670.0
 30
0.0
 11
2100.3
 21
1620.0
 31
0.0
  0
LINE
  5
83
330
20
100
AcDbEntity
  8
_0-0_
  6
DASHED1
 62
     3
100
AcDbLine
 10
2135.6
 20
1670.0
 30
0.0
 11
2135.6
 21
1620.0
 31
0.0
  0
LINE
  5
84
330
20
100
AcDbEntity
  8
_0-0_
  6
DASHED1
 62
     3
100
AcDbLine
 10
2170.9
 20
1670.0
 30
0.0
 11
2170.9
 21
1620.0
 31
0.0
  0
LINE
  5
85
330
20
100
AcDbEntity
  8
_0-0_
  6
DASHED1
 62
     3
100
AcDbLine
 10
2206.2
 20
1670.0
 30
0.0
 11
2206.2
 21
1620.0
 31
0.0
  0
LINE
  5
86
330
20
100
AcDbEntity
  8
_0-0_
  6
DASHED1
 62
     3
100
AcDbLine
 10
2241.5
 20
1670.0
 30
0.0
 11
2241.5
 21
1620.0
 31
0.0
  0
LINE
  5
87
330
20
100
AcDbEntity
  8
_0-0_
  6
DASHED1
 62
     3
100
AcDbLine
 10
2276.8
 20
1670.0
 30
0.0
 11
2276.8
 21
1620.0
 31
0.0
  0
LINE
  5
88
330
20
100
AcDbEntity
  8
_0-0_
  6
DASHED1
 62
     3
100
AcDbLine
 10
2312.1
 20
1670.0
 30
0.0
 11
2312.1
 21
1620.0
 31
0.0
  0
LINE
  5
89
330
20
100
AcDbEntity
  8
_0-0_
  6
DASHED1
 62
     3
100
AcDbLine
 10
2347.4
 20
1670.0
 30
0.0
 11
2347.4
 21
1620.0
 31
0.0
  0
LINE
  5
8A
330
20
100
AcDbEntity
  8
_0-0_
  6
DASHED1
 62
     3
100
AcDbLine
 10
2382.700000000001
 20
1670.0
 30
0.0
 11
2382.700000000001
 21
1620.0
 31
0.0
  0
LINE
  5
8B
330
20
100
AcDbEntity
  8
_0-0_
  6
DASHED1
 62
     3
100
AcDbLine
 10
2418.0
 20
1670.0
 30
0.0
 11
2418.0
 21
1620.0
 31
0.0
  0
LINE
  5
8C
330
20
100
AcDbEntity
  8
_0-0_
  6
DASHED1
 62
     3
100
AcDbLine
 10
2453.3
 20
1670.0
 30
0.0
 11
2453.3
 21
1620.0
 31
0.0
  0
LINE
  5
8D
330
20
100
AcDbEntity
  8
_0-0_
  6
DASHED1
 62
     3
100
AcDbLine
 10
2488.600000000001
 20
1670.0
 30
0.0
 11
2488.600000000001
 21
1620.0
 31
0.0
  0
LINE
  5
8E
330
20
100
AcDbEntity
  8
_0-0_
  6
DASHED1
 62
     3
100
AcDbLine
 10
2523.9
 20
1670.0
 30
0.0
 11
2523.9
 21
1620.0
 31
0.0
  0
LINE
  5
8F
330
20
100
AcDbEntity
  8
_0-0_
  6
DASHED1
 62
     7
100
AcDbLine
 10
1567.5
 20
1670.0
 30
0.0
 11
1567.5
 21
1620.0
 31
0.0
  0
LINE
  5
90
330
20
100
AcDbEntity
  8
_0-0_
  6
DASHED1
 62
     7
100
AcDbLine
 10
1567.5
 20
1620.0
 30
0.0
 11
2562.5
 21
1620.0
 31
0.0
  0
LINE
  5
91
330
20
100
AcDbEntity
  8
_0-0_
  6
DASHED1
 62
     7
100
AcDbLine
 10
2562.5
 20
1620.0
 30
0.0
 11
2562.5
 21
1670.0
 31
0.0
  0
LINE
  5
92
330
20
100
AcDbEntity
  8
_0-0_
  6
DASHED1
 62
     7
100
AcDbLine
 10
1556.0
 20
1670.0
 30
0.0
 11
1556.0
 21
1614.0
 31
0.0
  0
LINE
  5
93
330
20
100
AcDbEntity
  8
_0-0_
  6
DASHED1
 62
     7
100
AcDbLine
 10
1556.0
 20
1614.0
 30
0.0
 11
2574.0
 21
1614.0
 31
0.0
  0
LINE
  5
94
330
20
100
AcDbEntity
  8
_0-0_
  6
DASHED1
 62
     7
100
AcDbLine
 10
2574.0
 20
1614.0
 30
0.0
 11
2574.0
 21
1670.0
 31
0.0
  0
LINE
  5
95
330
20
100
AcDbEntity
  8
_0-0_
  6
Continuous
 62
     4
100
AcDbLine
 10
2125.0
 20
3020.0
 30
0.0
 11
2123.495674730909
 21
2991.428571428571
 31
0.0
  0
LINE
  5
96
330
20
100
AcDbEntity
  8
_0-0_
  6
Continuous
 62
     4
100
AcDbLine
 10
2123.495674730909
 20
2991.428571428571
 30
0.0
 11
2111.909888948082
 21
2934.285714285715
 31
0.0
  0
LINE
  5
97
330
20
100
AcDbEntity
  8
_0-0_
  6
Continuous
 62
     4
100
AcDbLine
 10
2111.909888948082
 20
2934.285714285715
 30
0.0
 11
2091.033024347053
 21
2877.142857142857
 31
0.0
  0
LINE
  5
98
330
20
100
AcDbEntity
  8
_0-0_
  6
Continuous
 62
     4
100
AcDbLine
 10
2091.033024347053
 20
2877.142857142857
 30
0.0
 11
2065.0
 21
2820.0
 31
0.0
  0
LINE
  5
99
330
20
100
AcDbEntity
  8
_0-0_
  6
Continuous
 62
     4
100
AcDbLine
 10
2065.0
 20
2820.0
 30
0.0
 11
2038.966975652947
 21
2762.857142857143
 31
0.0
  0
LINE
  5
9A
330
20
100
AcDbEntity
  8
_0-0_
  6
Continuous
 62
     4
100
AcDbLine
 10
2038.966975652947
 20
2762.857142857143
 30
0.0
 11
2018.090111051918
 21
2705.714285714285
 31
0.0
  0
LINE
  5
9B
330
20
100
AcDbEntity
  8
_0-0_
  6
Continuous
 62
     4
100
AcDbLine
 10
2018.090111051918
 20
2705.714285714285
 30
0.0
 11
2006.504325269091
 21
2648.571428571429
 31
0.0
  0
LINE
  5
9C
330
20
100
AcDbEntity
  8
_0-0_
  6
Continuous
 62
     4
100
AcDbLine
 10
2006.504325269091
 20
2648.571428571429
 30
0.0
 11
2005.0
 21
2620.0
 31
0.0
  0
LINE
  5
9D
330
20
100
AcDbEntity
  8
_0-0_
  6
Continuous
 62
     7
100
AcDbLine
 10
2125.0
 20
3020.0
 30
0.0
 11
2562.5
 21
3020.0
 31
0.0
  0
LINE
  5
9E
330
20
100
AcDbEntity
  8
_0-0_
  6
Continuous
 62
     7
100
AcDbLine
 10
2562.5
 20
3020.0
 30
0.0
 11
2562.5
 21
2620.0
 31
0.0
  0
LINE
  5
9F
330
20
100
AcDbEntity
  8
_0-0_
  6
Continuous
 62
     7
100
AcDbLine
 10
2562.5
 20
2620.0
 30
0.0
 11
2005.0
 21
2620.0
 31
0.0
  0
LINE
  5
A0
330
20
100
AcDbEntity
  8
_0-0_
  6
Continuous
 62
     3
100
AcDbLine
 10
2106.690672797825
 20
2920.0
 30
0.0
 11
2562.5
 21
2920.0
 31
0.0
  0
LINE
  5
A1
330
20
100
AcDbEntity
  8
_0-0_
  6
Continuous
 62
     3
100
AcDbLine
 10
2087.778896303672
 20
2870.0
 30
0.0
 11
2562.5
 21
2870.0
 31
0.0
  0
LINE
  5
A2
330
20
100
AcDbEntity
  8
_0-0_
  6
Continuous
 62
     3
100
AcDbLine
 10
2065.0
 20
2820.0
 30
0.0
 11
2562.5
 21
2820.0
 31
0.0
  0
LINE
  5
A3
330
20
100
AcDbEntity
  8
_0-0_
  6
Continuous
 62
     3
100
AcDbLine
 10
2042.221103696328
 20
2770.0
 30
0.0
 11
2562.5
 21
2770.0
 31
0.0
  0
LINE
  5
A4
330
20
100
AcDbEntity
  8
_0-0_
  6
Continuous
 62
     3
100
AcDbLine
 10
2023.309327202175
 20
2720.0
 30
0.0
 11
2562.5
 21
2720.0
 31
0.0
  0
LINE
  5
A5
330
20
100
AcDbEntity
  8
_0-0_
  6
Continuous
 62
     3
100
AcDbLine
 10
2010.848994937651
 20
2670.0
 30
0.0
 11
2562.5
 21
2670.0
 31
0.0
  0
LINE
  5
A6
330
20
100
AcDbEntity
  8
_0-0_
  6
Continuous
 62
     3
100
AcDbLine
 10
2523.9
 20
3020.0
 30
0.0
 11
2523.9
 21
2620.0
 31
0.0
  0
LINE
  5
A7
330
20
100
AcDbEntity
  8
_0-0_
  6
Continuous
 62
     3
100
AcDbLine
 10
2488.600000000001
 20
3020.0
 30
0.0
 11
2488.600000000001
 21
2620.0
 31
0.0
  0
LINE
  5
A8
330
20
100
AcDbEntity
  8
_0-0_
  6
Continuous
 62
     3
100
AcDbLine
 10
2453.3
 20
3020.0
 30
0.0
 11
2453.3
 21
2620.0
 31
0.0
  0
LINE
  5
A9
330
20
100
AcDbEntity
  8
_0-0_
  6
Continuous
 62
     3
100
AcDbLine
 10
2418.0
 20
3020.0
 30
0.0
 11
2418.0
 21
2620.0
 31
0.0
  0
LINE
  5
AA
330
20
100
AcDbEntity
  8
_0-0_
  6
Continuous
 62
     3
100
AcDbLine
 10
2382.700000000001
 20
3020.0
 30
0.0
 11
2382.700000000001
 21
2620.0
 31
0.0
  0
LINE
  5
AB
330
20
100
AcDbEntity
  8
_0-0_
  6
Continuous
 62
     3
100
AcDbLine
 10
2347.4
 20
3020.0
 30
0.0
 11
2347.4
 21
2620.0
 31
0.0
  0
LINE
  5
AC
330
20
100
AcDbEntity
  8
_0-0_
  6
Continuous
 62
     3
100
AcDbLine
 10
2312.1
 20
3020.0
 30
0.0
 11
2312.1
 21
2620.0
 31
0.0
  0
LINE
  5
AD
330
20
100
AcDbEntity
  8
_0-0_
  6
Continuous
 62
     3
100
AcDbLine
 10
2276.8
 20
3020.0
 30
0.0
 11
2276.8
 21
2620.0
 31
0.0
  0
LINE
  5
AE
330
20
100
AcDbEntity
  8
_0-0_
  6
Continuous
 62
     3
100
AcDbLine
 10
2241.5
 20
3020.0
 30
0.0
 11
2241.5
 21
2620.0
 31
0.0
  0
LINE
  5
AF
330
20
100
AcDbEntity
  8
_0-0_
  6
Continuous
 62
     3
100
AcDbLine
 10
2206.2
 20
3020.0
 30
0.0
 11
2206.2
 21
2620.0
 31
0.0
  0
LINE
  5
B0
330
20
100
AcDbEntity
  8
_0-0_
  6
Continuous
 62
     3
100
AcDbLine
 10
2170.9
 20
3020.0
 30
0.0
 11
2170.9
 21
2620.0
 31
0.0
  0
LINE
  5
B1
330
20
100
AcDbEntity
  8
_0-0_
  6
Continuous
 62
     3
100
AcDbLine
 10
2135.6
 20
3020.0
 30
0.0
 11
2135.6
 21
2620.0
 31
0.0
  0
LINE
  5
B2
330
20
100
AcDbEntity
  8
_0-0_
  6
Continuous
 62
     3
100
AcDbLine
 10
2100.3
 20
2902.507847336671
 30
0.0
 11
2100.3
 21
2620.0
 31
0.0
  0
LINE
  5
B3
330
20
100
AcDbEntity
  8
_0-0_
  6
Continuous
 62
     3
100
AcDbLine
 10
2065.0
 20
2820.0
 30
0.0
 11
2065.0
 21
2620.0
 31
0.0
  0
LINE
  5
B4
330
20
100
AcDbEntity
  8
_0-0_
  6
Continuous
 62
     3
100
AcDbLine
 10
2029.7
 20
2737.49215266333
 30
0.0
 11
2029.7
 21
2620.0
 31
0.0
  0
LINE
  5
B5
330
20
100
AcDbEntity
  8
_0-0_
  6
Continuous
 62
     7
100
AcDbLine
 10
1556.0
 20
3028.5
 30
0.0
 11
2574.0
 21
3028.5
 31
0.0
  0
LINE
  5
B6
330
20
100
AcDbEntity
  8
_0-0_
  6
Continuous
 62
     7
100
AcDbLine
 10
2574.0
 20
3028.5
 30
0.0
 11
2574.0
 21
2611.5
 31
0.0
  0
LINE
  5
B7
330
20
100
AcDbEntity
  8
_0-0_
  6
Continuous
 62
     7
100
AcDbLine
 10
2574.0
 20
2611.5
 30
0.0
 11
1556.0
 21
2611.5
 31
0.0
  0
LINE
  5
B8
330
20
100
AcDbEntity
  8
_0-0_
  6
Continuous
 62
     7
100
AcDbLine
 10
1556.0
 20
2611.5
 30
0.0
 11
1556.0
 21
3028.5
 31
0.0
  0
LINE
  5
B9
330
20
100
AcDbEntity
  8
_0-0_
  6
Continuous
 62
     7
100
AcDbLine
 10
2670.0
 20
3090.0
 30
0.0
 11
2670.0
 21
2550.0
 31
0.0
  0
LINE
  5
BA
330
20
100
AcDbEntity
  8
_0-0_
  6
Continuous
 62
     7
100
AcDbLine
 10
1460.0
 20
2550.0
 30
0.0
 11
1460.0
 21
3090.0
 31
0.0
  0
LINE
  5
BB
330
20
100
AcDbEntity
  8
_0-0_
  6
Continuous
 62
     7
100
AcDbLine
 10
1460.0
 20
1700.0
 30
0.0
 11
2670.0
 21
1700.0
 31
0.0
  0
LINE
  5
BC
330
20
100
AcDbEntity
  8
_0-0_
  6
Continuous
 62
     7
100
AcDbLine
 10
2670.0
 20
1700.0
 30
0.0
 11
2670.0
 21
680.0
 31
0.0
  0
LINE
  5
BD
330
20
100
AcDbEntity
  8
_0-0_
  6
Continuous
 62
     7
100
AcDbLine
 10
2670.0
 20
680.0
 30
0.0
 11
1460.0
 21
680.0
 31
0.0
  0
LINE
  5
BE
330
20
100
AcDbEntity
  8
_0-0_
  6
Continuous
 62
     7
100
AcDbLine
 10
1460.0
 20
680.0
 30
0.0
 11
1460.0
 21
1700.0
 31
0.0
  0
LINE
  5
BF
330
20
100
AcDbEntity
  8
_0-0_
  6
Continuous
 62
     7
100
AcDbLine
 10
1460.0
 20
1670.0
 30
0.0
 11
2670.0
 21
1670.0
 31
0.0
  0
LINE
  5
C0
330
20
100
AcDbEntity
  8
_0-0_
  6
Continuous
 62
     7
100
AcDbLine
 10
1460.0
 20
1490.0
 30
0.0
 11
2670.0
 21
1490.0
 31
0.0
  0
LINE
  5
C1
330
20
100
AcDbEntity
  8
_0-0_
  6
Continuous
 62
     7
100
AcDbLine
 10
1580.0
 20
2970.0
 30
0.0
 11
2119.151005062349
 21
2970.0
 31
0.0
  0
LINE
  5
C2
330
20
100
AcDbEntity
  8
_0-0_
  6
Continuous
 62
     7
100
AcDbLine
 10
1580.0
 20
2970.0
 30
0.0
 11
1580.0
 21
2670.0
 31
0.0
  0
LINE
  5
C3
330
20
100
AcDbEntity
  8
_0-0_
  6
Continuous
 62
     7
100
AcDbLine
 10
1580.0
 20
2670.0
 30
0.0
 11
2010.848994937651
 21
2670.0
 31
0.0
  0
LINE
  5
C4
330
20
100
AcDbEntity
  8
_0-0_
  6
DASHED1
 62
     7
100
AcDbLine
 10
2550.0
 20
2970.0
 30
0.0
 11
2550.0
 21
2670.0
 31
0.0
  0
LINE
  5
C5
330
20
100
AcDbEntity
  8
_0-0_
  6
DASHED1
 62
     7
100
AcDbLine
 10
2550.0
 20
2670.0
 30
0.0
 11
2010.848994937651
 21
2670.0
 31
0.0
  0
LINE
  5
C6
330
20
100
AcDbEntity
  8
_0-0_
  6
Continuous
 62
     7
100
AcDbLine
 10
1605.0
 20
2945.0
 30
0.0
 11
2114.082223782361
 21
2945.0
 31
0.0
  0
LINE
  5
C7
330
20
100
AcDbEntity
  8
_0-0_
  6
Continuous
 62
     7
100
AcDbLine
 10
1605.0
 20
2945.0
 30
0.0
 11
1605.0
 21
2695.0
 31
0.0
  0
LINE
  5
C8
330
20
100
AcDbEntity
  8
_0-0_
  6
Continuous
 62
     7
100
AcDbLine
 10
1605.0
 20
2695.0
 30
0.0
 11
2015.917776217638
 21
2695.0
 31
0.0
  0
LINE
  5
C9
330
20
100
AcDbEntity
  8
_0-0_
  6
DASHED1
 62
     7
100
AcDbLine
 10
2525.0
 20
2945.0
 30
0.0
 11
2114.082223782361
 21
2945.0
 31
0.0
  0
LINE
  5
CA
330
20
100
AcDbEntity
  8
_0-0_
  6
DASHED1
 62
     7
100
AcDbLine
 10
2525.0
 20
2945.0
 30
0.0
 11
2525.0
 21
2695.0
 31
0.0
  0
LINE
  5
CB
330
20
100
AcDbEntity
  8
_0-0_
  6
DASHED1
 62
     7
100
AcDbLine
 10
2525.0
 20
2695.0
 30
0.0
 11
2015.917776217639
 21
2695.0
 31
0.0
  0
LINE
  5
CC
330
20
100
AcDbEntity
  8
_0-0_
  6
Continuous
 62
     7
100
AcDbLine
 10
1580.0
 20
2970.0
 30
0.0
 11
1605.0
 21
2945.0
 31
0.0
  0
LINE
  5
CD
330
20
100
AcDbEntity
  8
_0-0_
  6
Continuous
 62
     7
100
AcDbLine
 10
1580.0
 20
2670.0
 30
0.0
 11
1605.0
 21
2695.0
 31
0.0
  0
LINE
  5
CE
330
20
100
AcDbEntity
  8
_0-0_
  6
DASHED1
 62
     7
100
AcDbLine
 10
2525.0
 20
2945.0
 30
0.0
 11
2550.0
 21
2970.0
 31
0.0
  0
LINE
  5
CF
330
20
100
AcDbEntity
  8
_0-0_
  6
DASHED1
 62
     7
100
AcDbLine
 10
2525.0
 20
2695.0
 30
0.0
 11
2550.0
 21
2670.0
 31
0.0
  0
LINE
  5
D0
330
20
100
AcDbEntity
  8
_0-0_
  6
Continuous
 62
     7
100
AcDbLine
 10
1460.0
 20
3030.0
 30
0.0
 11
2670.0
 21
3030.0
 31
0.0
  0
LINE
  5
D1
330
20
100
AcDbEntity
  8
_0-0_
  6
Continuous
 62
     7
100
AcDbLine
 10
1460.0
 20
2600.0
 30
0.0
 11
2670.0
 21
2600.0
 31
0.0
  0
LINE
  5
D2
330
20
100
AcDbEntity
  8
_0-0_
  6
DASHED1
 62
     7
100
AcDbLine
 10
1460.0
 20
2610.0
 30
0.0
 11
2670.0
 21
2610.0
 31
0.0
  0
LINE
  5
D3
330
20
100
AcDbEntity
  8
_0-0_
  6
DASHED1
 62
     7
100
AcDbLine
 10
1580.0
 20
1614.0
 30
0.0
 11
1605.0
 21
800.0
 31
0.0
  0
LINE
  5
D4
330
20
100
AcDbEntity
  8
_0-0_
  6
DASHED1
 62
     7
100
AcDbLine
 10
2550.0
 20
1614.0
 30
0.0
 11
2525.0
 21
800.0
 31
0.0
  0
LINE
  5
D5
330
20
100
AcDbEntity
  8
_0-0_
  6
DASHED1
 62
     7
100
AcDbLine
 10
1605.0
 20
800.0
 30
0.0
 11
2525.0
 21
800.0
 31
0.0
  0
LINE
  5
D6
330
20
100
AcDbEntity
  8
_0-0_
  6
DASHED1
 62
     7
100
AcDbLine
 10
1865.0
 20
3010.0
 30
0.0
 11
2265.0
 21
3010.0
 31
0.0
  0
LINE
  5
D7
330
20
100
AcDbEntity
  8
_0-0_
  6
DASHED1
 62
     7
100
AcDbLine
 10
1853.0
 20
3090.0
 30
0.0
 11
1865.0
 21
3010.0
 31
0.0
  0
LINE
  5
D8
330
20
100
AcDbEntity
  8
_0-0_
  6
DASHED1
 62
     7
100
AcDbLine
 10
2277.0
 20
3090.0
 30
0.0
 11
2265.0
 21
3010.0
 31
0.0
  0
LINE
  5
D9
330
20
100
AcDbEntity
  8
_0-0_
  6
DASHED1
 62
     7
100
AcDbLine
 10
1865.0
 20
2630.0
 30
0.0
 11
1853.0
 21
2550.0
 31
0.0
  0
LINE
  5
DA
330
20
100
AcDbEntity
  8
_0-0_
  6
DASHED1
 62
     7
100
AcDbLine
 10
2265.0
 20
2630.0
 30
0.0
 11
2277.0
 21
2550.0
 31
0.0
  0
LINE
  5
DB
330
20
100
AcDbEntity
  8
_0-0_
  6
DASHED1
 62
     7
100
AcDbLine
 10
1865.0
 20
2630.0
 30
0.0
 11
2265.0
 21
2630.0
 31
0.0
  0
LINE
  5
DC
330
20
100
AcDbEntity
  8
_0-0_
  6
DASHED1
 62
     7
100
AcDbLine
 10
1540.0
 20
2970.0
 30
0.0
 11
1540.0
 21
2670.0
 31
0.0
  0
LINE
  5
DD
330
20
100
AcDbEntity
  8
_0-0_
  6
DASHED1
 62
     7
100
AcDbLine
 10
1460.0
 20
2982.0
 30
0.0
 11
1540.0
 21
2970.0
 31
0.0
  0
LINE
  5
DE
330
20
100
AcDbEntity
  8
_0-0_
  6
DASHED1
 62
     7
100
AcDbLine
 10
1460.0
 20
2658.0
 30
0.0
 11
1540.0
 21
2670.0
 31
0.0
  0
LINE
  5
DF
330
20
100
AcDbEntity
  8
_0-0_
  6
DASHED1
 62
     7
100
AcDbLine
 10
2670.0
 20
2982.0
 30
0.0
 11
2590.0
 21
2970.0
 31
0.0
  0
LINE
  5
E0
330
20
100
AcDbEntity
  8
_0-0_
  6
DASHED1
 62
     7
100
AcDbLine
 10
2670.0
 20
2658.0
 30
0.0
 11
2590.0
 21
2670.0
 31
0.0
  0
LINE
  5
E1
330
20
100
AcDbEntity
  8
_0-0_
  6
DASHED1
 62
     7
100
AcDbLine
 10
2590.0
 20
2970.0
 30
0.0
 11
2590.0
 21
2670.0
 31
0.0
  0
LINE
  5
E2
330
20
100
AcDbEntity
  8
_0-0_
  6
Continuous
 62
     4
100
AcDbLine
 10
1260.0
 20
2670.0
 30
0.0
 11
1253.054072893323
 21
2709.392310120488
 31
0.0
  0
LINE
  5
E3
330
20
100
AcDbEntity
  8
_0-0_
  6
Continuous
 62
     4
100
AcDbLine
 10
1260.0
 20
2670.0
 30
0.0
 11
1266.945927106677
 21
2709.392310120488
 31
0.0
  0
LINE
  5
E4
330
20
100
AcDbEntity
  8
_0-0_
  6
Continuous
 62
     4
100
AcDbLine
 10
1260.0
 20
2970.0
 30
0.0
 11
1253.054072893323
 21
2930.607689879512
 31
0.0
  0
LINE
  5
E5
330
20
100
AcDbEntity
  8
_0-0_
  6
Continuous
 62
     4
100
AcDbLine
 10
1260.0
 20
2970.0
 30
0.0
 11
1266.945927106677
 21
2930.607689879512
 31
0.0
  0
LINE
  5
E6
330
20
100
AcDbEntity
  8
_0-0_
  6
Continuous
 62
     4
100
AcDbLine
 10
1240.0
 20
2670.0
 30
0.0
 11
1440.0
 21
2670.0
 31
0.0
  0
LINE
  5
E7
330
20
100
AcDbEntity
  8
_0-0_
  6
Continuous
 62
     4
100
AcDbLine
 10
1240.0
 20
2970.0
 30
0.0
 11
1440.0
 21
2970.0
 31
0.0
  0
LINE
  5
E8
330
20
100
AcDbEntity
  8
_0-0_
  6
Continuous
 62
     4
100
AcDbLine
 10
2870.0
 20
2670.0
 30
0.0
 11
2863.054072893323
 21
2709.392310120488
 31
0.0
  0
LINE
  5
E9
330
20
100
AcDbEntity
  8
_0-0_
  6
Continuous
 62
     4
100
AcDbLine
 10
2870.0
 20
2670.0
 30
0.0
 11
2876.945927106677
 21
2709.392310120488
 31
0.0
  0
LINE
  5
EA
330
20
100
AcDbEntity
  8
_0-0_
  6
Continuous
 62
     4
100
AcDbLine
 10
2870.0
 20
2970.0
 30
0.0
 11
2863.054072893323
 21
2930.607689879512
 31
0.0
  0
LINE
  5
EB
330
20
100
AcDbEntity
  8
_0-0_
  6
Continuous
 62
     4
100
AcDbLine
 10
2870.0
 20
2970.0
 30
0.0
 11
2876.945927106677
 21
2930.607689879512
 31
0.0
  0
LINE
  5
EC
330
20
100
AcDbEntity
  8
_0-0_
  6
Continuous
 62
     4
100
AcDbLine
 10
2890.0
 20
2670.0
 30
0.0
 11
2690.0
 21
2670.0
 31
0.0
  0
LINE
  5
ED
330
20
100
AcDbEntity
  8
_0-0_
  6
Continuous
 62
     4
100
AcDbLine
 10
2890.0
 20
2970.0
 30
0.0
 11
2690.0
 21
2970.0
 31
0.0
  0
LINE
  5
EE
330
20
100
AcDbEntity
  8
_0-0_
  6
Continuous
 62
     4
100
AcDbLine
 10
1865.0
 20
3290.0
 30
0.0
 11
1904.392310120488
 21
3296.945927106678
 31
0.0
  0
LINE
  5
EF
330
20
100
AcDbEntity
  8
_0-0_
  6
Continuous
 62
     4
100
AcDbLine
 10
1865.0
 20
3290.0
 30
0.0
 11
1904.392310120488
 21
3283.054072893323
 31
0.0
  0
LINE
  5
F0
330
20
100
AcDbEntity
  8
_0-0_
  6
Continuous
 62
     4
100
AcDbLine
 10
2265.0
 20
3290.0
 30
0.0
 11
2225.607689879512
 21
3296.945927106678
 31
0.0
  0
LINE
  5
F1
330
20
100
AcDbEntity
  8
_0-0_
  6
Continuous
 62
     4
100
AcDbLine
 10
2265.0
 20
3290.0
 30
0.0
 11
2225.607689879512
 21
3283.054072893323
 31
0.0
  0
LINE
  5
F2
330
20
100
AcDbEntity
  8
_0-0_
  6
Continuous
 62
     4
100
AcDbLine
 10
1865.0
 20
3310.0
 30
0.0
 11
1865.0
 21
3110.0
 31
0.0
  0
LINE
  5
F3
330
20
100
AcDbEntity
  8
_0-0_
  6
Continuous
 62
     4
100
AcDbLine
 10
2265.0
 20
3310.0
 30
0.0
 11
2265.0
 21
3110.0
 31
0.0
  0
LINE
  5
F4
330
20
100
AcDbEntity
  8
_0-0_
  6
Continuous
 62
     4
100
AcDbLine
 10
1865.0
 20
2350.0
 30
0.0
 11
1904.392310120488
 21
2356.945927106677
 31
0.0
  0
LINE
  5
F5
330
20
100
AcDbEntity
  8
_0-0_
  6
Continuous
 62
     4
100
AcDbLine
 10
1865.0
 20
2350.0
 30
0.0
 11
1904.392310120488
 21
2343.054072893323
 31
0.0
  0
LINE
  5
F6
330
20
100
AcDbEntity
  8
_0-0_
  6
Continuous
 62
     4
100
AcDbLine
 10
2265.0
 20
2350.0
 30
0.0
 11
2225.607689879512
 21
2356.945927106677
 31
0.0
  0
LINE
  5
F7
330
20
100
AcDbEntity
  8
_0-0_
  6
Continuous
 62
     4
100
AcDbLine
 10
2265.0
 20
2350.0
 30
0.0
 11
2225.607689879512
 21
2343.054072893323
 31
0.0
  0
LINE
  5
F8
330
20
100
AcDbEntity
  8
_0-0_
  6
Continuous
 62
     4
100
AcDbLine
 10
1865.0
 20
2330.0
 30
0.0
 11
1865.0
 21
2530.0
 31
0.0
  0
LINE
  5
F9
330
20
100
AcDbEntity
  8
_0-0_
  6
Continuous
 62
     4
100
AcDbLine
 10
2265.0
 20
2330.0
 30
0.0
 11
2265.0
 21
2530.0
 31
0.0
  0
LINE
  5
FA
330
20
100
AcDbEntity
  8
_0-0_
  6
Continuous
 62
     4
100
AcDbLine
 10
1460.0
 20
2230.0
 30
0.0
 11
1499.392310120488
 21
2236.945927106677
 31
0.0
  0
LINE
  5
FB
330
20
100
AcDbEntity
  8
_0-0_
  6
Continuous
 62
     4
100
AcDbLine
 10
1460.0
 20
2230.0
 30
0.0
 11
1499.392310120488
 21
2223.054072893323
 31
0.0
  0
LINE
  5
FC
330
20
100
AcDbEntity
  8
_0-0_
  6
Continuous
 62
     4
100
AcDbLine
 10
2065.0
 20
2230.0
 30
0.0
 11
2025.607689879512
 21
2236.945927106677
 31
0.0
  0
LINE
  5
FD
330
20
100
AcDbEntity
  8
_0-0_
  6
Continuous
 62
     4
100
AcDbLine
 10
2065.0
 20
2230.0
 30
0.0
 11
2025.607689879512
 21
2223.054072893323
 31
0.0
  0
LINE
  5
FE
330
20
100
AcDbEntity
  8
_0-0_
  6
Continuous
 62
     4
100
AcDbLine
 10
1460.0
 20
2210.0
 30
0.0
 11
1460.0
 21
2350.0
 31
0.0
  0
LINE
  5
FF
330
20
100
AcDbEntity
  8
_0-0_
  6
Continuous
 62
     4
100
AcDbLine
 10
1460.0
 20
2230.0
 30
0.0
 11
2065.0
 21
2230.0
 31
0.0
  0
TEXT
  5
100
330
20
100
AcDbEntity
  8
_0-0_
 62
     7
100
AcDbText
 10
1710.0
 20
2230.0
 30
0.0
 40
100.0
  1
605
 41
0.5999999999999999
100
AcDbText
  0
LINE
  5
101
330
20
100
AcDbEntity
  8
_0-0_
  6
Continuous
 62
     4
100
AcDbLine
 10
2065.0
 20
2230.0
 30
0.0
 11
2104.392310120488
 21
2236.945927106677
 31
0.0
  0
LINE
  5
102
330
20
100
AcDbEntity
  8
_0-0_
  6
Continuous
 62
     4
100
AcDbLine
 10
2065.0
 20
2230.0
 30
0.0
 11
2104.392310120488
 21
2223.054072893323
 31
0.0
  0
LINE
  5
103
330
20
100
AcDbEntity
  8
_0-0_
  6
Continuous
 62
     4
100
AcDbLine
 10
2670.0
 20
2230.0
 30
0.0
 11
2630.607689879512
 21
2236.945927106677
 31
0.0
  0
LINE
  5
104
330
20
100
AcDbEntity
  8
_0-0_
  6
Continuous
 62
     4
100
AcDbLine
 10
2670.0
 20
2230.0
 30
0.0
 11
2630.607689879512
 21
2223.054072893323
 31
0.0
  0
LINE
  5
105
330
20
100
AcDbEntity
  8
_0-0_
  6
Continuous
 62
     4
100
AcDbLine
 10
2670.0
 20
2210.0
 30
0.0
 11
2670.0
 21
2350.0
 31
0.0
  0
LINE
  5
106
330
20
100
AcDbEntity
  8
_0-0_
  6
Continuous
 62
     4
100
AcDbLine
 10
2065.0
 20
2230.0
 30
0.0
 11
2670.0
 21
2230.0
 31
0.0
  0
TEXT
  5
107
330
20
100
AcDbEntity
  8
_0-0_
 62
     7
100
AcDbText
 10
2315.0
 20
2230.0
 30
0.0
 40
100.0
  1
605
 41
0.5999999999999999
100
AcDbText
  0
LINE
  5
108
330
20
100
AcDbEntity
  8
_0-0_
  6
Continuous
 62
     4
100
AcDbLine
 10
1140.0
 20
2550.0
 30
0.0
 11
1133.054072893322
 21
2589.392310120488
 31
0.0
  0
LINE
  5
109
330
20
100
AcDbEntity
  8
_0-0_
  6
Continuous
 62
     4
100
AcDbLine
 10
1140.0
 20
2550.0
 30
0.0
 11
1146.945927106677
 21
2589.392310120488
 31
0.0
  0
LINE
  5
10A
330
20
100
AcDbEntity
  8
_0-0_
  6
Continuous
 62
     4
100
AcDbLine
 10
1140.0
 20
3090.0
 30
0.0
 11
1133.054072893322
 21
3050.607689879512
 31
0.0
  0
LINE
  5
10B
330
20
100
AcDbEntity
  8
_0-0_
  6
Continuous
 62
     4
100
AcDbLine
 10
1140.0
 20
3090.0
 30
0.0
 11
1146.945927106677
 21
3050.607689879512
 31
0.0
  0
LINE
  5
10C
330
20
100
AcDbEntity
  8
_0-0_
  6
Continuous
 62
     4
100
AcDbLine
 10
1120.0
 20
2550.0
 30
0.0
 11
1260.0
 21
2550.0
 31
0.0
  0
LINE
  5
10D
330
20
100
AcDbEntity
  8
_0-0_
  6
Continuous
 62
     4
100
AcDbLine
 10
1120.0
 20
3090.0
 30
0.0
 11
1260.0
 21
3090.0
 31
0.0
  0
LINE
  5
10E
330
20
100
AcDbEntity
  8
_0-0_
  6
Continuous
 62
     4
100
AcDbLine
 10
1140.0
 20
2550.0
 30
0.0
 11
1140.0
 21
3090.0
 31
0.0
  0
TEXT
  5
10F
330
20
100
AcDbEntity
  8
_0-0_
 62
     7
100
AcDbText
 10
1140.0
 20
2767.5
 30
0.0
 40
100.0
  1
540
 50
90.0
 41
0.5999999999999999
100
AcDbText
  0
LINE
  5
110
330
20
100
AcDbEntity
  8
_0-0_
  6
Continuous
 62
     4
100
AcDbLine
 10
2990.0
 20
2550.0
 30
0.0
 11
2983.054072893323
 21
2589.392310120488
 31
0.0
  0
LINE
  5
111
330
20
100
AcDbEntity
  8
_0-0_
  6
Continuous
 62
     4
100
AcDbLine
 10
2990.0
 20
2550.0
 30
0.0
 11
2996.945927106677
 21
2589.392310120488
 31
0.0
  0
LINE
  5
112
330
20
100
AcDbEntity
  8
_0-0_
  6
Continuous
 62
     4
100
AcDbLine
 10
2990.0
 20
2820.0
 30
0.0
 11
2983.054072893323
 21
2780.607689879512
 31
0.0
  0
LINE
  5
113
330
20
100
AcDbEntity
  8
_0-0_
  6
Continuous
 62
     4
100
AcDbLine
 10
2990.0
 20
2820.0
 30
0.0
 11
2996.945927106677
 21
2780.607689879512
 31
0.0
  0
LINE
  5
114
330
20
100
AcDbEntity
  8
_0-0_
  6
Continuous
 62
     4
100
AcDbLine
 10
3010.0
 20
2550.0
 30
0.0
 11
2870.0
 21
2550.0
 31
0.0
  0
LINE
  5
115
330
20
100
AcDbEntity
  8
_0-0_
  6
Continuous
 62
     4
100
AcDbLine
 10
2990.0
 20
2550.0
 30
0.0
 11
2990.0
 21
2820.0
 31
0.0
  0
TEXT
  5
116
330
20
100
AcDbEntity
  8
_0-0_
 62
     7
100
AcDbText
 10
2990.0
 20
2632.5
 30
0.0
 40
100.0
  1
270
 50
90.0
 41
0.5999999999999999
100
AcDbText
  0
LINE
  5
117
330
20
100
AcDbEntity
  8
_0-0_
  6
Continuous
 62
     4
100
AcDbLine
 10
2990.0
 20
2820.0
 30
0.0
 11
2983.054072893323
 21
2859.392310120489
 31
0.0
  0
LINE
  5
118
330
20
100
AcDbEntity
  8
_0-0_
  6
Continuous
 62
     4
100
AcDbLine
 10
2990.0
 20
2820.0
 30
0.0
 11
2996.945927106677
 21
2859.392310120489
 31
0.0
  0
LINE
  5
119
330
20
100
AcDbEntity
  8
_0-0_
  6
Continuous
 62
     4
100
AcDbLine
 10
2990.0
 20
3090.0
 30
0.0
 11
2983.054072893323
 21
3050.607689879512
 31
0.0
  0
LINE
  5
11A
330
20
100
AcDbEntity
  8
_0-0_
  6
Continuous
 62
     4
100
AcDbLine
 10
2990.0
 20
3090.0
 30
0.0
 11
2996.945927106677
 21
3050.607689879512
 31
0.0
  0
LINE
  5
11B
330
20
100
AcDbEntity
  8
_0-0_
  6
Continuous
 62
     4
100
AcDbLine
 10
3010.0
 20
3090.0
 30
0.0
 11
2870.0
 21
3090.0
 31
0.0
  0
LINE
  5
11C
330
20
100
AcDbEntity
  8
_0-0_
  6
Continuous
 62
     4
100
AcDbLine
 10
2990.0
 20
2820.0
 30
0.0
 11
2990.0
 21
3090.0
 31
0.0
  0
TEXT
  5
11D
330
20
100
AcDbEntity
  8
_0-0_
 62
     7
100
AcDbText
 10
2990.0
 20
2902.5
 30
0.0
 40
100.0
  1
270
 50
90.0
 41
0.5999999999999999
100
AcDbText
  0
LINE
  5
11E
330
20
100
AcDbEntity
  8
_0-0_
  6
Continuous
 62
     4
100
AcDbLine
 10
1460.0
 20
3410.0
 30
0.0
 11
1499.392310120488
 21
3416.945927106677
 31
0.0
  0
LINE
  5
11F
330
20
100
AcDbEntity
  8
_0-0_
  6
Continuous
 62
     4
100
AcDbLine
 10
1460.0
 20
3410.0
 30
0.0
 11
1499.392310120488
 21
3403.054072893323
 31
0.0
  0
LINE
  5
120
330
20
100
AcDbEntity
  8
_0-0_
  6
Continuous
 62
     4
100
AcDbLine
 10
2670.0
 20
3410.0
 30
0.0
 11
2630.607689879512
 21
3416.945927106677
 31
0.0
  0
LINE
  5
121
330
20
100
AcDbEntity
  8
_0-0_
  6
Continuous
 62
     4
100
AcDbLine
 10
2670.0
 20
3410.0
 30
0.0
 11
2630.607689879512
 21
3403.054072893323
 31
0.0
  0
LINE
  5
122
330
20
100
AcDbEntity
  8
_0-0_
  6
Continuous
 62
     4
100
AcDbLine
 10
1460.0
 20
3430.0
 30
0.0
 11
1460.0
 21
3290.0
 31
0.0
  0
LINE
  5
123
330
20
100
AcDbEntity
  8
_0-0_
  6
Continuous
 62
     4
100
AcDbLine
 10
2670.0
 20
3430.0
 30
0.0
 11
2670.0
 21
3290.0
 31
0.0
  0
LINE
  5
124
330
20
100
AcDbEntity
  8
_0-0_
  6
Continuous
 62
     4
100
AcDbLine
 10
1460.0
 20
3410.0
 30
0.0
 11
2670.0
 21
3410.0
 31
0.0
  0
TEXT
  5
125
330
20
100
AcDbEntity
  8
_0-0_
 62
     7
100
AcDbText
 10
1993.75
 20
3410.0
 30
0.0
 40
100.0
  1
1210
 41
0.5999999999999999
100
AcDbText
  0
LINE
  5
126
330
20
100
AcDbEntity
  8
_0-0_
  6
CENTER1
 62
     4
100
AcDbLine
 10
2065.0
 20
3170.0
 30
0.0
 11
2065.0
 21
2930.0
 31
0.0
  0
LINE
  5
127
330
20
100
AcDbEntity
  8
_0-0_
  6
CENTER1
 62
     4
100
AcDbLine
 10
2065.0
 20
2710.0
 30
0.0
 11
2065.0
 21
2450.0
 31
0.0
  0
LINE
  5
128
330
20
100
AcDbEntity
  8
_0-0_
  6
CENTER1
 62
     4
100
AcDbLine
 10
1380.0
 20
2820.0
 30
0.0
 11
1620.0
 21
2820.0
 31
0.0
  0
LINE
  5
129
330
20
100
AcDbEntity
  8
_0-0_
  6
CENTER1
 62
     4
100
AcDbLine
 10
2510.0
 20
2820.0
 30
0.0
 11
2770.0
 21
2820.0
 31
0.0
  0
LINE
  5
12A
330
20
100
AcDbEntity
  8
_0-0_
  6
Continuous
 62
     4
100
AcDbLine
 10
2630.0
 20
2970.0
 30
0.0
 11
2690.0
 21
2970.0
 31
0.0
  0
LINE
  5
12B
330
20
100
AcDbEntity
  8
_0-0_
  6
Continuous
 62
     4
100
AcDbLine
 10
2630.0
 20
2670.0
 30
0.0
 11
2690.0
 21
2670.0
 31
0.0
  0
LINE
  5
12C
330
20
100
AcDbEntity
  8
_0-0_
  6
Continuous
 62
     4
100
AcDbLine
 10
1440.0
 20
2970.0
 30
0.0
 11
1500.0
 21
2970.0
 31
0.0
  0
LINE
  5
12D
330
20
100
AcDbEntity
  8
_0-0_
  6
Continuous
 62
     4
100
AcDbLine
 10
1440.0
 20
2670.0
 30
0.0
 11
1500.0
 21
2670.0
 31
0.0
  0
LINE
  5
12E
330
20
100
AcDbEntity
  8
_0-0_
  6
Continuous
 62
     4
100
AcDbLine
 10
1865.0
 20
3110.0
 30
0.0
 11
1865.0
 21
3050.0
 31
0.0
  0
LINE
  5
12F
330
20
100
AcDbEntity
  8
_0-0_
  6
Continuous
 62
     4
100
AcDbLine
 10
2265.0
 20
3110.0
 30
0.0
 11
2265.0
 21
3050.0
 31
0.0
  0
LINE
  5
130
330
20
100
AcDbEntity
  8
_0-0_
  6
Continuous
 62
     4
100
AcDbLine
 10
1865.0
 20
2590.0
 30
0.0
 11
1865.0
 21
2530.0
 31
0.0
  0
LINE
  5
131
330
20
100
AcDbEntity
  8
_0-0_
  6
Continuous
 62
     4
100
AcDbLine
 10
2265.0
 20
2590.0
 30
0.0
 11
2265.0
 21
2530.0
 31
0.0
  0
LINE
  5
132
330
20
100
AcDbEntity
  8
_0-0_
  6
Continuous
 62
     4
100
AcDbLine
 10
2690.0
 20
3090.0
 30
0.0
 11
2870.0
 21
3090.0
 31
0.0
  0
LINE
  5
133
330
20
100
AcDbEntity
  8
_0-0_
  6
Continuous
 62
     4
100
AcDbLine
 10
2690.0
 20
2550.0
 30
0.0
 11
2870.0
 21
2550.0
 31
0.0
  0
LINE
  5
134
330
20
100
AcDbEntity
  8
_0-0_
  6
Continuous
 62
     4
100
AcDbLine
 10
1260.0
 20
3090.0
 30
0.0
 11
1440.0
 21
3090.0
 31
0.0
  0
LINE
  5
135
330
20
100
AcDbEntity
  8
_0-0_
  6
Continuous
 62
     4
100
AcDbLine
 10
1260.0
 20
2550.0
 30
0.0
 11
1440.0
 21
2550.0
 31
0.0
  0
LINE
  5
136
330
20
100
AcDbEntity
  8
_0-0_
  6
Continuous
 62
     4
100
AcDbLine
 10
1460.0
 20
3290.0
 30
0.0
 11
1460.0
 21
3110.0
 31
0.0
  0
LINE
  5
137
330
20
100
AcDbEntity
  8
_0-0_
  6
Continuous
 62
     4
100
AcDbLine
 10
2670.0
 20
3290.0
 30
0.0
 11
2670.0
 21
3110.0
 31
0.0
  0
LINE
  5
138
330
20
100
AcDbEntity
  8
_0-0_
  6
Continuous
 62
     4
100
AcDbLine
 10
1460.0
 20
2530.0
 30
0.0
 11
1460.0
 21
2350.0
 31
0.0
  0
LINE
  5
139
330
20
100
AcDbEntity
  8
_0-0_
  6
Continuous
 62
     4
100
AcDbLine
 10
2670.0
 20
2530.0
 30
0.0
 11
2670.0
 21
2350.0
 31
0.0
  0
LINE
  5
13A
330
20
100
AcDbEntity
  8
_0-0_
  6
Continuous
 62
     4
100
AcDbLine
 10
1865.0
 20
3290.0
 30
0.0
 11
2265.0
 21
3290.0
 31
0.0
  0
TEXT
  5
13B
330
20
100
AcDbEntity
  8
_0-0_
 62
     7
100
AcDbText
 10
1975.0
 20
3290.0
 30
0.0
 40
100.0
  1
φ400
 41
0.5999999999999999
100
AcDbText
  0
LINE
  5
13C
330
20
100
AcDbEntity
  8
_0-0_
  6
Continuous
 62
     4
100
AcDbLine
 10
1865.0
 20
2350.0
 30
0.0
 11
2265.0
 21
2350.0
 31
0.0
  0
TEXT
  5
13D
330
20
100
AcDbEntity
  8
_0-0_
 62
     7
100
AcDbText
 10
1975.0
 20
2350.0
 30
0.0
 40
100.0
  1
φ400
 41
0.5999999999999999
100
AcDbText
  0
LINE
  5
13E
330
20
100
AcDbEntity
  8
_0-0_
  6
Continuous
 62
     4
100
AcDbLine
 10
1260.0
 20
2670.0
 30
0.0
 11
1260.0
 21
2970.0
 31
0.0
  0
TEXT
  5
13F
330
20
100
AcDbEntity
  8
_0-0_
 62
     7
100
AcDbText
 10
1260.0
 20
2730.0
 30
0.0
 40
100.0
  1
φ300
 50
90.0
 41
0.5999999999999999
100
AcDbText
  0
LINE
  5
140
330
20
100
AcDbEntity
  8
_0-0_
  6
Continuous
 62
     4
100
AcDbLine
 10
2870.0
 20
2670.0
 30
0.0
 11
2870.0
 21
2970.0
 31
0.0
  0
TEXT
  5
141
330
20
100
AcDbEntity
  8
_0-0_
 62
     7
100
AcDbText
 10
2870.0
 20
2730.0
 30
0.0
 40
100.0
  1
φ300
 50
90.0
 41
0.5999999999999999
100
AcDbText
  0
LINE
  5
142
330
20
100
AcDbEntity
  8
_0-0_
  6
CENTER1
 62
     4
100
AcDbLine
 10
3010.0
 20
2820.0
 30
0.0
 11
2870.0
 21
2820.0
 31
0.0
  0
LINE
  5
143
330
20
100
AcDbEntity
  8
_0-0_
  6
CENTER1
 62
     4
100
AcDbLine
 10
2065.0
 20
2210.0
 30
0.0
 11
2065.0
 21
2350.0
 31
0.0
  0
CIRCLE
  5
144
330
20
100
AcDbEntity
  8
_0-0_
  6
Continuous
 62
     7
100
AcDbCircle
 10
2065.0
 20
1115.0
 30
0.0
 40
200.0
  0
CIRCLE
  5
145
330
20
100
AcDbEntity
  8
_0-0_
  6
Continuous
 62
     7
100
AcDbCircle
 10
2065.0
 20
1115.0
 30
0.0
 40
212.0
  0
LINE
  5
146
330
20
100
AcDbEntity
  8
_0-0_
  6
DASHED1
 62
     7
100
AcDbLine
 10
1540.0
 20
900.0
 30
0.0
 11
1540.0
 21
1200.0
 31
0.0
  0
LINE
  5
147
330
20
100
AcDbEntity
  8
_0-0_
  6
DASHED1
 62
     7
100
AcDbLine
 10
1460.0
 20
1212.0
 30
0.0
 11
1540.0
 21
1200.0
 31
0.0
  0
LINE
  5
148
330
20
100
AcDbEntity
  8
_0-0_
  6
DASHED1
 62
     7
100
AcDbLine
 10
1460.0
 20
888.0
 30
0.0
 11
1540.0
 21
900.0
 31
0.0
  0
LINE
  5
149
330
20
100
AcDbEntity
  8
_0-0_
  6
DASHED1
 62
     7
100
AcDbLine
 10
2590.0
 20
900.0
 30
0.0
 11
2670.0
 21
888.0
 31
0.0
  0
LINE
  5
14A
330
20
100
AcDbEntity
  8
_0-0_
  6
DASHED1
 62
     7
100
AcDbLine
 10
2590.0
 20
1200.0
 30
0.0
 11
2670.0
 21
1212.0
 31
0.0
  0
LINE
  5
14B
330
20
100
AcDbEntity
  8
_0-0_
  6
DASHED1
 62
     7
100
AcDbLine
 10
2590.0
 20
1200.0
 30
0.0
 11
2590.0
 21
900.0
 31
0.0
  0
LINE
  5
14C
330
20
100
AcDbEntity
  8
_0-0_
  6
Continuous
 62
     4
100
AcDbLine
 10
1460.0
 20
1900.0
 30
0.0
 11
1499.392310120488
 21
1906.945927106677
 31
0.0
  0
LINE
  5
14D
330
20
100
AcDbEntity
  8
_0-0_
  6
Continuous
 62
     4
100
AcDbLine
 10
1460.0
 20
1900.0
 30
0.0
 11
1499.392310120488
 21
1893.054072893322
 31
0.0
  0
LINE
  5
14E
330
20
100
AcDbEntity
  8
_0-0_
  6
Continuous
 62
     4
100
AcDbLine
 10
1580.0
 20
1900.0
 30
0.0
 11
1540.607689879512
 21
1906.945927106677
 31
0.0
  0
LINE
  5
14F
330
20
100
AcDbEntity
  8
_0-0_
  6
Continuous
 62
     4
100
AcDbLine
 10
1580.0
 20
1900.0
 30
0.0
 11
1540.607689879512
 21
1893.054072893322
 31
0.0
  0
LINE
  5
150
330
20
100
AcDbEntity
  8
_0-0_
  6
Continuous
 62
     4
100
AcDbLine
 10
1460.0
 20
1920.0
 30
0.0
 11
1460.0
 21
1720.0
 31
0.0
  0
LINE
  5
151
330
20
100
AcDbEntity
  8
_0-0_
  6
Continuous
 62
     4
100
AcDbLine
 10
1580.0
 20
1920.0
 30
0.0
 11
1580.0
 21
1720.0
 31
0.0
  0
LINE
  5
152
330
20
100
AcDbEntity
  8
_0-0_
  6
Continuous
 62
     4
100
AcDbLine
 10
1460.0
 20
1900.0
 30
0.0
 11
1580.0
 21
1900.0
 31
0.0
  0
TEXT
  5
153
330
20
100
AcDbEntity
  8
_0-0_
 62
     7
100
AcDbText
 10
1467.5
 20
1900.0
 30
0.0
 40
100.0
  1
120
 41
0.5999999999999999
100
AcDbText
  0
LINE
  5
154
330
20
100
AcDbEntity
  8
_0-0_
  6
Continuous
 62
     4
100
AcDbLine
 10
1580.0
 20
1900.0
 30
0.0
 11
1619.392310120488
 21
1906.945927106677
 31
0.0
  0
LINE
  5
155
330
20
100
AcDbEntity
  8
_0-0_
  6
Continuous
 62
     4
100
AcDbLine
 10
1580.0
 20
1900.0
 30
0.0
 11
1619.392310120488
 21
1893.054072893322
 31
0.0
  0
LINE
  5
156
330
20
100
AcDbEntity
  8
_0-0_
  6
Continuous
 62
     4
100
AcDbLine
 10
2550.0
 20
1900.0
 30
0.0
 11
2510.607689879512
 21
1906.945927106677
 31
0.0
  0
LINE
  5
157
330
20
100
AcDbEntity
  8
_0-0_
  6
Continuous
 62
     4
100
AcDbLine
 10
2550.0
 20
1900.0
 30
0.0
 11
2510.607689879512
 21
1893.054072893322
 31
0.0
  0
LINE
  5
158
330
20
100
AcDbEntity
  8
_0-0_
  6
Continuous
 62
     4
100
AcDbLine
 10
1580.0
 20
1920.0
 30
0.0
 11
1580.0
 21
1720.0
 31
0.0
  0
LINE
  5
159
330
20
100
AcDbEntity
  8
_0-0_
  6
Continuous
 62
     4
100
AcDbLine
 10
2550.0
 20
1920.0
 30
0.0
 11
2550.0
 21
1720.0
 31
0.0
  0
LINE
  5
15A
330
20
100
AcDbEntity
  8
_0-0_
  6
Continuous
 62
     4
100
AcDbLine
 10
1580.0
 20
1900.0
 30
0.0
 11
2550.0
 21
1900.0
 31
0.0
  0
TEXT
  5
15B
330
20
100
AcDbEntity
  8
_0-0_
 62
     7
100
AcDbText
 10
2012.5
 20
1900.0
 30
0.0
 40
100.0
  1
970
 41
0.5999999999999999
100
AcDbText
  0
LINE
  5
15C
330
20
100
AcDbEntity
  8
_0-0_
  6
Continuous
 62
     4
100
AcDbLine
 10
2550.0
 20
1900.0
 30
0.0
 11
2589.392310120488
 21
1906.945927106677
 31
0.0
  0
LINE
  5
15D
330
20
100
AcDbEntity
  8
_0-0_
  6
Continuous
 62
     4
100
AcDbLine
 10
2550.0
 20
1900.0
 30
0.0
 11
2589.392310120488
 21
1893.054072893322
 31
0.0
  0
LINE
  5
15E
330
20
100
AcDbEntity
  8
_0-0_
  6
Continuous
 62
     4
100
AcDbLine
 10
2670.0
 20
1900.0
 30
0.0
 11
2630.607689879512
 21
1906.945927106677
 31
0.0
  0
LINE
  5
15F
330
20
100
AcDbEntity
  8
_0-0_
  6
Continuous
 62
     4
100
AcDbLine
 10
2670.0
 20
1900.0
 30
0.0
 11
2630.607689879512
 21
1893.054072893322
 31
0.0
  0
LINE
  5
160
330
20
100
AcDbEntity
  8
_0-0_
  6
Continuous
 62
     4
100
AcDbLine
 10
2670.0
 20
1920.0
 30
0.0
 11
2670.0
 21
1720.0
 31
0.0
  0
LINE
  5
161
330
20
100
AcDbEntity
  8
_0-0_
  6
Continuous
 62
     4
100
AcDbLine
 10
2550.0
 20
1900.0
 30
0.0
 11
2670.0
 21
1900.0
 31
0.0
  0
TEXT
  5
162
330
20
100
AcDbEntity
  8
_0-0_
 62
     7
100
AcDbText
 10
2557.5
 20
1900.0
 30
0.0
 40
100.0
  1
120
 41
0.5999999999999999
100
AcDbText
  0
LINE
  5
163
330
20
100
AcDbEntity
  8
_0-0_
  6
Continuous
 62
     4
100
AcDbLine
 10
1460.0
 20
480.0
 30
0.0
 11
1499.392310120488
 21
486.9459271066774
 31
0.0
  0
LINE
  5
164
330
20
100
AcDbEntity
  8
_0-0_
  6
Continuous
 62
     4
100
AcDbLine
 10
1460.0
 20
480.0
 30
0.0
 11
1499.392310120488
 21
473.0540728933226
 31
0.0
  0
LINE
  5
165
330
20
100
AcDbEntity
  8
_0-0_
  6
Continuous
 62
     4
100
AcDbLine
 10
1605.0
 20
480.0
 30
0.0
 11
1565.607689879512
 21
486.9459271066774
 31
0.0
  0
LINE
  5
166
330
20
100
AcDbEntity
  8
_0-0_
  6
Continuous
 62
     4
100
AcDbLine
 10
1605.0
 20
480.0
 30
0.0
 11
1565.607689879512
 21
473.0540728933226
 31
0.0
  0
LINE
  5
167
330
20
100
AcDbEntity
  8
_0-0_
  6
Continuous
 62
     4
100
AcDbLine
 10
1460.0
 20
460.0
 30
0.0
 11
1460.0
 21
660.0
 31
0.0
  0
LINE
  5
168
330
20
100
AcDbEntity
  8
_0-0_
  6
Continuous
 62
     4
100
AcDbLine
 10
1605.0
 20
460.0
 30
0.0
 11
1605.0
 21
660.0
 31
0.0
  0
LINE
  5
169
330
20
100
AcDbEntity
  8
_0-0_
  6
Continuous
 62
     4
100
AcDbLine
 10
1460.0
 20
480.0
 30
0.0
 11
1605.0
 21
480.0
 31
0.0
  0
TEXT
  5
16A
330
20
100
AcDbEntity
  8
_0-0_
 62
     7
100
AcDbText
 10
1480.0
 20
480.0
 30
0.0
 40
100.0
  1
145
 41
0.5999999999999999
100
AcDbText
  0
LINE
  5
16B
330
20
100
AcDbEntity
  8
_0-0_
  6
Continuous
 62
     4
100
AcDbLine
 10
1605.0
 20
480.0
 30
0.0
 11
1644.392310120488
 21
486.9459271066774
 31
0.0
  0
LINE
  5
16C
330
20
100
AcDbEntity
  8
_0-0_
  6
Continuous
 62
     4
100
AcDbLine
 10
1605.0
 20
480.0
 30
0.0
 11
1644.392310120488
 21
473.0540728933226
 31
0.0
  0
LINE
  5
16D
330
20
100
AcDbEntity
  8
_0-0_
  6
Continuous
 62
     4
100
AcDbLine
 10
2525.0
 20
480.0
 30
0.0
 11
2485.607689879512
 21
486.9459271066774
 31
0.0
  0
LINE
  5
16E
330
20
100
AcDbEntity
  8
_0-0_
  6
Continuous
 62
     4
100
AcDbLine
 10
2525.0
 20
480.0
 30
0.0
 11
2485.607689879512
 21
473.0540728933226
 31
0.0
  0
LINE
  5
16F
330
20
100
AcDbEntity
  8
_0-0_
  6
Continuous
 62
     4
100
AcDbLine
 10
2525.0
 20
460.0
 30
0.0
 11
2525.0
 21
660.0
 31
0.0
  0
LINE
  5
170
330
20
100
AcDbEntity
  8
_0-0_
  6
Continuous
 62
     4
100
AcDbLine
 10
1605.0
 20
480.0
 30
0.0
 11
2525.0
 21
480.0
 31
0.0
  0
TEXT
  5
171
330
20
100
AcDbEntity
  8
_0-0_
 62
     7
100
AcDbText
 10
2012.5
 20
480.0
 30
0.0
 40
100.0
  1
920
 41
0.5999999999999999
100
AcDbText
  0
LINE
  5
172
330
20
100
AcDbEntity
  8
_0-0_
  6
Continuous
 62
     4
100
AcDbLine
 10
2525.0
 20
480.0
 30
0.0
 11
2564.392310120488
 21
486.9459271066774
 31
0.0
  0
LINE
  5
173
330
20
100
AcDbEntity
  8
_0-0_
  6
Continuous
 62
     4
100
AcDbLine
 10
2525.0
 20
480.0
 30
0.0
 11
2564.392310120488
 21
473.0540728933226
 31
0.0
  0
LINE
  5
174
330
20
100
AcDbEntity
  8
_0-0_
  6
Continuous
 62
     4
100
AcDbLine
 10
2670.0
 20
480.0
 30
0.0
 11
2630.607689879512
 21
486.9459271066774
 31
0.0
  0
LINE
  5
175
330
20
100
AcDbEntity
  8
_0-0_
  6
Continuous
 62
     4
100
AcDbLine
 10
2670.0
 20
480.0
 30
0.0
 11
2630.607689879512
 21
473.0540728933226
 31
0.0
  0
LINE
  5
176
330
20
100
AcDbEntity
  8
_0-0_
  6
Continuous
 62
     4
100
AcDbLine
 10
2670.0
 20
460.0
 30
0.0
 11
2670.0
 21
660.0
 31
0.0
  0
LINE
  5
177
330
20
100
AcDbEntity
  8
_0-0_
  6
Continuous
 62
     4
100
AcDbLine
 10
2525.0
 20
480.0
 30
0.0
 11
2670.0
 21
480.0
 31
0.0
  0
TEXT
  5
178
330
20
100
AcDbEntity
  8
_0-0_
 62
     7
100
AcDbText
 10
2545.0
 20
480.0
 30
0.0
 40
100.0
  1
145
 41
0.5999999999999999
100
AcDbText
  0
LINE
  5
179
330
20
100
AcDbEntity
  8
_0-0_
  6
Continuous
 62
     4
100
AcDbLine
 10
1460.0
 20
360.0
 30
0.0
 11
1499.392310120488
 21
366.9459271066774
 31
0.0
  0
LINE
  5
17A
330
20
100
AcDbEntity
  8
_0-0_
  6
Continuous
 62
     4
100
AcDbLine
 10
1460.0
 20
360.0
 30
0.0
 11
1499.392310120488
 21
353.0540728933226
 31
0.0
  0
LINE
  5
17B
330
20
100
AcDbEntity
  8
_0-0_
  6
Continuous
 62
     4
100
AcDbLine
 10
2670.0
 20
360.0
 30
0.0
 11
2630.607689879512
 21
366.9459271066774
 31
0.0
  0
LINE
  5
17C
330
20
100
AcDbEntity
  8
_0-0_
  6
Continuous
 62
     4
100
AcDbLine
 10
2670.0
 20
360.0
 30
0.0
 11
2630.607689879512
 21
353.0540728933226
 31
0.0
  0
LINE
  5
17D
330
20
100
AcDbEntity
  8
_0-0_
  6
Continuous
 62
     4
100
AcDbLine
 10
1460.0
 20
340.0
 30
0.0
 11
1460.0
 21
480.0
 31
0.0
  0
LINE
  5
17E
330
20
100
AcDbEntity
  8
_0-0_
  6
Continuous
 62
     4
100
AcDbLine
 10
2670.0
 20
340.0
 30
0.0
 11
2670.0
 21
480.0
 31
0.0
  0
LINE
  5
17F
330
20
100
AcDbEntity
  8
_0-0_
  6
Continuous
 62
     4
100
AcDbLine
 10
1460.0
 20
360.0
 30
0.0
 11
2670.0
 21
360.0
 31
0.0
  0
TEXT
  5
180
330
20
100
AcDbEntity
  8
_0-0_
 62
     7
100
AcDbText
 10
1993.75
 20
360.0
 30
0.0
 40
100.0
  1
1210
 41
0.5999999999999999
100
AcDbText
  0
LINE
  5
181
330
20
100
AcDbEntity
  8
_0-0_
  6
Continuous
 62
     4
100
AcDbLine
 10
1260.0
 20
900.0
 30
0.0
 11
1253.054072893323
 21
939.3923101204885
 31
0.0
  0
LINE
  5
182
330
20
100
AcDbEntity
  8
_0-0_
  6
Continuous
 62
     4
100
AcDbLine
 10
1260.0
 20
900.0
 30
0.0
 11
1266.945927106677
 21
939.3923101204885
 31
0.0
  0
LINE
  5
183
330
20
100
AcDbEntity
  8
_0-0_
  6
Continuous
 62
     4
100
AcDbLine
 10
1260.0
 20
1200.0
 30
0.0
 11
1253.054072893323
 21
1160.607689879511
 31
0.0
  0
LINE
  5
184
330
20
100
AcDbEntity
  8
_0-0_
  6
Continuous
 62
     4
100
AcDbLine
 10
1260.0
 20
1200.0
 30
0.0
 11
1266.945927106677
 21
1160.607689879511
 31
0.0
  0
LINE
  5
185
330
20
100
AcDbEntity
  8
_0-0_
  6
Continuous
 62
     4
100
AcDbLine
 10
1240.0
 20
900.0
 30
0.0
 11
1440.0
 21
900.0
 31
0.0
  0
LINE
  5
186
330
20
100
AcDbEntity
  8
_0-0_
  6
Continuous
 62
     4
100
AcDbLine
 10
1240.0
 20
1200.0
 30
0.0
 11
1440.0
 21
1200.0
 31
0.0
  0
LINE
  5
187
330
20
100
AcDbEntity
  8
_0-0_
  6
Continuous
 62
     4
100
AcDbLine
 10
1260.0
 20
1490.0
 30
0.0
 11
1253.054072893323
 21
1529.392310120488
 31
0.0
  0
LINE
  5
188
330
20
100
AcDbEntity
  8
_0-0_
  6
Continuous
 62
     4
100
AcDbLine
 10
1260.0
 20
1490.0
 30
0.0
 11
1266.945927106677
 21
1529.392310120488
 31
0.0
  0
LINE
  5
189
330
20
100
AcDbEntity
  8
_0-0_
  6
Continuous
 62
     4
100
AcDbLine
 10
1260.0
 20
1670.0
 30
0.0
 11
1253.054072893323
 21
1630.607689879512
 31
0.0
  0
LINE
  5
18A
330
20
100
AcDbEntity
  8
_0-0_
  6
Continuous
 62
     4
100
AcDbLine
 10
1260.0
 20
1670.0
 30
0.0
 11
1266.945927106677
 21
1630.607689879512
 31
0.0
  0
LINE
  5
18B
330
20
100
AcDbEntity
  8
_0-0_
  6
Continuous
 62
     4
100
AcDbLine
 10
1240.0
 20
1490.0
 30
0.0
 11
1440.0
 21
1490.0
 31
0.0
  0
LINE
  5
18C
330
20
100
AcDbEntity
  8
_0-0_
  6
Continuous
 62
     4
100
AcDbLine
 10
1240.0
 20
1670.0
 30
0.0
 11
1440.0
 21
1670.0
 31
0.0
  0
LINE
  5
18D
330
20
100
AcDbEntity
  8
_0-0_
  6
Continuous
 62
     4
100
AcDbLine
 10
1260.0
 20
1490.0
 30
0.0
 11
1260.0
 21
1670.0
 31
0.0
  0
TEXT
  5
18E
330
20
100
AcDbEntity
  8
_0-0_
 62
     7
100
AcDbText
 10
1260.0
 20
1527.5
 30
0.0
 40
100.0
  1
180
 50
90.0
 41
0.5999999999999999
100
AcDbText
  0
LINE
  5
18F
330
20
100
AcDbEntity
  8
_0-0_
  6
Continuous
 62
     4
100
AcDbLine
 10
2870.0
 20
900.0
 30
0.0
 11
2863.054072893323
 21
939.3923101204885
 31
0.0
  0
LINE
  5
190
330
20
100
AcDbEntity
  8
_0-0_
  6
Continuous
 62
     4
100
AcDbLine
 10
2870.0
 20
900.0
 30
0.0
 11
2876.945927106677
 21
939.3923101204885
 31
0.0
  0
LINE
  5
191
330
20
100
AcDbEntity
  8
_0-0_
  6
Continuous
 62
     4
100
AcDbLine
 10
2870.0
 20
1200.0
 30
0.0
 11
2863.054072893323
 21
1160.607689879511
 31
0.0
  0
LINE
  5
192
330
20
100
AcDbEntity
  8
_0-0_
  6
Continuous
 62
     4
100
AcDbLine
 10
2870.0
 20
1200.0
 30
0.0
 11
2876.945927106677
 21
1160.607689879511
 31
0.0
  0
LINE
  5
193
330
20
100
AcDbEntity
  8
_0-0_
  6
Continuous
 62
     4
100
AcDbLine
 10
2890.0
 20
900.0
 30
0.0
 11
2690.0
 21
900.0
 31
0.0
  0
LINE
  5
194
330
20
100
AcDbEntity
  8
_0-0_
  6
Continuous
 62
     4
100
AcDbLine
 10
2890.0
 20
1200.0
 30
0.0
 11
2690.0
 21
1200.0
 31
0.0
  0
LINE
  5
195
330
20
100
AcDbEntity
  8
_0-0_
  6
Continuous
 62
     4
100
AcDbLine
 10
1140.0
 20
680.0
 30
0.0
 11
1133.054072893322
 21
719.392310120488
 31
0.0
  0
LINE
  5
196
330
20
100
AcDbEntity
  8
_0-0_
  6
Continuous
 62
     4
100
AcDbLine
 10
1140.0
 20
680.0
 30
0.0
 11
1146.945927106677
 21
719.392310120488
 31
0.0
  0
LINE
  5
197
330
20
100
AcDbEntity
  8
_0-0_
  6
Continuous
 62
     4
100
AcDbLine
 10
1140.0
 20
800.0
 30
0.0
 11
1133.054072893322
 21
760.6076898795115
 31
0.0
  0
LINE
  5
198
330
20
100
AcDbEntity
  8
_0-0_
  6
Continuous
 62
     4
100
AcDbLine
 10
1140.0
 20
800.0
 30
0.0
 11
1146.945927106677
 21
760.6076898795115
 31
0.0
  0
LINE
  5
199
330
20
100
AcDbEntity
  8
_0-0_
  6
Continuous
 62
     4
100
AcDbLine
 10
1120.0
 20
680.0
 30
0.0
 11
1260.0
 21
680.0
 31
0.0
  0
LINE
  5
19A
330
20
100
AcDbEntity
  8
_0-0_
  6
Continuous
 62
     4
100
AcDbLine
 10
1120.0
 20
800.0
 30
0.0
 11
1260.0
 21
800.0
 31
0.0
  0
LINE
  5
19B
330
20
100
AcDbEntity
  8
_0-0_
  6
Continuous
 62
     4
100
AcDbLine
 10
1140.0
 20
680.0
 30
0.0
 11
1140.0
 21
800.0
 31
0.0
  0
TEXT
  5
19C
330
20
100
AcDbEntity
  8
_0-0_
 62
     7
100
AcDbText
 10
1140.0
 20
687.5
 30
0.0
 40
100.0
  1
120
 50
90.0
 41
0.5999999999999999
100
AcDbText
  0
LINE
  5
19D
330
20
100
AcDbEntity
  8
_0-0_
  6
Continuous
 62
     4
100
AcDbLine
 10
1140.0
 20
800.0
 30
0.0
 11
1133.054072893322
 21
839.3923101204885
 31
0.0
  0
LINE
  5
19E
330
20
100
AcDbEntity
  8
_0-0_
  6
Continuous
 62
     4
100
AcDbLine
 10
1140.0
 20
800.0
 30
0.0
 11
1146.945927106677
 21
839.3923101204885
 31
0.0
  0
LINE
  5
19F
330
20
100
AcDbEntity
  8
_0-0_
  6
Continuous
 62
     4
100
AcDbLine
 10
1140.0
 20
1670.0
 30
0.0
 11
1133.054072893322
 21
1630.607689879512
 31
0.0
  0
LINE
  5
1A0
330
20
100
AcDbEntity
  8
_0-0_
  6
Continuous
 62
     4
100
AcDbLine
 10
1140.0
 20
1670.0
 30
0.0
 11
1146.945927106677
 21
1630.607689879512
 31
0.0
  0
LINE
  5
1A1
330
20
100
AcDbEntity
  8
_0-0_
  6
Continuous
 62
     4
100
AcDbLine
 10
1120.0
 20
1670.0
 30
0.0
 11
1260.0
 21
1670.0
 31
0.0
  0
LINE
  5
1A2
330
20
100
AcDbEntity
  8
_0-0_
  6
Continuous
 62
     4
100
AcDbLine
 10
1140.0
 20
800.0
 30
0.0
 11
1140.0
 21
1670.0
 31
0.0
  0
TEXT
  5
1A3
330
20
100
AcDbEntity
  8
_0-0_
 62
     7
100
AcDbText
 10
1140.0
 20
1182.5
 30
0.0
 40
100.0
  1
870
 50
90.0
 41
0.5999999999999999
100
AcDbText
  0
LINE
  5
1A4
330
20
100
AcDbEntity
  8
_0-0_
  6
Continuous
 62
     4
100
AcDbLine
 10
1140.0
 20
1670.0
 30
0.0
 11
1140.0
 21
1570.0
 31
0.0
  0
LINE
  5
1A5
330
20
100
AcDbEntity
  8
_0-0_
  6
Continuous
 62
     4
100
AcDbLine
 10
1140.0
 20
1700.0
 30
0.0
 11
1140.0
 21
1800.0
 31
0.0
  0
LINE
  5
1A6
330
20
100
AcDbEntity
  8
_0-0_
  6
Continuous
 62
     4
100
AcDbLine
 10
1140.0
 20
1670.0
 30
0.0
 11
1146.945927106677
 21
1630.607689879512
 31
0.0
  0
LINE
  5
1A7
330
20
100
AcDbEntity
  8
_0-0_
  6
Continuous
 62
     4
100
AcDbLine
 10
1140.0
 20
1670.0
 30
0.0
 11
1133.054072893322
 21
1630.607689879512
 31
0.0
  0
LINE
  5
1A8
330
20
100
AcDbEntity
  8
_0-0_
  6
Continuous
 62
     4
100
AcDbLine
 10
1140.0
 20
1700.0
 30
0.0
 11
1146.945927106677
 21
1739.392310120488
 31
0.0
  0
LINE
  5
1A9
330
20
100
AcDbEntity
  8
_0-0_
  6
Continuous
 62
     4
100
AcDbLine
 10
1140.0
 20
1700.0
 30
0.0
 11
1133.054072893322
 21
1739.392310120488
 31
0.0
  0
LINE
  5
1AA
330
20
100
AcDbEntity
  8
_0-0_
  6
Continuous
 62
     4
100
AcDbLine
 10
1120.0
 20
1700.0
 30
0.0
 11
1260.0
 21
1700.0
 31
0.0
  0
LINE
  5
1AB
330
20
100
AcDbEntity
  8
_0-0_
  6
Continuous
 62
     4
100
AcDbLine
 10
1140.0
 20
1670.0
 30
0.0
 11
1140.0
 21
1700.0
 31
0.0
  0
TEXT
  5
1AC
330
20
100
AcDbEntity
  8
_0-0_
 62
     7
100
AcDbText
 10
1140.0
 20
1732.5
 30
0.0
 40
100.0
  1
30
 50
90.0
 41
0.5999999999999999
100
AcDbText
  0
LINE
  5
1AD
330
20
100
AcDbEntity
  8
_0-0_
  6
Continuous
 62
     4
100
AcDbLine
 10
1020.0
 20
680.0
 30
0.0
 11
1013.054072893323
 21
719.392310120488
 31
0.0
  0
LINE
  5
1AE
330
20
100
AcDbEntity
  8
_0-0_
  6
Continuous
 62
     4
100
AcDbLine
 10
1020.0
 20
680.0
 30
0.0
 11
1026.945927106677
 21
719.392310120488
 31
0.0
  0
LINE
  5
1AF
330
20
100
AcDbEntity
  8
_0-0_
  6
Continuous
 62
     4
100
AcDbLine
 10
1020.0
 20
1700.0
 30
0.0
 11
1013.054072893323
 21
1660.607689879511
 31
0.0
  0
LINE
  5
1B0
330
20
100
AcDbEntity
  8
_0-0_
  6
Continuous
 62
     4
100
AcDbLine
 10
1020.0
 20
1700.0
 30
0.0
 11
1026.945927106677
 21
1660.607689879511
 31
0.0
  0
LINE
  5
1B1
330
20
100
AcDbEntity
  8
_0-0_
  6
Continuous
 62
     4
100
AcDbLine
 10
1000.0
 20
680.0
 30
0.0
 11
1140.0
 21
680.0
 31
0.0
  0
LINE
  5
1B2
330
20
100
AcDbEntity
  8
_0-0_
  6
Continuous
 62
     4
100
AcDbLine
 10
1000.0
 20
1700.0
 30
0.0
 11
1140.0
 21
1700.0
 31
0.0
  0
LINE
  5
1B3
330
20
100
AcDbEntity
  8
_0-0_
  6
Continuous
 62
     4
100
AcDbLine
 10
1020.0
 20
680.0
 30
0.0
 11
1020.0
 21
1700.0
 31
0.0
  0
TEXT
  5
1B4
330
20
100
AcDbEntity
  8
_0-0_
 62
     7
100
AcDbText
 10
1020.0
 20
1118.75
 30
0.0
 40
100.0
  1
1020
 50
90.0
 41
0.5999999999999999
100
AcDbText
  0
LINE
  5
1B5
330
20
100
AcDbEntity
  8
_0-0_
  6
Continuous
 62
     4
100
AcDbLine
 10
1440.0
 20
1200.0
 30
0.0
 11
1500.0
 21
1200.0
 31
0.0
  0
LINE
  5
1B6
330
20
100
AcDbEntity
  8
_0-0_
  6
Continuous
 62
     4
100
AcDbLine
 10
1440.0
 20
900.0
 30
0.0
 11
1500.0
 21
900.0
 31
0.0
  0
LINE
  5
1B7
330
20
100
AcDbEntity
  8
_0-0_
  6
Continuous
 62
     4
100
AcDbLine
 10
1260.0
 20
1700.0
 30
0.0
 11
1440.0
 21
1700.0
 31
0.0
  0
LINE
  5
1B8
330
20
100
AcDbEntity
  8
_0-0_
  6
Continuous
 62
     4
100
AcDbLine
 10
1260.0
 20
680.0
 30
0.0
 11
1440.0
 21
680.0
 31
0.0
  0
LINE
  5
1B9
330
20
100
AcDbEntity
  8
_0-0_
  6
Continuous
 62
     4
100
AcDbLine
 10
1260.0
 20
800.0
 30
0.0
 11
1440.0
 21
800.0
 31
0.0
  0
LINE
  5
1BA
330
20
100
AcDbEntity
  8
_0-0_
  6
Continuous
 62
     4
100
AcDbLine
 10
2990.0
 20
680.0
 30
0.0
 11
2983.054072893323
 21
719.392310120488
 31
0.0
  0
LINE
  5
1BB
330
20
100
AcDbEntity
  8
_0-0_
  6
Continuous
 62
     4
100
AcDbLine
 10
2990.0
 20
680.0
 30
0.0
 11
2996.945927106677
 21
719.392310120488
 31
0.0
  0
LINE
  5
1BC
330
20
100
AcDbEntity
  8
_0-0_
  6
Continuous
 62
     4
100
AcDbLine
 10
2990.0
 20
1050.0
 30
0.0
 11
2983.054072893323
 21
1010.607689879511
 31
0.0
  0
LINE
  5
1BD
330
20
100
AcDbEntity
  8
_0-0_
  6
Continuous
 62
     4
100
AcDbLine
 10
2990.0
 20
1050.0
 30
0.0
 11
2996.945927106677
 21
1010.607689879511
 31
0.0
  0
LINE
  5
1BE
330
20
100
AcDbEntity
  8
_0-0_
  6
Continuous
 62
     4
100
AcDbLine
 10
3010.0
 20
680.0
 30
0.0
 11
2870.0
 21
680.0
 31
0.0
  0
LINE
  5
1BF
330
20
100
AcDbEntity
  8
_0-0_
  6
Continuous
 62
     4
100
AcDbLine
 10
2990.0
 20
680.0
 30
0.0
 11
2990.0
 21
1050.0
 31
0.0
  0
TEXT
  5
1C0
330
20
100
AcDbEntity
  8
_0-0_
 62
     7
100
AcDbText
 10
2990.0
 20
812.5
 30
0.0
 40
100.0
  1
370
 50
90.0
 41
0.5999999999999999
100
AcDbText
  0
LINE
  5
1C1
330
20
100
AcDbEntity
  8
_0-0_
  6
Continuous
 62
     4
100
AcDbLine
 10
3110.0
 20
680.0
 30
0.0
 11
3103.054072893323
 21
719.392310120488
 31
0.0
  0
LINE
  5
1C2
330
20
100
AcDbEntity
  8
_0-0_
  6
Continuous
 62
     4
100
AcDbLine
 10
3110.0
 20
680.0
 30
0.0
 11
3116.945927106677
 21
719.392310120488
 31
0.0
  0
LINE
  5
1C3
330
20
100
AcDbEntity
  8
_0-0_
  6
Continuous
 62
     4
100
AcDbLine
 10
3110.0
 20
1115.0
 30
0.0
 11
3103.054072893323
 21
1075.607689879511
 31
0.0
  0
LINE
  5
1C4
330
20
100
AcDbEntity
  8
_0-0_
  6
Continuous
 62
     4
100
AcDbLine
 10
3110.0
 20
1115.0
 30
0.0
 11
3116.945927106677
 21
1075.607689879511
 31
0.0
  0
LINE
  5
1C5
330
20
100
AcDbEntity
  8
_0-0_
  6
Continuous
 62
     4
100
AcDbLine
 10
3130.0
 20
680.0
 30
0.0
 11
2990.0
 21
680.0
 31
0.0
  0
LINE
  5
1C6
330
20
100
AcDbEntity
  8
_0-0_
  6
Continuous
 62
     4
100
AcDbLine
 10
3110.0
 20
680.0
 30
0.0
 11
3110.0
 21
1115.0
 31
0.0
  0
TEXT
  5
1C7
330
20
100
AcDbEntity
  8
_0-0_
 62
     7
100
AcDbText
 10
3110.0
 20
845.0
 30
0.0
 40
100.0
  1
435
 50
90.0
 41
0.5999999999999999
100
AcDbText
  0
LINE
  5
1C8
330
20
100
AcDbEntity
  8
_0-0_
  6
Continuous
 62
     4
100
AcDbLine
 10
1923.57864376269
 20
973.5786437626904
 30
0.0
 11
1946.521701216732
 21
1006.34472553425
 31
0.0
  0
LINE
  5
1C9
330
20
100
AcDbEntity
  8
_0-0_
  6
Continuous
 62
     4
100
AcDbLine
 10
1923.57864376269
 20
973.5786437626904
 30
0.0
 11
1956.34472553425
 21
996.5217012167325
 31
0.0
  0
LINE
  5
1CA
330
20
100
AcDbEntity
  8
_0-0_
  6
Continuous
 62
     4
100
AcDbLine
 10
2206.421356201172
 20
1256.421356201172
 30
0.0
 11
2173.655274429612
 21
1233.47829874713
 31
0.0
  0
LINE
  5
1CB
330
20
100
AcDbEntity
  8
_0-0_
  6
Continuous
 62
     4
100
AcDbLine
 10
2206.421356201172
 20
1256.421356201172
 30
0.0
 11
2183.47829874713
 21
1223.655274429612
 31
0.0
  0
LINE
  5
1CC
330
20
100
AcDbEntity
  8
_0-0_
  6
Continuous
 62
     4
100
AcDbLine
 10
1260.0
 20
900.0
 30
0.0
 11
1260.0
 21
1200.0
 31
0.0
  0
TEXT
  5
1CD
330
20
100
AcDbEntity
  8
_0-0_
 62
     7
100
AcDbText
 10
1260.0
 20
960.0
 30
0.0
 40
100.0
  1
φ300
 50
90.0
 41
0.5999999999999999
100
AcDbText
  0
LINE
  5
1CE
330
20
100
AcDbEntity
  8
_0-0_
  6
Continuous
 62
     4
100
AcDbLine
 10
1923.57864376269
 20
973.5786437626904
 30
0.0
 11
2206.421356201172
 21
1256.421356201172
 31
0.0
  0
TEXT
  5
1CF
330
20
100
AcDbEntity
  8
_0-0_
 62
     7
100
AcDbText
 10
2001.360389675142
 20
1051.360389675142
 30
0.0
 40
100.0
  1
φ400
 50
45.0
 41
0.5999999999999999
100
AcDbText
  0
LINE
  5
1D0
330
20
100
AcDbEntity
  8
_0-0_
  6
Continuous
 62
     4
100
AcDbLine
 10
2870.0
 20
900.0
 30
0.0
 11
2870.0
 21
1200.0
 31
0.0
  0
TEXT
  5
1D1
330
20
100
AcDbEntity
  8
_0-0_
 62
     7
100
AcDbText
 10
2870.0
 20
960.0
 30
0.0
 40
100.0
  1
φ300
 50
90.0
 41
0.5999999999999999
100
AcDbText
  0
LINE
  5
1D2
330
20
100
AcDbEntity
  8
_0-0_
  6
CENTER1
 62
     4
100
AcDbLine
 10
1380.0
 20
1050.0
 30
0.0
 11
1620.0
 21
1050.0
 31
0.0
  0
LINE
  5
1D3
330
20
100
AcDbEntity
  8
_0-0_
  6
Continuous
 62
     4
100
AcDbLine
 10
2630.0
 20
1200.0
 30
0.0
 11
2690.0
 21
1200.0
 31
0.0
  0
LINE
  5
1D4
330
20
100
AcDbEntity
  8
_0-0_
  6
Continuous
 62
     4
100
AcDbLine
 10
2630.0
 20
900.0
 30
0.0
 11
2690.0
 21
900.0
 31
0.0
  0
LINE
  5
1D5
330
20
100
AcDbEntity
  8
_0-0_
  6
Continuous
 62
     4
100
AcDbLine
 10
2690.0
 20
680.0
 30
0.0
 11
2870.0
 21
680.0
 31
0.0
  0
LINE
  5
1D6
330
20
100
AcDbEntity
  8
_0-0_
  6
CENTER1
 62
     4
100
AcDbLine
 10
2065.0
 20
1407.0
 30
0.0
 11
2065.0
 21
1240.457449527217
 31
0.0
  0
LINE
  5
1D7
330
20
100
AcDbEntity
  8
_0-0_
  6
CENTER1
 62
     4
100
AcDbLine
 10
1773.0
 20
1115.0
 30
0.0
 11
1959.621773575262
 21
1115.0
 31
0.0
  0
LINE
  5
1D8
330
20
100
AcDbEntity
  8
_0-0_
  6
CENTER1
 62
     4
100
AcDbLine
 10
2065.0
 20
823.0
 30
0.0
 11
2065.0
 21
1115.0
 31
0.0
  0
LINE
  5
1D9
330
20
100
AcDbEntity
  8
_0-0_
  6
CENTER1
 62
     4
100
AcDbLine
 10
2065.0
 20
1115.0
 30
0.0
 11
2770.0
 21
1115.0
 31
0.0
  0
LINE
  5
1DA
330
20
100
AcDbEntity
  8
_0-0_
  6
CENTER1
 62
     4
100
AcDbLine
 10
2510.0
 20
1050.0
 30
0.0
 11
2770.0
 21
1050.0
 31
0.0
  0
LINE
  5
1DB
330
20
100
AcDbEntity
  8
_0-0_
  6
CENTER1
 62
     4
100
AcDbLine
 10
2870.0
 20
1115.0
 30
0.0
 11
2990.0
 21
1115.0
 31
0.0
  0
LINE
  5
1DC
330
20
100
AcDbEntity
  8
_0-0_
  6
CENTER1
 62
     4
100
AcDbLine
 10
3010.0
 20
1050.0
 30
0.0
 11
2870.0
 21
1050.0
 31
0.0
  0
LINE
  5
1DD
330
20
100
AcDbEntity
  8
_0-0_
  6
Continuous
 62
     7
100
AcDbLine
 10
4031.5
 20
1670.802325581395
 30
0.0
 11
4035.397502719546
 21
1614.938119934566
 31
0.0
  0
LINE
  5
1DE
330
20
100
AcDbEntity
  8
_0-0_
  6
Continuous
 62
     7
100
AcDbLine
 10
4448.5
 20
1699.895348837209
 30
0.0
 11
4452.397502719547
 21
1644.031143190381
 31
0.0
  0
LINE
  5
1DF
330
20
100
AcDbEntity
  8
_0-0_
  6
Continuous
 62
     7
100
AcDbLine
 10
4035.397502719546
 20
1614.938119934566
 30
0.0
 11
4452.397502719547
 21
1644.031143190381
 31
0.0
  0
LINE
  5
1E0
330
20
100
AcDbEntity
  8
_0-0_
  6
Continuous
 62
     7
100
AcDbLine
 10
4040.0
 20
1671.395348837209
 30
0.0
 11
4043.479913142451
 21
1621.516593795398
 31
0.0
  0
LINE
  5
1E1
330
20
100
AcDbEntity
  8
_0-0_
  6
Continuous
 62
     7
100
AcDbLine
 10
4440.0
 20
1699.302325581395
 30
0.0
 11
4443.479913142452
 21
1649.423570539584
 31
0.0
  0
LINE
  5
1E2
330
20
100
AcDbEntity
  8
_0-0_
  6
Continuous
 62
     7
100
AcDbLine
 10
4040.0
 20
1671.395348837209
 30
0.0
 11
4440.0
 21
1699.302325581395
 31
0.0
  0
LINE
  5
1E3
330
20
100
AcDbEntity
  8
_0-0_
  6
Continuous
 62
     7
100
AcDbLine
 10
4043.479913142451
 20
1621.516593795398
 30
0.0
 11
4443.479913142452
 21
1649.423570539584
 31
0.0
  0
LINE
  5
1E4
330
20
100
AcDbEntity
  8
_0-0_
  6
DASHED1
 62
     7
100
AcDbLine
 10
4031.5
 20
1670.802325581395
 30
0.0
 11
4040.0
 21
1671.395348837209
 31
0.0
  0
LINE
  5
1E5
330
20
100
AcDbEntity
  8
_0-0_
  6
DASHED1
 62
     7
100
AcDbLine
 10
4440.0
 20
1699.302325581395
 30
0.0
 11
4448.5
 21
1699.895348837209
 31
0.0
  0
LINE
  5
1E6
330
20
100
AcDbEntity
  8
_0-0_
  6
Continuous
 62
     7
100
AcDbLine
 10
4448.5
 20
1699.895348837209
 30
0.0
 11
4450.0
 21
1700.0
 31
0.0
  0
LINE
  5
1E7
330
20
100
AcDbEntity
  8
_0-0_
  6
Continuous
 62
     7
100
AcDbLine
 10
4450.0
 20
1700.0
 30
0.0
 11
4510.0
 21
1700.0
 31
0.0
  0
LINE
  5
1E8
330
20
100
AcDbEntity
  8
_0-0_
  6
Continuous
 62
     7
100
AcDbLine
 10
4020.0
 20
1670.0
 30
0.0
 11
4031.5
 21
1670.802325581395
 31
0.0
  0
CIRCLE
  5
1E9
330
20
100
AcDbEntity
  8
_0-0_
  6
Continuous
 62
     7
100
AcDbCircle
 10
4090.0
 20
1671.876428549453
 30
0.0
 40
3.0
  0
CIRCLE
  5
1EA
330
20
100
AcDbEntity
  8
_0-0_
  6
Continuous
 62
     7
100
AcDbCircle
 10
4140.0
 20
1675.364800642476
 30
0.0
 40
3.0
  0
CIRCLE
  5
1EB
330
20
100
AcDbEntity
  8
_0-0_
  6
Continuous
 62
     7
100
AcDbCircle
 10
4190.0
 20
1678.8531727355
 30
0.0
 40
3.0
  0
CIRCLE
  5
1EC
330
20
100
AcDbEntity
  8
_0-0_
  6
Continuous
 62
     7
100
AcDbCircle
 10
4240.0
 20
1682.341544828523
 30
0.0
 40
3.0
  0
CIRCLE
  5
1ED
330
20
100
AcDbEntity
  8
_0-0_
  6
Continuous
 62
     7
100
AcDbCircle
 10
4290.0
 20
1685.829916921546
 30
0.0
 40
3.0
  0
CIRCLE
  5
1EE
330
20
100
AcDbEntity
  8
_0-0_
  6
Continuous
 62
     7
100
AcDbCircle
 10
4340.0
 20
1689.318289014569
 30
0.0
 40
3.0
  0
CIRCLE
  5
1EF
330
20
100
AcDbEntity
  8
_0-0_
  6
Continuous
 62
     7
100
AcDbCircle
 10
4390.0
 20
1692.806661107592
 30
0.0
 40
3.0
  0
LINE
  5
1F0
330
20
100
AcDbEntity
  8
_0-0_
  6
Continuous
 62
     7
100
AcDbLine
 10
4020.0
 20
1670.0
 30
0.0
 11
4030.0
 21
1490.0
 31
0.0
  0
LINE
  5
1F1
330
20
100
AcDbEntity
  8
_0-0_
  6
Continuous
 62
     7
100
AcDbLine
 10
3970.0
 20
1490.0
 30
0.0
 11
4030.0
 21
1490.0
 31
0.0
  0
LINE
  5
1F2
330
20
100
AcDbEntity
  8
_0-0_
  6
Continuous
 62
     7
100
AcDbLine
 10
3970.0
 20
680.0
 30
0.0
 11
4510.0
 21
680.0
 31
0.0
  0
LINE
  5
1F3
330
20
100
AcDbEntity
  8
_0-0_
  6
Continuous
 62
     7
100
AcDbLine
 10
4090.0
 20
1618.747596489017
 30
0.0
 11
4115.0
 21
800.0
 31
0.0
  0
LINE
  5
1F4
330
20
100
AcDbEntity
  8
_0-0_
  6
Continuous
 62
     7
100
AcDbLine
 10
4390.0
 20
1639.677829047156
 30
0.0
 11
4365.0
 21
800.0
 31
0.0
  0
LINE
  5
1F5
330
20
100
AcDbEntity
  8
_0-0_
  6
Continuous
 62
     7
100
AcDbLine
 10
4115.0
 20
800.0
 30
0.0
 11
4365.0
 21
800.0
 31
0.0
  0
LINE
  5
1F6
330
20
100
AcDbEntity
  8
_0-0_
  6
Continuous
 62
     7
100
AcDbLine
 10
4050.0
 20
1315.0
 30
0.0
 11
4050.0
 21
915.0
 31
0.0
  0
LINE
  5
1F7
330
20
100
AcDbEntity
  8
_0-0_
  6
Continuous
 62
     7
100
AcDbLine
 10
3970.0
 20
903.0
 30
0.0
 11
3970.0
 21
680.0
 31
0.0
  0
LINE
  5
1F8
330
20
100
AcDbEntity
  8
_0-0_
  6
Continuous
 62
     7
100
AcDbLine
 10
4510.0
 20
1700.0
 30
0.0
 11
4510.0
 21
1327.0
 31
0.0
  0
LINE
  5
1F9
330
20
100
AcDbEntity
  8
_0-0_
  6
Continuous
 62
     7
100
AcDbLine
 10
4430.0
 20
1315.0
 30
0.0
 11
4430.0
 21
915.0
 31
0.0
  0
LINE
  5
1FA
330
20
100
AcDbEntity
  8
_0-0_
  6
Continuous
 62
     7
100
AcDbLine
 10
4510.0
 20
903.0
 30
0.0
 11
4510.0
 21
680.0
 31
0.0
  0
LINE
  5
1FB
330
20
100
AcDbEntity
  8
_0-0_
  6
Continuous
 62
     7
100
AcDbLine
 10
3970.0
 20
1327.0
 30
0.0
 11
4050.0
 21
1315.0
 31
0.0
  0
LINE
  5
1FC
330
20
100
AcDbEntity
  8
_0-0_
  6
Continuous
 62
     7
100
AcDbLine
 10
3970.0
 20
903.0
 30
0.0
 11
4050.0
 21
915.0
 31
0.0
  0
LINE
  5
1FD
330
20
100
AcDbEntity
  8
_0-0_
  6
Continuous
 62
     7
100
AcDbLine
 10
4430.0
 20
1315.0
 30
0.0
 11
4510.0
 21
1327.0
 31
0.0
  0
LINE
  5
1FE
330
20
100
AcDbEntity
  8
_0-0_
  6
Continuous
 62
     7
100
AcDbLine
 10
4430.0
 20
915.0
 30
0.0
 11
4510.0
 21
903.0
 31
0.0
  0
LINE
  5
1FF
330
20
100
AcDbEntity
  8
_0-0_
  6
DASHED1
 62
     7
100
AcDbLine
 10
3970.0
 20
1327.0
 30
0.0
 11
3970.0
 21
903.0
 31
0.0
  0
LINE
  5
200
330
20
100
AcDbEntity
  8
_0-0_
  6
DASHED1
 62
     7
100
AcDbLine
 10
4510.0
 20
1327.0
 30
0.0
 11
4510.0
 21
903.0
 31
0.0
  0
CIRCLE
  5
201
330
20
100
AcDbEntity
  8
_0-0_
  6
DASHED1
 62
     7
100
AcDbCircle
 10
4240.0
 20
1050.0
 30
0.0
 40
150.0
  0
CIRCLE
  5
202
330
20
100
AcDbEntity
  8
_0-0_
  6
DASHED1
 62
     7
100
AcDbCircle
 10
4240.0
 20
1050.0
 30
0.0
 40
162.0
  0
LINE
  5
203
330
20
100
AcDbEntity
  8
_0-0_
  6
Continuous
 62
     4
100
AcDbLine
 10
3970.0
 20
480.0
 30
0.0
 11
4009.392310120488
 21
486.9459271066774
 31
0.0
  0
LINE
  5
204
330
20
100
AcDbEntity
  8
_0-0_
  6
Continuous
 62
     4
100
AcDbLine
 10
3970.0
 20
480.0
 30
0.0
 11
4009.392310120488
 21
473.0540728933226
 31
0.0
  0
LINE
  5
205
330
20
100
AcDbEntity
  8
_0-0_
  6
Continuous
 62
     4
100
AcDbLine
 10
4115.0
 20
480.0
 30
0.0
 11
4075.607689879512
 21
486.9459271066774
 31
0.0
  0
LINE
  5
206
330
20
100
AcDbEntity
  8
_0-0_
  6
Continuous
 62
     4
100
AcDbLine
 10
4115.0
 20
480.0
 30
0.0
 11
4075.607689879512
 21
473.0540728933226
 31
0.0
  0
LINE
  5
207
330
20
100
AcDbEntity
  8
_0-0_
  6
Continuous
 62
     4
100
AcDbLine
 10
3970.0
 20
460.0
 30
0.0
 11
3970.0
 21
660.0
 31
0.0
  0
LINE
  5
208
330
20
100
AcDbEntity
  8
_0-0_
  6
Continuous
 62
     4
100
AcDbLine
 10
4115.0
 20
460.0
 30
0.0
 11
4115.0
 21
660.0
 31
0.0
  0
LINE
  5
209
330
20
100
AcDbEntity
  8
_0-0_
  6
Continuous
 62
     4
100
AcDbLine
 10
3970.0
 20
480.0
 30
0.0
 11
4115.0
 21
480.0
 31
0.0
  0
TEXT
  5
20A
330
20
100
AcDbEntity
  8
_0-0_
 62
     7
100
AcDbText
 10
3990.0
 20
480.0
 30
0.0
 40
100.0
  1
145
 41
0.5999999999999999
100
AcDbText
  0
LINE
  5
20B
330
20
100
AcDbEntity
  8
_0-0_
  6
Continuous
 62
     4
100
AcDbLine
 10
4115.0
 20
480.0
 30
0.0
 11
4154.392310120488
 21
486.9459271066774
 31
0.0
  0
LINE
  5
20C
330
20
100
AcDbEntity
  8
_0-0_
  6
Continuous
 62
     4
100
AcDbLine
 10
4115.0
 20
480.0
 30
0.0
 11
4154.392310120488
 21
473.0540728933226
 31
0.0
  0
LINE
  5
20D
330
20
100
AcDbEntity
  8
_0-0_
  6
Continuous
 62
     4
100
AcDbLine
 10
4365.0
 20
480.0
 30
0.0
 11
4325.607689879512
 21
486.9459271066774
 31
0.0
  0
LINE
  5
20E
330
20
100
AcDbEntity
  8
_0-0_
  6
Continuous
 62
     4
100
AcDbLine
 10
4365.0
 20
480.0
 30
0.0
 11
4325.607689879512
 21
473.0540728933226
 31
0.0
  0
LINE
  5
20F
330
20
100
AcDbEntity
  8
_0-0_
  6
Continuous
 62
     4
100
AcDbLine
 10
4365.0
 20
460.0
 30
0.0
 11
4365.0
 21
660.0
 31
0.0
  0
LINE
  5
210
330
20
100
AcDbEntity
  8
_0-0_
  6
Continuous
 62
     4
100
AcDbLine
 10
4115.0
 20
480.0
 30
0.0
 11
4365.0
 21
480.0
 31
0.0
  0
TEXT
  5
211
330
20
100
AcDbEntity
  8
_0-0_
 62
     7
100
AcDbText
 10
4187.5
 20
480.0
 30
0.0
 40
100.0
  1
250
 41
0.5999999999999999
100
AcDbText
  0
LINE
  5
212
330
20
100
AcDbEntity
  8
_0-0_
  6
Continuous
 62
     4
100
AcDbLine
 10
4365.0
 20
480.0
 30
0.0
 11
4404.392310120488
 21
486.9459271066774
 31
0.0
  0
LINE
  5
213
330
20
100
AcDbEntity
  8
_0-0_
  6
Continuous
 62
     4
100
AcDbLine
 10
4365.0
 20
480.0
 30
0.0
 11
4404.392310120488
 21
473.0540728933226
 31
0.0
  0
LINE
  5
214
330
20
100
AcDbEntity
  8
_0-0_
  6
Continuous
 62
     4
100
AcDbLine
 10
4510.0
 20
480.0
 30
0.0
 11
4470.607689879511
 21
486.9459271066774
 31
0.0
  0
LINE
  5
215
330
20
100
AcDbEntity
  8
_0-0_
  6
Continuous
 62
     4
100
AcDbLine
 10
4510.0
 20
480.0
 30
0.0
 11
4470.607689879511
 21
473.0540728933226
 31
0.0
  0
LINE
  5
216
330
20
100
AcDbEntity
  8
_0-0_
  6
Continuous
 62
     4
100
AcDbLine
 10
4510.0
 20
460.0
 30
0.0
 11
4510.0
 21
660.0
 31
0.0
  0
LINE
  5
217
330
20
100
AcDbEntity
  8
_0-0_
  6
Continuous
 62
     4
100
AcDbLine
 10
4365.0
 20
480.0
 30
0.0
 11
4510.0
 21
480.0
 31
0.0
  0
TEXT
  5
218
330
20
100
AcDbEntity
  8
_0-0_
 62
     7
100
AcDbText
 10
4385.0
 20
480.0
 30
0.0
 40
100.0
  1
145
 41
0.5999999999999999
100
AcDbText
  0
LINE
  5
219
330
20
100
AcDbEntity
  8
_0-0_
  6
Continuous
 62
     4
100
AcDbLine
 10
3970.0
 20
360.0
 30
0.0
 11
4009.392310120488
 21
366.9459271066774
 31
0.0
  0
LINE
  5
21A
330
20
100
AcDbEntity
  8
_0-0_
  6
Continuous
 62
     4
100
AcDbLine
 10
3970.0
 20
360.0
 30
0.0
 11
4009.392310120488
 21
353.0540728933226
 31
0.0
  0
LINE
  5
21B
330
20
100
AcDbEntity
  8
_0-0_
  6
Continuous
 62
     4
100
AcDbLine
 10
4510.0
 20
360.0
 30
0.0
 11
4470.607689879511
 21
366.9459271066774
 31
0.0
  0
LINE
  5
21C
330
20
100
AcDbEntity
  8
_0-0_
  6
Continuous
 62
     4
100
AcDbLine
 10
4510.0
 20
360.0
 30
0.0
 11
4470.607689879511
 21
353.0540728933226
 31
0.0
  0
LINE
  5
21D
330
20
100
AcDbEntity
  8
_0-0_
  6
Continuous
 62
     4
100
AcDbLine
 10
3970.0
 20
340.0
 30
0.0
 11
3970.0
 21
480.0
 31
0.0
  0
LINE
  5
21E
330
20
100
AcDbEntity
  8
_0-0_
  6
Continuous
 62
     4
100
AcDbLine
 10
4510.0
 20
340.0
 30
0.0
 11
4510.0
 21
480.0
 31
0.0
  0
LINE
  5
21F
330
20
100
AcDbEntity
  8
_0-0_
  6
Continuous
 62
     4
100
AcDbLine
 10
3970.0
 20
360.0
 30
0.0
 11
4510.0
 21
360.0
 31
0.0
  0
TEXT
  5
220
330
20
100
AcDbEntity
  8
_0-0_
 62
     7
100
AcDbText
 10
4187.5
 20
360.0
 30
0.0
 40
100.0
  1
540
 41
0.5999999999999999
100
AcDbText
  0
LINE
  5
221
330
20
100
AcDbEntity
  8
_0-0_
  6
Continuous
 62
     4
100
AcDbLine
 10
4133.933982849121
 20
943.9339828491212
 30
0.0
 11
4156.877040303163
 21
976.7000646206806
 31
0.0
  0
LINE
  5
222
330
20
100
AcDbEntity
  8
_0-0_
  6
Continuous
 62
     4
100
AcDbLine
 10
4133.933982849121
 20
943.9339828491212
 30
0.0
 11
4166.700064620681
 21
966.8770403031627
 31
0.0
  0
LINE
  5
223
330
20
100
AcDbEntity
  8
_0-0_
  6
Continuous
 62
     4
100
AcDbLine
 10
4346.066017150879
 20
1156.066017150878
 30
0.0
 11
4313.299935379318
 21
1133.122959696836
 31
0.0
  0
LINE
  5
224
330
20
100
AcDbEntity
  8
_0-0_
  6
Continuous
 62
     4
100
AcDbLine
 10
4346.066017150879
 20
1156.066017150878
 30
0.0
 11
4323.122959696837
 21
1123.299935379319
 31
0.0
  0
LINE
  5
225
330
20
100
AcDbEntity
  8
_0-0_
  6
Continuous
 62
     4
100
AcDbLine
 10
3970.0
 20
1900.0
 30
0.0
 11
4009.392310120488
 21
1906.945927106677
 31
0.0
  0
LINE
  5
226
330
20
100
AcDbEntity
  8
_0-0_
  6
Continuous
 62
     4
100
AcDbLine
 10
3970.0
 20
1900.0
 30
0.0
 11
4009.392310120488
 21
1893.054072893322
 31
0.0
  0
LINE
  5
227
330
20
100
AcDbEntity
  8
_0-0_
  6
Continuous
 62
     4
100
AcDbLine
 10
4090.0
 20
1900.0
 30
0.0
 11
4050.607689879512
 21
1906.945927106677
 31
0.0
  0
LINE
  5
228
330
20
100
AcDbEntity
  8
_0-0_
  6
Continuous
 62
     4
100
AcDbLine
 10
4090.0
 20
1900.0
 30
0.0
 11
4050.607689879512
 21
1893.054072893322
 31
0.0
  0
LINE
  5
229
330
20
100
AcDbEntity
  8
_0-0_
  6
Continuous
 62
     4
100
AcDbLine
 10
4090.0
 20
1920.0
 30
0.0
 11
4090.0
 21
1720.0
 31
0.0
  0
LINE
  5
22A
330
20
100
AcDbEntity
  8
_0-0_
  6
Continuous
 62
     4
100
AcDbLine
 10
3970.0
 20
1900.0
 30
0.0
 11
4090.0
 21
1900.0
 31
0.0
  0
TEXT
  5
22B
330
20
100
AcDbEntity
  8
_0-0_
 62
     7
100
AcDbText
 10
3977.5
 20
1900.0
 30
0.0
 40
100.0
  1
120
 41
0.5999999999999999
100
AcDbText
  0
LINE
  5
22C
330
20
100
AcDbEntity
  8
_0-0_
  6
Continuous
 62
     4
100
AcDbLine
 10
4090.0
 20
1900.0
 30
0.0
 11
4129.392310120488
 21
1906.945927106677
 31
0.0
  0
LINE
  5
22D
330
20
100
AcDbEntity
  8
_0-0_
  6
Continuous
 62
     4
100
AcDbLine
 10
4090.0
 20
1900.0
 30
0.0
 11
4129.392310120488
 21
1893.054072893322
 31
0.0
  0
LINE
  5
22E
330
20
100
AcDbEntity
  8
_0-0_
  6
Continuous
 62
     4
100
AcDbLine
 10
4390.0
 20
1900.0
 30
0.0
 11
4350.607689879512
 21
1906.945927106677
 31
0.0
  0
LINE
  5
22F
330
20
100
AcDbEntity
  8
_0-0_
  6
Continuous
 62
     4
100
AcDbLine
 10
4390.0
 20
1900.0
 30
0.0
 11
4350.607689879512
 21
1893.054072893322
 31
0.0
  0
LINE
  5
230
330
20
100
AcDbEntity
  8
_0-0_
  6
Continuous
 62
     4
100
AcDbLine
 10
4390.0
 20
1920.0
 30
0.0
 11
4390.0
 21
1720.0
 31
0.0
  0
LINE
  5
231
330
20
100
AcDbEntity
  8
_0-0_
  6
Continuous
 62
     4
100
AcDbLine
 10
4090.0
 20
1900.0
 30
0.0
 11
4390.0
 21
1900.0
 31
0.0
  0
TEXT
  5
232
330
20
100
AcDbEntity
  8
_0-0_
 62
     7
100
AcDbText
 10
4187.5
 20
1900.0
 30
0.0
 40
100.0
  1
300
 41
0.5999999999999999
100
AcDbText
  0
LINE
  5
233
330
20
100
AcDbEntity
  8
_0-0_
  6
Continuous
 62
     4
100
AcDbLine
 10
4390.0
 20
1900.0
 30
0.0
 11
4429.392310120488
 21
1906.945927106677
 31
0.0
  0
LINE
  5
234
330
20
100
AcDbEntity
  8
_0-0_
  6
Continuous
 62
     4
100
AcDbLine
 10
4390.0
 20
1900.0
 30
0.0
 11
4429.392310120488
 21
1893.054072893322
 31
0.0
  0
LINE
  5
235
330
20
100
AcDbEntity
  8
_0-0_
  6
Continuous
 62
     4
100
AcDbLine
 10
4510.0
 20
1900.0
 30
0.0
 11
4470.607689879511
 21
1906.945927106677
 31
0.0
  0
LINE
  5
236
330
20
100
AcDbEntity
  8
_0-0_
  6
Continuous
 62
     4
100
AcDbLine
 10
4510.0
 20
1900.0
 30
0.0
 11
4470.607689879511
 21
1893.054072893322
 31
0.0
  0
LINE
  5
237
330
20
100
AcDbEntity
  8
_0-0_
  6
Continuous
 62
     4
100
AcDbLine
 10
4510.0
 20
1920.0
 30
0.0
 11
4510.0
 21
1720.0
 31
0.0
  0
LINE
  5
238
330
20
100
AcDbEntity
  8
_0-0_
  6
Continuous
 62
     4
100
AcDbLine
 10
3970.0
 20
1720.0
 30
0.0
 11
3970.0
 21
1510.0
 31
0.0
  0
LINE
  5
239
330
20
100
AcDbEntity
  8
_0-0_
  6
Continuous
 62
     4
100
AcDbLine
 10
4090.0
 20
1720.0
 30
0.0
 11
4090.0
 21
1690.0
 31
0.0
  0
LINE
  5
23A
330
20
100
AcDbEntity
  8
_0-0_
  6
Continuous
 62
     4
100
AcDbLine
 10
4133.933982849121
 20
943.9339828491212
 30
0.0
 11
4346.066017150879
 21
1156.066017150878
 31
0.0
  0
TEXT
  5
23B
330
20
100
AcDbEntity
  8
_0-0_
 62
     7
100
AcDbText
 10
4176.36038969321
 20
986.3603896932108
 30
0.0
 40
100.0
  1
φ300
 50
45.0
 41
0.5999999999999999
100
AcDbText
  0
LINE
  5
23C
330
20
100
AcDbEntity
  8
_0-0_
  6
Continuous
 62
     4
100
AcDbLine
 10
3770.0
 20
915.0
 30
0.0
 11
3763.054072893323
 21
954.3923101204883
 31
0.0
  0
LINE
  5
23D
330
20
100
AcDbEntity
  8
_0-0_
  6
Continuous
 62
     4
100
AcDbLine
 10
3770.0
 20
915.0
 30
0.0
 11
3776.945927106677
 21
954.3923101204883
 31
0.0
  0
LINE
  5
23E
330
20
100
AcDbEntity
  8
_0-0_
  6
Continuous
 62
     4
100
AcDbLine
 10
3770.0
 20
1315.0
 30
0.0
 11
3763.054072893323
 21
1275.607689879511
 31
0.0
  0
LINE
  5
23F
330
20
100
AcDbEntity
  8
_0-0_
  6
Continuous
 62
     4
100
AcDbLine
 10
3770.0
 20
1315.0
 30
0.0
 11
3776.945927106677
 21
1275.607689879511
 31
0.0
  0
LINE
  5
240
330
20
100
AcDbEntity
  8
_0-0_
  6
Continuous
 62
     4
100
AcDbLine
 10
3750.0
 20
915.0
 30
0.0
 11
3950.0
 21
915.0
 31
0.0
  0
LINE
  5
241
330
20
100
AcDbEntity
  8
_0-0_
  6
Continuous
 62
     4
100
AcDbLine
 10
3750.0
 20
1315.0
 30
0.0
 11
3950.0
 21
1315.0
 31
0.0
  0
LINE
  5
242
330
20
100
AcDbEntity
  8
_0-0_
  6
Continuous
 62
     4
100
AcDbLine
 10
3770.0
 20
1490.0
 30
0.0
 11
3763.054072893323
 21
1529.392310120488
 31
0.0
  0
LINE
  5
243
330
20
100
AcDbEntity
  8
_0-0_
  6
Continuous
 62
     4
100
AcDbLine
 10
3770.0
 20
1490.0
 30
0.0
 11
3776.945927106677
 21
1529.392310120488
 31
0.0
  0
LINE
  5
244
330
20
100
AcDbEntity
  8
_0-0_
  6
Continuous
 62
     4
100
AcDbLine
 10
3770.0
 20
1670.0
 30
0.0
 11
3763.054072893323
 21
1630.607689879512
 31
0.0
  0
LINE
  5
245
330
20
100
AcDbEntity
  8
_0-0_
  6
Continuous
 62
     4
100
AcDbLine
 10
3770.0
 20
1670.0
 30
0.0
 11
3776.945927106677
 21
1630.607689879512
 31
0.0
  0
LINE
  5
246
330
20
100
AcDbEntity
  8
_0-0_
  6
Continuous
 62
     4
100
AcDbLine
 10
3750.0
 20
1490.0
 30
0.0
 11
3950.0
 21
1490.0
 31
0.0
  0
LINE
  5
247
330
20
100
AcDbEntity
  8
_0-0_
  6
Continuous
 62
     4
100
AcDbLine
 10
3750.0
 20
1670.0
 30
0.0
 11
3950.0
 21
1670.0
 31
0.0
  0
LINE
  5
248
330
20
100
AcDbEntity
  8
_0-0_
  6
Continuous
 62
     4
100
AcDbLine
 10
3770.0
 20
1490.0
 30
0.0
 11
3770.0
 21
1670.0
 31
0.0
  0
TEXT
  5
249
330
20
100
AcDbEntity
  8
_0-0_
 62
     7
100
AcDbText
 10
3770.0
 20
1527.5
 30
0.0
 40
100.0
  1
180
 50
90.0
 41
0.5999999999999999
100
AcDbText
  0
LINE
  5
24A
330
20
100
AcDbEntity
  8
_0-0_
  6
Continuous
 62
     4
100
AcDbLine
 10
4710.0
 20
915.0
 30
0.0
 11
4703.054072893322
 21
954.3923101204883
 31
0.0
  0
LINE
  5
24B
330
20
100
AcDbEntity
  8
_0-0_
  6
Continuous
 62
     4
100
AcDbLine
 10
4710.0
 20
915.0
 30
0.0
 11
4716.945927106677
 21
954.3923101204883
 31
0.0
  0
LINE
  5
24C
330
20
100
AcDbEntity
  8
_0-0_
  6
Continuous
 62
     4
100
AcDbLine
 10
4710.0
 20
1315.0
 30
0.0
 11
4703.054072893322
 21
1275.607689879511
 31
0.0
  0
LINE
  5
24D
330
20
100
AcDbEntity
  8
_0-0_
  6
Continuous
 62
     4
100
AcDbLine
 10
4710.0
 20
1315.0
 30
0.0
 11
4716.945927106677
 21
1275.607689879511
 31
0.0
  0
LINE
  5
24E
330
20
100
AcDbEntity
  8
_0-0_
  6
Continuous
 62
     4
100
AcDbLine
 10
4730.0
 20
915.0
 30
0.0
 11
4530.0
 21
915.0
 31
0.0
  0
LINE
  5
24F
330
20
100
AcDbEntity
  8
_0-0_
  6
Continuous
 62
     4
100
AcDbLine
 10
4730.0
 20
1315.0
 30
0.0
 11
4530.0
 21
1315.0
 31
0.0
  0
LINE
  5
250
330
20
100
AcDbEntity
  8
_0-0_
  6
CENTER1
 62
     4
100
AcDbLine
 10
3890.0
 20
1115.0
 30
0.0
 11
4130.0
 21
1115.0
 31
0.0
  0
LINE
  5
251
330
20
100
AcDbEntity
  8
_0-0_
  6
CENTER1
 62
     4
100
AcDbLine
 10
4350.0
 20
1115.0
 30
0.0
 11
4590.0
 21
1115.0
 31
0.0
  0
LINE
  5
252
330
20
100
AcDbEntity
  8
_0-0_
  6
CENTER1
 62
     4
100
AcDbLine
 10
4240.0
 20
1292.0
 30
0.0
 11
4240.0
 21
1175.695301376364
 31
0.0
  0
LINE
  5
253
330
20
100
AcDbEntity
  8
_0-0_
  6
CENTER1
 62
     4
100
AcDbLine
 10
3998.0
 20
1050.0
 30
0.0
 11
4138.616698915701
 21
1050.0
 31
0.0
  0
LINE
  5
254
330
20
100
AcDbEntity
  8
_0-0_
  6
CENTER1
 62
     4
100
AcDbLine
 10
4240.0
 20
808.0000000000001
 30
0.0
 11
4240.0
 21
1050.0
 31
0.0
  0
LINE
  5
255
330
20
100
AcDbEntity
  8
_0-0_
  6
CENTER1
 62
     4
100
AcDbLine
 10
4240.0
 20
1050.0
 30
0.0
 11
4482.0
 21
1050.0
 31
0.0
  0
LINE
  5
256
330
20
100
AcDbEntity
  8
_0-0_
  6
Continuous
 62
     4
100
AcDbLine
 10
3950.0
 20
1315.0
 30
0.0
 11
4010.0
 21
1315.0
 31
0.0
  0
LINE
  5
257
330
20
100
AcDbEntity
  8
_0-0_
  6
Continuous
 62
     4
100
AcDbLine
 10
4470.0
 20
1315.0
 30
0.0
 11
4530.0
 21
1315.0
 31
0.0
  0
LINE
  5
258
330
20
100
AcDbEntity
  8
_0-0_
  6
Continuous
 62
     4
100
AcDbLine
 10
3950.0
 20
915.0
 30
0.0
 11
4010.0
 21
915.0
 31
0.0
  0
LINE
  5
259
330
20
100
AcDbEntity
  8
_0-0_
  6
Continuous
 62
     4
100
AcDbLine
 10
4470.0
 20
915.0
 30
0.0
 11
4530.0
 21
915.0
 31
0.0
  0
LINE
  5
25A
330
20
100
AcDbEntity
  8
_0-0_
  6
Continuous
 62
     4
100
AcDbLine
 10
3770.0
 20
915.0
 30
0.0
 11
3770.0
 21
1315.0
 31
0.0
  0
TEXT
  5
25B
330
20
100
AcDbEntity
  8
_0-0_
 62
     7
100
AcDbText
 10
3770.0
 20
1025.0
 30
0.0
 40
100.0
  1
φ400
 50
90.0
 41
0.5999999999999999
100
AcDbText
  0
LINE
  5
25C
330
20
100
AcDbEntity
  8
_0-0_
  6
Continuous
 62
     4
100
AcDbLine
 10
4710.0
 20
915.0
 30
0.0
 11
4710.0
 21
1315.0
 31
0.0
  0
TEXT
  5
25D
330
20
100
AcDbEntity
  8
_0-0_
 62
     7
100
AcDbText
 10
4710.0
 20
1025.0
 30
0.0
 40
100.0
  1
φ400
 50
90.0
 41
0.5999999999999999
100
AcDbText
  0
LINE
  5
25E
330
20
100
AcDbEntity
  8
_0-0_
  6
Continuous
 62
     4
100
AcDbLine
 10
4830.0
 20
680.0
 30
0.0
 11
4823.054072893322
 21
719.392310120488
 31
0.0
  0
LINE
  5
25F
330
20
100
AcDbEntity
  8
_0-0_
  6
Continuous
 62
     4
100
AcDbLine
 10
4830.0
 20
680.0
 30
0.0
 11
4836.945927106677
 21
719.392310120488
 31
0.0
  0
LINE
  5
260
330
20
100
AcDbEntity
  8
_0-0_
  6
Continuous
 62
     4
100
AcDbLine
 10
4830.0
 20
1700.0
 30
0.0
 11
4823.054072893322
 21
1660.607689879511
 31
0.0
  0
LINE
  5
261
330
20
100
AcDbEntity
  8
_0-0_
  6
Continuous
 62
     4
100
AcDbLine
 10
4830.0
 20
1700.0
 30
0.0
 11
4836.945927106677
 21
1660.607689879511
 31
0.0
  0
LINE
  5
262
330
20
100
AcDbEntity
  8
_0-0_
  6
Continuous
 62
     4
100
AcDbLine
 10
4850.0
 20
680.0
 30
0.0
 11
4710.0
 21
680.0
 31
0.0
  0
LINE
  5
263
330
20
100
AcDbEntity
  8
_0-0_
  6
Continuous
 62
     4
100
AcDbLine
 10
4850.0
 20
1700.0
 30
0.0
 11
4710.0
 21
1700.0
 31
0.0
  0
LINE
  5
264
330
20
100
AcDbEntity
  8
_0-0_
  6
Continuous
 62
     4
100
AcDbLine
 10
4830.0
 20
680.0
 30
0.0
 11
4830.0
 21
1700.0
 31
0.0
  0
TEXT
  5
265
330
20
100
AcDbEntity
  8
_0-0_
 62
     7
100
AcDbText
 10
4830.0
 20
1118.75
 30
0.0
 40
100.0
  1
1020
 50
90.0
 41
0.5999999999999999
100
AcDbText
  0
LINE
  5
266
330
20
100
AcDbEntity
  8
_0-0_
  6
Continuous
 62
     4
100
AcDbLine
 10
4530.0
 20
1700.0
 30
0.0
 11
4710.0
 21
1700.0
 31
0.0
  0
LINE
  5
267
330
20
100
AcDbEntity
  8
_0-0_
  6
Continuous
 62
     4
100
AcDbLine
 10
4530.0
 20
680.0
 30
0.0
 11
4710.0
 21
680.0
 31
0.0
  0
LINE
  5
268
330
20
100
AcDbEntity
  8
_0-0_
  6
Continuous
 62
     4
100
AcDbLine
 10
3650.0
 20
680.0
 30
0.0
 11
3643.054072893323
 21
719.392310120488
 31
0.0
  0
LINE
  5
269
330
20
100
AcDbEntity
  8
_0-0_
  6
Continuous
 62
     4
100
AcDbLine
 10
3650.0
 20
680.0
 30
0.0
 11
3656.945927106677
 21
719.392310120488
 31
0.0
  0
LINE
  5
26A
330
20
100
AcDbEntity
  8
_0-0_
  6
Continuous
 62
     4
100
AcDbLine
 10
3650.0
 20
800.0
 30
0.0
 11
3643.054072893323
 21
760.6076898795115
 31
0.0
  0
LINE
  5
26B
330
20
100
AcDbEntity
  8
_0-0_
  6
Continuous
 62
     4
100
AcDbLine
 10
3650.0
 20
800.0
 30
0.0
 11
3656.945927106677
 21
760.6076898795115
 31
0.0
  0
LINE
  5
26C
330
20
100
AcDbEntity
  8
_0-0_
  6
Continuous
 62
     4
100
AcDbLine
 10
3630.0
 20
680.0
 30
0.0
 11
3770.0
 21
680.0
 31
0.0
  0
LINE
  5
26D
330
20
100
AcDbEntity
  8
_0-0_
  6
Continuous
 62
     4
100
AcDbLine
 10
3630.0
 20
800.0
 30
0.0
 11
3770.0
 21
800.0
 31
0.0
  0
LINE
  5
26E
330
20
100
AcDbEntity
  8
_0-0_
  6
Continuous
 62
     4
100
AcDbLine
 10
3650.0
 20
680.0
 30
0.0
 11
3650.0
 21
800.0
 31
0.0
  0
TEXT
  5
26F
330
20
100
AcDbEntity
  8
_0-0_
 62
     7
100
AcDbText
 10
3650.0
 20
687.5
 30
0.0
 40
100.0
  1
120
 50
90.0
 41
0.5999999999999999
100
AcDbText
  0
LINE
  5
270
330
20
100
AcDbEntity
  8
_0-0_
  6
Continuous
 62
     4
100
AcDbLine
 10
3650.0
 20
800.0
 30
0.0
 11
3643.054072893323
 21
839.3923101204885
 31
0.0
  0
LINE
  5
271
330
20
100
AcDbEntity
  8
_0-0_
  6
Continuous
 62
     4
100
AcDbLine
 10
3650.0
 20
800.0
 30
0.0
 11
3656.945927106677
 21
839.3923101204885
 31
0.0
  0
LINE
  5
272
330
20
100
AcDbEntity
  8
_0-0_
  6
Continuous
 62
     4
100
AcDbLine
 10
3650.0
 20
1670.0
 30
0.0
 11
3643.054072893323
 21
1630.607689879512
 31
0.0
  0
LINE
  5
273
330
20
100
AcDbEntity
  8
_0-0_
  6
Continuous
 62
     4
100
AcDbLine
 10
3650.0
 20
1670.0
 30
0.0
 11
3656.945927106677
 21
1630.607689879512
 31
0.0
  0
LINE
  5
274
330
20
100
AcDbEntity
  8
_0-0_
  6
Continuous
 62
     4
100
AcDbLine
 10
3630.0
 20
1670.0
 30
0.0
 11
3770.0
 21
1670.0
 31
0.0
  0
LINE
  5
275
330
20
100
AcDbEntity
  8
_0-0_
  6
Continuous
 62
     4
100
AcDbLine
 10
3650.0
 20
800.0
 30
0.0
 11
3650.0
 21
1670.0
 31
0.0
  0
TEXT
  5
276
330
20
100
AcDbEntity
  8
_0-0_
 62
     7
100
AcDbText
 10
3650.0
 20
1182.5
 30
0.0
 40
100.0
  1
870
 50
90.0
 41
0.5999999999999999
100
AcDbText
  0
LINE
  5
277
330
20
100
AcDbEntity
  8
_0-0_
  6
Continuous
 62
     4
100
AcDbLine
 10
3530.0
 20
680.0
 30
0.0
 11
3523.054072893323
 21
719.392310120488
 31
0.0
  0
LINE
  5
278
330
20
100
AcDbEntity
  8
_0-0_
  6
Continuous
 62
     4
100
AcDbLine
 10
3530.0
 20
680.0
 30
0.0
 11
3536.945927106677
 21
719.392310120488
 31
0.0
  0
LINE
  5
279
330
20
100
AcDbEntity
  8
_0-0_
  6
Continuous
 62
     4
100
AcDbLine
 10
3530.0
 20
1670.0
 30
0.0
 11
3523.054072893323
 21
1630.607689879512
 31
0.0
  0
LINE
  5
27A
330
20
100
AcDbEntity
  8
_0-0_
  6
Continuous
 62
     4
100
AcDbLine
 10
3530.0
 20
1670.0
 30
0.0
 11
3536.945927106677
 21
1630.607689879512
 31
0.0
  0
LINE
  5
27B
330
20
100
AcDbEntity
  8
_0-0_
  6
Continuous
 62
     4
100
AcDbLine
 10
3510.0
 20
680.0
 30
0.0
 11
3650.0
 21
680.0
 31
0.0
  0
LINE
  5
27C
330
20
100
AcDbEntity
  8
_0-0_
  6
Continuous
 62
     4
100
AcDbLine
 10
3510.0
 20
1670.0
 30
0.0
 11
3650.0
 21
1670.0
 31
0.0
  0
LINE
  5
27D
330
20
100
AcDbEntity
  8
_0-0_
  6
Continuous
 62
     4
100
AcDbLine
 10
3530.0
 20
680.0
 30
0.0
 11
3530.0
 21
1670.0
 31
0.0
  0
TEXT
  5
27E
330
20
100
AcDbEntity
  8
_0-0_
 62
     7
100
AcDbText
 10
3530.0
 20
1122.5
 30
0.0
 40
100.0
  1
990
 50
90.0
 41
0.5999999999999999
100
AcDbText
  0
LINE
  5
27F
330
20
100
AcDbEntity
  8
_0-0_
  6
Continuous
 62
     4
100
AcDbLine
 10
3950.0
 20
1670.0
 30
0.0
 11
4000.03079293589
 21
1670.0
 31
0.0
  0
LINE
  5
280
330
20
100
AcDbEntity
  8
_0-0_
  6
Continuous
 62
     4
100
AcDbLine
 10
3770.0
 20
800.0
 30
0.0
 11
3950.0
 21
800.0
 31
0.0
  0
LINE
  5
281
330
20
100
AcDbEntity
  8
_0-0_
  6
Continuous
 62
     4
100
AcDbLine
 10
3770.0
 20
680.0
 30
0.0
 11
3950.0
 21
680.0
 31
0.0
  0
LINE
  5
282
330
20
100
AcDbEntity
  8
_0-0_
  6
Continuous
 62
     4
100
AcDbLine
 10
1460.0
 20
750.0
 30
0.0
 11
1360.0
 21
750.0
 31
0.0
  0
LINE
  5
283
330
20
100
AcDbEntity
  8
_0-0_
  6
Continuous
 62
     4
100
AcDbLine
 10
1540.0
 20
750.0
 30
0.0
 11
1640.0
 21
750.0
 31
0.0
  0
LINE
  5
284
330
20
100
AcDbEntity
  8
_0-0_
  6
Continuous
 62
     4
100
AcDbLine
 10
1460.0
 20
750.0
 30
0.0
 11
1420.607689879512
 21
743.0540728933224
 31
0.0
  0
LINE
  5
285
330
20
100
AcDbEntity
  8
_0-0_
  6
Continuous
 62
     4
100
AcDbLine
 10
1460.0
 20
750.0
 30
0.0
 11
1420.607689879512
 21
756.9459271066772
 31
0.0
  0
LINE
  5
286
330
20
100
AcDbEntity
  8
_0-0_
  6
Continuous
 62
     4
100
AcDbLine
 10
1540.0
 20
750.0
 30
0.0
 11
1579.392310120488
 21
743.0540728933224
 31
0.0
  0
LINE
  5
287
330
20
100
AcDbEntity
  8
_0-0_
  6
Continuous
 62
     4
100
AcDbLine
 10
1540.0
 20
750.0
 30
0.0
 11
1579.392310120488
 21
756.9459271066772
 31
0.0
  0
LINE
  5
288
330
20
100
AcDbEntity
  8
_0-0_
  6
Continuous
 62
     4
100
AcDbLine
 10
1460.0
 20
730.0
 30
0.0
 11
1460.0
 21
880.0
 31
0.0
  0
LINE
  5
289
330
20
100
AcDbEntity
  8
_0-0_
  6
Continuous
 62
     4
100
AcDbLine
 10
1540.0
 20
730.0
 30
0.0
 11
1540.0
 21
880.0
 31
0.0
  0
LINE
  5
28A
330
20
100
AcDbEntity
  8
_0-0_
  6
Continuous
 62
     4
100
AcDbLine
 10
1460.0
 20
750.0
 30
0.0
 11
1540.0
 21
750.0
 31
0.0
  0
TEXT
  5
28B
330
20
100
AcDbEntity
  8
_0-0_
 62
     7
100
AcDbText
 10
1466.25
 20
750.0
 30
0.0
 40
100.0
  1
80
 41
0.5999999999999999
100
AcDbText
  0
LINE
  5
28C
330
20
100
AcDbEntity
  8
_0-0_
  6
Continuous
 62
     4
100
AcDbLine
 10
2590.0
 20
750.0
 30
0.0
 11
2490.0
 21
750.0
 31
0.0
  0
LINE
  5
28D
330
20
100
AcDbEntity
  8
_0-0_
  6
Continuous
 62
     4
100
AcDbLine
 10
2670.0
 20
750.0
 30
0.0
 11
2770.0
 21
750.0
 31
0.0
  0
LINE
  5
28E
330
20
100
AcDbEntity
  8
_0-0_
  6
Continuous
 62
     4
100
AcDbLine
 10
2590.0
 20
750.0
 30
0.0
 11
2550.607689879512
 21
743.0540728933224
 31
0.0
  0
LINE
  5
28F
330
20
100
AcDbEntity
  8
_0-0_
  6
Continuous
 62
     4
100
AcDbLine
 10
2590.0
 20
750.0
 30
0.0
 11
2550.607689879512
 21
756.9459271066772
 31
0.0
  0
LINE
  5
290
330
20
100
AcDbEntity
  8
_0-0_
  6
Continuous
 62
     4
100
AcDbLine
 10
2670.0
 20
750.0
 30
0.0
 11
2709.392310120488
 21
743.0540728933224
 31
0.0
  0
LINE
  5
291
330
20
100
AcDbEntity
  8
_0-0_
  6
Continuous
 62
     4
100
AcDbLine
 10
2670.0
 20
750.0
 30
0.0
 11
2709.392310120488
 21
756.9459271066772
 31
0.0
  0
LINE
  5
292
330
20
100
AcDbEntity
  8
_0-0_
  6
Continuous
 62
     4
100
AcDbLine
 10
2590.0
 20
730.0
 30
0.0
 11
2590.0
 21
880.0
 31
0.0
  0
LINE
  5
293
330
20
100
AcDbEntity
  8
_0-0_
  6
Continuous
 62
     4
100
AcDbLine
 10
2670.0
 20
730.0
 30
0.0
 11
2670.0
 21
880.0
 31
0.0
  0
LINE
  5
294
330
20
100
AcDbEntity
  8
_0-0_
  6
Continuous
 62
     4
100
AcDbLine
 10
2590.0
 20
750.0
 30
0.0
 11
2670.0
 21
750.0
 31
0.0
  0
TEXT
  5
295
330
20
100
AcDbEntity
  8
_0-0_
 62
     7
100
AcDbText
 10
2596.25
 20
750.0
 30
0.0
 40
100.0
  1
80
 41
0.5999999999999999
100
AcDbText
  0
LINE
  5
296
330
20
100
AcDbEntity
  8
_0-0_
  6
Continuous
 62
     4
100
AcDbLine
 10
3970.0
 20
765.0
 30
0.0
 11
3870.0
 21
765.0
 31
0.0
  0
LINE
  5
297
330
20
100
AcDbEntity
  8
_0-0_
  6
Continuous
 62
     4
100
AcDbLine
 10
4050.0
 20
765.0
 30
0.0
 11
4150.0
 21
765.0
 31
0.0
  0
LINE
  5
298
330
20
100
AcDbEntity
  8
_0-0_
  6
Continuous
 62
     4
100
AcDbLine
 10
3970.0
 20
765.0
 30
0.0
 11
3930.607689879512
 21
758.0540728933224
 31
0.0
  0
LINE
  5
299
330
20
100
AcDbEntity
  8
_0-0_
  6
Continuous
 62
     4
100
AcDbLine
 10
3970.0
 20
765.0
 30
0.0
 11
3930.607689879512
 21
771.9459271066772
 31
0.0
  0
LINE
  5
29A
330
20
100
AcDbEntity
  8
_0-0_
  6
Continuous
 62
     4
100
AcDbLine
 10
4050.0
 20
765.0
 30
0.0
 11
4089.392310120488
 21
758.0540728933224
 31
0.0
  0
LINE
  5
29B
330
20
100
AcDbEntity
  8
_0-0_
  6
Continuous
 62
     4
100
AcDbLine
 10
4050.0
 20
765.0
 30
0.0
 11
4089.392310120488
 21
771.9459271066772
 31
0.0
  0
LINE
  5
29C
330
20
100
AcDbEntity
  8
_0-0_
  6
Continuous
 62
     4
100
AcDbLine
 10
3970.0
 20
745.0
 30
0.0
 11
3970.0
 21
895.0
 31
0.0
  0
LINE
  5
29D
330
20
100
AcDbEntity
  8
_0-0_
  6
Continuous
 62
     4
100
AcDbLine
 10
4050.0
 20
745.0
 30
0.0
 11
4050.0
 21
895.0
 31
0.0
  0
LINE
  5
29E
330
20
100
AcDbEntity
  8
_0-0_
  6
Continuous
 62
     4
100
AcDbLine
 10
3970.0
 20
765.0
 30
0.0
 11
4050.0
 21
765.0
 31
0.0
  0
TEXT
  5
29F
330
20
100
AcDbEntity
  8
_0-0_
 62
     7
100
AcDbText
 10
3976.25
 20
765.0
 30
0.0
 40
100.0
  1
80
 41
0.5999999999999999
100
AcDbText
  0
LINE
  5
2A0
330
20
100
AcDbEntity
  8
_0-0_
  6
Continuous
 62
     4
100
AcDbLine
 10
4430.0
 20
765.0
 30
0.0
 11
4330.0
 21
765.0
 31
0.0
  0
LINE
  5
2A1
330
20
100
AcDbEntity
  8
_0-0_
  6
Continuous
 62
     4
100
AcDbLine
 10
4510.0
 20
765.0
 30
0.0
 11
4610.0
 21
765.0
 31
0.0
  0
LINE
  5
2A2
330
20
100
AcDbEntity
  8
_0-0_
  6
Continuous
 62
     4
100
AcDbLine
 10
4430.0
 20
765.0
 30
0.0
 11
4390.607689879511
 21
758.0540728933224
 31
0.0
  0
LINE
  5
2A3
330
20
100
AcDbEntity
  8
_0-0_
  6
Continuous
 62
     4
100
AcDbLine
 10
4430.0
 20
765.0
 30
0.0
 11
4390.607689879511
 21
771.9459271066772
 31
0.0
  0
LINE
  5
2A4
330
20
100
AcDbEntity
  8
_0-0_
  6
Continuous
 62
     4
100
AcDbLine
 10
4510.0
 20
765.0
 30
0.0
 11
4549.392310120488
 21
758.0540728933224
 31
0.0
  0
LINE
  5
2A5
330
20
100
AcDbEntity
  8
_0-0_
  6
Continuous
 62
     4
100
AcDbLine
 10
4510.0
 20
765.0
 30
0.0
 11
4549.392310120488
 21
771.9459271066772
 31
0.0
  0
LINE
  5
2A6
330
20
100
AcDbEntity
  8
_0-0_
  6
Continuous
 62
     4
100
AcDbLine
 10
4430.0
 20
745.0
 30
0.0
 11
4430.0
 21
895.0
 31
0.0
  0
LINE
  5
2A7
330
20
100
AcDbEntity
  8
_0-0_
  6
Continuous
 62
     4
100
AcDbLine
 10
4510.0
 20
745.0
 30
0.0
 11
4510.0
 21
895.0
 31
0.0
  0
LINE
  5
2A8
330
20
100
AcDbEntity
  8
_0-0_
  6
Continuous
 62
     4
100
AcDbLine
 10
4430.0
 20
765.0
 30
0.0
 11
4510.0
 21
765.0
 31
0.0
  0
TEXT
  5
2A9
330
20
100
AcDbEntity
  8
_0-0_
 62
     7
100
AcDbText
 10
4436.25
 20
765.0
 30
0.0
 40
100.0
  1
80
 41
0.5999999999999999
100
AcDbText
  0
LINE
  5
2AA
330
20
100
AcDbEntity
  8
_0-0_
  6
Continuous
 62
     7
100
AcDbLine
 10
3970.0
 20
1490.0
 30
0.0
 11
3970.0
 21
1327.0
 31
0.0
  0
LINE
  5
2AB
330
20
100
AcDbEntity
  8
_0-0_
  6
Continuous
 62
     4
100
AcDbLine
 10
3970.0
 20
1370.0
 30
0.0
 11
3870.0
 21
1370.0
 31
0.0
  0
LINE
  5
2AC
330
20
100
AcDbEntity
  8
_0-0_
  6
Continuous
 62
     4
100
AcDbLine
 10
4020.0
 20
1370.0
 30
0.0
 11
4120.0
 21
1370.0
 31
0.0
  0
LINE
  5
2AD
330
20
100
AcDbEntity
  8
_0-0_
  6
Continuous
 62
     4
100
AcDbLine
 10
3970.0
 20
1370.0
 30
0.0
 11
3930.607689879512
 21
1363.054072893322
 31
0.0
  0
LINE
  5
2AE
330
20
100
AcDbEntity
  8
_0-0_
  6
Continuous
 62
     4
100
AcDbLine
 10
3970.0
 20
1370.0
 30
0.0
 11
3930.607689879512
 21
1376.945927106677
 31
0.0
  0
LINE
  5
2AF
330
20
100
AcDbEntity
  8
_0-0_
  6
Continuous
 62
     4
100
AcDbLine
 10
3970.0
 20
1350.0
 30
0.0
 11
3970.0
 21
1470.0
 31
0.0
  0
LINE
  5
2B0
330
20
100
AcDbEntity
  8
_0-0_
  6
Continuous
 62
     4
100
AcDbLine
 10
4020.0
 20
1350.0
 30
0.0
 11
4020.0
 21
1470.0
 31
0.0
  0
LINE
  5
2B1
330
20
100
AcDbEntity
  8
_0-0_
  6
Continuous
 62
     4
100
AcDbLine
 10
3970.0
 20
1370.0
 30
0.0
 11
4020.0
 21
1370.0
 31
0.0
  0
TEXT
  5
2B2
330
20
100
AcDbEntity
  8
_0-0_
 62
     7
100
AcDbText
 10
3870.0
 20
1370.0
 30
0.0
 40
100.0
  1
50
 41
0.5999999999999999
100
AcDbText
  0
LINE
  5
2B3
330
20
100
AcDbEntity
  8
_0-0_
  6
Continuous
 62
     4
100
AcDbLine
 10
4020.0
 20
1370.0
 30
0.0
 11
3920.0
 21
1370.0
 31
0.0
  0
LINE
  5
2B4
330
20
100
AcDbEntity
  8
_0-0_
  6
Continuous
 62
     4
100
AcDbLine
 10
4030.0
 20
1370.0
 30
0.0
 11
4130.0
 21
1370.0
 31
0.0
  0
LINE
  5
2B5
330
20
100
AcDbEntity
  8
_0-0_
  6
Continuous
 62
     4
100
AcDbLine
 10
4030.0
 20
1370.0
 30
0.0
 11
4069.392310120488
 21
1363.054072893322
 31
0.0
  0
LINE
  5
2B6
330
20
100
AcDbEntity
  8
_0-0_
  6
Continuous
 62
     4
100
AcDbLine
 10
4030.0
 20
1370.0
 30
0.0
 11
4069.392310120488
 21
1376.945927106677
 31
0.0
  0
LINE
  5
2B7
330
20
100
AcDbEntity
  8
_0-0_
  6
Continuous
 62
     4
100
AcDbLine
 10
4020.0
 20
1350.0
 30
0.0
 11
4020.0
 21
1470.0
 31
0.0
  0
LINE
  5
2B8
330
20
100
AcDbEntity
  8
_0-0_
  6
Continuous
 62
     4
100
AcDbLine
 10
4030.0
 20
1350.0
 30
0.0
 11
4030.0
 21
1470.0
 31
0.0
  0
LINE
  5
2B9
330
20
100
AcDbEntity
  8
_0-0_
  6
Continuous
 62
     4
100
AcDbLine
 10
4020.0
 20
1370.0
 30
0.0
 11
4030.0
 21
1370.0
 31
0.0
  0
TEXT
  5
2BA
330
20
100
AcDbEntity
  8
_0-0_
 62
     7
100
AcDbText
 10
4062.5
 20
1370.0
 30
0.0
 40
100.0
  1
10
 41
0.5999999999999999
100
AcDbText
  0
LINE
  5
2BB
330
20
100
AcDbEntity
  8
_0-0_
  6
Continuous
 62
     4
100
AcDbLine
 10
4020.0
 20
1470.0
 30
0.0
 11
4020.0
 21
1563.966143642158
 31
0.0
  0
POINT
  5
2BC
330
20
100
AcDbEntity
  8
_0-0_
 62
     4
100
AcDbPoint
 10
4020.0
 20
1370.0
 30
0.0
  0
LINE
  5
2BD
330
20
100
AcDbEntity
  8
_0-0_
  6
DASHED1
 62
     7
100
AcDbLine
 10
4386.064626679582
 20
1507.5
 30
0.0
 11
4415.854620566957
 21
1507.5
 31
0.0
  0
LINE
  5
2BE
330
20
100
AcDbEntity
  8
_0-0_
  6
DASHED1
 62
     7
100
AcDbLine
 10
4385.618026820649
 20
1492.5
 30
0.0
 11
4415.854620566957
 21
1492.5
 31
0.0
  0
LINE
  5
2BF
330
20
100
AcDbEntity
  8
_0-0_
  6
DASHED1
 62
     7
100
AcDbLine
 10
4415.854620566957
 20
1512.5
 30
0.0
 11
4415.854620566957
 21
1487.5
 31
0.0
  0
LINE
  5
2C0
330
20
100
AcDbEntity
  8
_0-0_
  6
CENTER1
 62
     4
100
AcDbLine
 10
4325.814739116435
 20
1500.0
 30
0.0
 11
4475.854620566957
 21
1500.0
 31
0.0
  0
TEXT
  5
2C1
330
20
100
AcDbEntity
  8
_0-0_
 62
     7
100
AcDbText
 10
4627.464601223884
 20
1910.0
 30
0.0
 40
100.0
  1
インサート(W3/8)
 41
0.5999999999999999
100
AcDbText
  0
LINE
  5
2C2
330
20
100
AcDbEntity
  8
_0-0_
  6
Continuous
 62
     4
100
AcDbLine
 10
4400.854620566957
 20
1507.5
 30
0.0
 11
4627.464601223884
 21
1900.0
 31
0.0
  0
LINE
  5
2C3
330
20
100
AcDbEntity
  8
_0-0_
  6
Continuous
 62
     4
100
AcDbLine
 10
4627.464601223884
 20
1900.0
 30
0.0
 11
5263.272785528053
 21
1900.0
 31
0.0
  0
LINE
  5
2C4
330
20
100
AcDbEntity
  8
_0-0_
  6
Continuous
 62
     4
100
AcDbLine
 10
4400.854620566957
 20
1507.5
 30
0.0
 11
4414.535426299984
 21
1545.087704831436
 31
0.0
  0
LINE
  5
2C5
330
20
100
AcDbEntity
  8
_0-0_
  6
Continuous
 62
     4
100
AcDbLine
 10
4400.854620566957
 20
1507.5
 30
0.0
 11
4426.566124954417
 21
1538.141777724759
 31
0.0
  0
TEXT
  5
2C6
330
20
100
AcDbEntity
  8
_0-0_
 62
     7
100
AcDbText
 10
3111.808798800486
 20
3300.0
 30
0.0
 40
100.0
  1
グレーチング蓋(T-20)
 41
0.5999999999999999
100
AcDbText
  0
LINE
  5
2C7
330
20
100
AcDbEntity
  8
_0-0_
  6
Continuous
 62
     4
100
AcDbLine
 10
3111.808798800486
 20
3290.0
 30
0.0
 11
3903.682956222508
 21
3290.0
 31
0.0
  0
LINE
  5
2C8
330
20
100
AcDbEntity
  8
_0-0_
  6
Continuous
 62
     4
100
AcDbLine
 10
2470.950000000001
 20
2920.0
 30
0.0
 11
2501.591777724759
 21
2945.711504387461
 31
0.0
  0
LINE
  5
2C9
330
20
100
AcDbEntity
  8
_0-0_
  6
Continuous
 62
     4
100
AcDbLine
 10
2470.950000000001
 20
2920.0
 30
0.0
 11
2508.537704831437
 21
2933.680805733027
 31
0.0
  0
TEXT
  5
2CA
330
20
100
AcDbEntity
  8
_0-0_
 62
     7
100
AcDbText
 10
890.0
 20
3350.0
 30
0.0
 40
100.0
  1
平　面　図
 41
0.5999999999999999
100
AcDbText
  0
TEXT
  5
2CB
330
20
100
AcDbEntity
  8
_0-0_
 62
     7
100
AcDbText
 10
890.0
 20
2010.0
 30
0.0
 40
100.0
  1
側　面　図
 41
0.5999999999999999
100
AcDbText
  0
TEXT
  5
2CC
330
20
100
AcDbEntity
  8
_0-0_
 62
     7
100
AcDbText
 10
3400.0
 20
2010.0
 30
0.0
 40
100.0
  1
断　面　図
 41
0.5999999999999999
100
AcDbText
  0
CIRCLE
  5
2CD
330
20
100
AcDbEntity
  8
_0-0_
  6
DASHED1
 62
     7
100
AcDbCircle
 10
2400.0
 20
1500.0
 30
0.0
 40
12.5
  0
CIRCLE
  5
2CE
330
20
100
AcDbEntity
  8
_0-0_
  6
DASHED1
 62
     7
100
AcDbCircle
 10
2400.0
 20
1500.0
 30
0.0
 40
7.5
  0
LINE
  5
2CF
330
20
100
AcDbEntity
  8
_0-0_
  6
CENTER1
 62
     4
100
AcDbLine
 10
2340.0
 20
1500.0
 30
0.0
 11
2460.0
 21
1500.0
 31
0.0
  0
LINE
  5
2D0
330
20
100
AcDbEntity
  8
_0-0_
  6
CENTER1
 62
     4
100
AcDbLine
 10
2400.0
 20
1560.0
 30
0.0
 11
2400.0
 21
1440.0
 31
0.0
  0
LINE
  5
2D1
330
20
100
AcDbEntity
  8
_0-0_
  6
DASHED1
 62
     7
100
AcDbLine
 10
2387.5
 20
3000.0
 30
0.0
 11
2412.5
 21
3000.0
 31
0.0
  0
LINE
  5
2D2
330
20
100
AcDbEntity
  8
_0-0_
  6
DASHED1
 62
     7
100
AcDbLine
 10
2392.5
 20
3000.0
 30
0.0
 11
2392.5
 21
2970.0
 31
0.0
  0
LINE
  5
2D3
330
20
100
AcDbEntity
  8
_0-0_
  6
DASHED1
 62
     7
100
AcDbLine
 10
2407.5
 20
3000.0
 30
0.0
 11
2407.5
 21
2970.0
 31
0.0
  0
LINE
  5
2D4
330
20
100
AcDbEntity
  8
_0-0_
  6
CENTER1
 62
     4
100
AcDbLine
 10
2400.0
 20
3060.0
 30
0.0
 11
2400.0
 21
2910.0
 31
0.0
  0
CIRCLE
  5
2D5
330
20
100
AcDbEntity
  8
_0-0_
  6
Continuous
 62
     7
100
AcDbCircle
 10
1810.0
 20
2820.0
 30
0.0
 40
75.0
  0
CIRCLE
  5
2D6
330
20
100
AcDbEntity
  8
_0-0_
  6
DASHED1
 62
     7
100
AcDbCircle
 10
1810.0
 20
2820.0
 30
0.0
 40
90.0
  0
CIRCLE
  5
2D7
330
20
100
AcDbEntity
  8
_0-0_
  6
DASHED1
 62
     7
100
AcDbCircle
 10
2320.0
 20
2820.0
 30
0.0
 40
90.0
  0
CIRCLE
  5
2D8
330
20
100
AcDbEntity
  8
_0-0_
  6
DASHED1
 62
     7
100
AcDbCircle
 10
2320.0
 20
2820.0
 30
0.0
 40
75.0
  0
LINE
  5
2D9
330
20
100
AcDbEntity
  8
_0-0_
  6
Continuous
 62
     7
100
AcDbLine
 10
1460.0
 20
2550.0
 30
0.0
 11
2670.0
 21
2550.0
 31
0.0
  0
LINE
  5
2DA
330
20
100
AcDbEntity
  8
_0-0_
  6
DASHED1
 62
     7
100
AcDbLine
 10
1735.0
 20
800.0
 30
0.0
 11
1720.0
 21
680.0
 31
0.0
  0
LINE
  5
2DB
330
20
100
AcDbEntity
  8
_0-0_
  6
DASHED1
 62
     7
100
AcDbLine
 10
1885.0
 20
800.0
 30
0.0
 11
1900.0
 21
680.0
 31
0.0
  0
LINE
  5
2DC
330
20
100
AcDbEntity
  8
_0-0_
  6
DASHED1
 62
     7
100
AcDbLine
 10
2245.0
 20
800.0
 30
0.0
 11
2230.0
 21
680.0
 31
0.0
  0
LINE
  5
2DD
330
20
100
AcDbEntity
  8
_0-0_
  6
DASHED1
 62
     7
100
AcDbLine
 10
2395.0
 20
800.0
 30
0.0
 11
2410.0
 21
680.0
 31
0.0
  0
LINE
  5
2DE
330
20
100
AcDbEntity
  8
_0-0_
  6
DASHED1
 62
     7
100
AcDbLine
 10
4165.0
 20
800.0
 30
0.0
 11
4150.0
 21
680.0
 31
0.0
  0
LINE
  5
2DF
330
20
100
AcDbEntity
  8
_0-0_
  6
DASHED1
 62
     7
100
AcDbLine
 10
4315.0
 20
800.0
 30
0.0
 11
4330.0
 21
680.0
 31
0.0
  0
LINE
  5
2E0
330
20
100
AcDbEntity
  8
_0-0_
  6
Continuous
 62
     4
100
AcDbLine
 10
1735.0
 20
580.0
 30
0.0
 11
1774.392310120488
 21
586.9459271066773
 31
0.0
  0
LINE
  5
2E1
330
20
100
AcDbEntity
  8
_0-0_
  6
Continuous
 62
     4
100
AcDbLine
 10
1735.0
 20
580.0
 30
0.0
 11
1774.392310120488
 21
573.0540728933227
 31
0.0
  0
LINE
  5
2E2
330
20
100
AcDbEntity
  8
_0-0_
  6
Continuous
 62
     4
100
AcDbLine
 10
1885.0
 20
580.0
 30
0.0
 11
1845.607689879512
 21
586.9459271066773
 31
0.0
  0
LINE
  5
2E3
330
20
100
AcDbEntity
  8
_0-0_
  6
Continuous
 62
     4
100
AcDbLine
 10
1885.0
 20
580.0
 30
0.0
 11
1845.607689879512
 21
573.0540728933227
 31
0.0
  0
LINE
  5
2E4
330
20
100
AcDbEntity
  8
_0-0_
  6
Continuous
 62
     4
100
AcDbLine
 10
1735.0
 20
560.0
 30
0.0
 11
1735.0
 21
680.0
 31
0.0
  0
LINE
  5
2E5
330
20
100
AcDbEntity
  8
_0-0_
  6
Continuous
 62
     4
100
AcDbLine
 10
1885.0
 20
560.0
 30
0.0
 11
1885.0
 21
680.0
 31
0.0
  0
LINE
  5
2E6
330
20
100
AcDbEntity
  8
_0-0_
  6
Continuous
 62
     4
100
AcDbLine
 10
2245.0
 20
580.0
 30
0.0
 11
2284.392310120488
 21
586.9459271066773
 31
0.0
  0
LINE
  5
2E7
330
20
100
AcDbEntity
  8
_0-0_
  6
Continuous
 62
     4
100
AcDbLine
 10
2245.0
 20
580.0
 30
0.0
 11
2284.392310120488
 21
573.0540728933227
 31
0.0
  0
LINE
  5
2E8
330
20
100
AcDbEntity
  8
_0-0_
  6
Continuous
 62
     4
100
AcDbLine
 10
2395.0
 20
580.0
 30
0.0
 11
2355.607689879512
 21
586.9459271066773
 31
0.0
  0
LINE
  5
2E9
330
20
100
AcDbEntity
  8
_0-0_
  6
Continuous
 62
     4
100
AcDbLine
 10
2395.0
 20
580.0
 30
0.0
 11
2355.607689879512
 21
573.0540728933227
 31
0.0
  0
LINE
  5
2EA
330
20
100
AcDbEntity
  8
_0-0_
  6
Continuous
 62
     4
100
AcDbLine
 10
2245.0
 20
560.0
 30
0.0
 11
2245.0
 21
680.0
 31
0.0
  0
LINE
  5
2EB
330
20
100
AcDbEntity
  8
_0-0_
  6
Continuous
 62
     4
100
AcDbLine
 10
2395.0
 20
560.0
 30
0.0
 11
2395.0
 21
680.0
 31
0.0
  0
LINE
  5
2EC
330
20
100
AcDbEntity
  8
_0-0_
  6
Continuous
 62
     4
100
AcDbLine
 10
4165.0
 20
580.0
 30
0.0
 11
4204.392310120488
 21
586.9459271066773
 31
0.0
  0
LINE
  5
2ED
330
20
100
AcDbEntity
  8
_0-0_
  6
Continuous
 62
     4
100
AcDbLine
 10
4165.0
 20
580.0
 30
0.0
 11
4204.392310120488
 21
573.0540728933227
 31
0.0
  0
LINE
  5
2EE
330
20
100
AcDbEntity
  8
_0-0_
  6
Continuous
 62
     4
100
AcDbLine
 10
4315.0
 20
580.0
 30
0.0
 11
4275.607689879512
 21
586.9459271066773
 31
0.0
  0
LINE
  5
2EF
330
20
100
AcDbEntity
  8
_0-0_
  6
Continuous
 62
     4
100
AcDbLine
 10
4315.0
 20
580.0
 30
0.0
 11
4275.607689879512
 21
573.0540728933227
 31
0.0
  0
LINE
  5
2F0
330
20
100
AcDbEntity
  8
_0-0_
  6
Continuous
 62
     4
100
AcDbLine
 10
4165.0
 20
560.0
 30
0.0
 11
4165.0
 21
680.0
 31
0.0
  0
LINE
  5
2F1
330
20
100
AcDbEntity
  8
_0-0_
  6
Continuous
 62
     4
100
AcDbLine
 10
4315.0
 20
560.0
 30
0.0
 11
4315.0
 21
680.0
 31
0.0
  0
LINE
  5
2F2
330
20
100
AcDbEntity
  8
_0-0_
  6
Continuous
 62
     4
100
AcDbLine
 10
1735.0
 20
580.0
 30
0.0
 11
1885.0
 21
580.0
 31
0.0
  0
LINE
  5
2F4
330
20
100
AcDbEntity
  8
_0-0_
  6
Continuous
 62
     4
100
AcDbLine
 10
2245.0
 20
580.0
 30
0.0
 11
2395.0
 21
580.0
 31
0.0
  0
LINE
  5
2F6
330
20
100
AcDbEntity
  8
_0-0_
  6
Continuous
 62
     4
100
AcDbLine
 10
4165.0
 20
580.0
 30
0.0
 11
4315.0
 21
580.0
 31
0.0
  0
TEXT
  5
2F8
330
20
100
AcDbEntity
  8
_0-0_
 62
     7
100
AcDbText
 10
4145.444072152624
 20
580.0
 30
0.0
 40
100.0
  1
φ150
 41
0.5999999999999999
100
AcDbText
  0
TEXT
  5
2FA
330
20
100
AcDbEntity
  8
_0-0_
 62
     7
100
AcDbText
 10
2213.784767697335
 20
580.0
 30
0.0
 40
100.0
  1
φ150
 41
0.5999999999999999
100
AcDbText
  0
LINE
  5
2FB
330
20
100
AcDbEntity
  8
_0-0_
  6
CENTER1
 62
     4
100
AcDbLine
 10
4240.0
 20
808.0000000000001
 30
0.0
 11
4240.0
 21
660.0
 31
0.0
  0
LINE
  5
2FC
330
20
100
AcDbEntity
  8
_0-0_
  6
Continuous
 62
     4
100
AcDbLine
 10
1460.0
 20
2350.0
 30
0.0
 11
1499.392310120488
 21
2356.945927106677
 31
0.0
  0
LINE
  5
2FD
330
20
100
AcDbEntity
  8
_0-0_
  6
Continuous
 62
     4
100
AcDbLine
 10
1460.0
 20
2350.0
 30
0.0
 11
1499.392310120488
 21
2343.054072893323
 31
0.0
  0
LINE
  5
2FE
330
20
100
AcDbEntity
  8
_0-0_
  6
Continuous
 62
     4
100
AcDbLine
 10
1810.0
 20
2350.0
 30
0.0
 11
1770.607689879511
 21
2356.945927106677
 31
0.0
  0
LINE
  5
2FF
330
20
100
AcDbEntity
  8
_0-0_
  6
Continuous
 62
     4
100
AcDbLine
 10
1810.0
 20
2350.0
 30
0.0
 11
1770.607689879511
 21
2343.054072893323
 31
0.0
  0
LINE
  5
300
330
20
100
AcDbEntity
  8
_0-0_
  6
Continuous
 62
     4
100
AcDbLine
 10
1460.0
 20
2330.0
 30
0.0
 11
1460.0
 21
2530.0
 31
0.0
  0
LINE
  5
301
330
20
100
AcDbEntity
  8
_0-0_
  6
Continuous
 62
     4
100
AcDbLine
 10
1460.0
 20
2350.0
 30
0.0
 11
1810.0
 21
2350.0
 31
0.0
  0
TEXT
  5
302
330
20
100
AcDbEntity
  8
_0-0_
 62
     7
100
AcDbText
 10
1582.5
 20
2350.0
 30
0.0
 40
100.0
  1
350
 41
0.5999999999999999
100
AcDbText
  0
LINE
  5
303
330
20
100
AcDbEntity
  8
_0-0_
  6
Continuous
 62
     4
100
AcDbLine
 10
2320.0
 20
2350.0
 30
0.0
 11
2359.392310120488
 21
2356.945927106677
 31
0.0
  0
LINE
  5
304
330
20
100
AcDbEntity
  8
_0-0_
  6
Continuous
 62
     4
100
AcDbLine
 10
2320.0
 20
2350.0
 30
0.0
 11
2359.392310120488
 21
2343.054072893323
 31
0.0
  0
LINE
  5
305
330
20
100
AcDbEntity
  8
_0-0_
  6
Continuous
 62
     4
100
AcDbLine
 10
2670.0
 20
2350.0
 30
0.0
 11
2630.607689879512
 21
2356.945927106677
 31
0.0
  0
LINE
  5
306
330
20
100
AcDbEntity
  8
_0-0_
  6
Continuous
 62
     4
100
AcDbLine
 10
2670.0
 20
2350.0
 30
0.0
 11
2630.607689879512
 21
2343.054072893323
 31
0.0
  0
LINE
  5
307
330
20
100
AcDbEntity
  8
_0-0_
  6
Continuous
 62
     4
100
AcDbLine
 10
2670.0
 20
2330.0
 30
0.0
 11
2670.0
 21
2530.0
 31
0.0
  0
LINE
  5
308
330
20
100
AcDbEntity
  8
_0-0_
  6
Continuous
 62
     4
100
AcDbLine
 10
2320.0
 20
2350.0
 30
0.0
 11
2670.0
 21
2350.0
 31
0.0
  0
TEXT
  5
309
330
20
100
AcDbEntity
  8
_0-0_
 62
     7
100
AcDbText
 10
2442.5
 20
2350.0
 30
0.0
 40
100.0
  1
350
 41
0.5999999999999999
100
AcDbText
  0
LINE
  5
30A
330
20
100
AcDbEntity
  8
_0-0_
  6
Continuous
 62
     4
100
AcDbLine
 10
1735.0
 20
740.0
 30
0.0
 11
1735.0
 21
680.0
 31
0.0
  0
LINE
  5
30B
330
20
100
AcDbEntity
  8
_0-0_
  6
Continuous
 62
     4
100
AcDbLine
 10
1885.0
 20
740.0
 30
0.0
 11
1885.0
 21
680.0
 31
0.0
  0
LINE
  5
30C
330
20
100
AcDbEntity
  8
_0-0_
  6
Continuous
 62
     4
100
AcDbLine
 10
2245.0
 20
740.0
 30
0.0
 11
2245.0
 21
680.0
 31
0.0
  0
LINE
  5
30D
330
20
100
AcDbEntity
  8
_0-0_
  6
Continuous
 62
     4
100
AcDbLine
 10
2395.0
 20
740.0
 30
0.0
 11
2395.0
 21
680.0
 31
0.0
  0
LINE
  5
30E
330
20
100
AcDbEntity
  8
_0-0_
  6
Continuous
 62
     4
100
AcDbLine
 10
4165.0
 20
740.0
 30
0.0
 11
4165.0
 21
680.0
 31
0.0
  0
LINE
  5
30F
330
20
100
AcDbEntity
  8
_0-0_
  6
Continuous
 62
     4
100
AcDbLine
 10
4315.0
 20
740.0
 30
0.0
 11
4315.0
 21
680.0
 31
0.0
  0
LINE
  5
310
330
20
100
AcDbEntity
  8
_0-0_
  6
CENTER1
 62
     4
100
AcDbLine
 10
1620.0
 20
2820.0
 30
0.0
 11
2510.0
 21
2820.0
 31
0.0
  0
LINE
  5
311
330
20
100
AcDbEntity
  8
_0-0_
  6
CENTER1
 62
     4
100
AcDbLine
 10
1810.0
 20
2970.0
 30
0.0
 11
1810.0
 21
2530.0
 31
0.0
  0
LINE
  5
312
330
20
100
AcDbEntity
  8
_0-0_
  6
CENTER1
 62
     4
100
AcDbLine
 10
2320.0
 20
2970.0
 30
0.0
 11
2320.0
 21
2530.0
 31
0.0
  0
LINE
  5
313
330
20
100
AcDbEntity
  8
_0-0_
  6
Continuous
 62
     4
100
AcDbLine
 10
1560.0
 20
3290.0
 30
0.0
 11
1774.779027026624
 21
2886.215429189947
 31
0.0
  0
LINE
  5
314
330
20
100
AcDbEntity
  8
_0-0_
  6
Continuous
 62
     4
100
AcDbLine
 10
1560.0
 20
3290.0
 30
0.0
 11
2256.212233552167
 21
2859.447697671686
 31
0.0
  0
LINE
  5
315
330
20
100
AcDbEntity
  8
_0-0_
  6
Continuous
 62
     4
100
AcDbLine
 10
1774.779027026624
 20
2886.215429189947
 30
0.0
 11
1750.152568013598
 21
2917.735859334215
 31
0.0
  0
LINE
  5
316
330
20
100
AcDbEntity
  8
_0-0_
  6
Continuous
 62
     4
100
AcDbLine
 10
1774.779027026624
 20
2886.215429189947
 30
0.0
 11
1762.418347251627
 21
2924.257689841752
 31
0.0
  0
LINE
  5
317
330
20
100
AcDbEntity
  8
_0-0_
  6
Continuous
 62
     4
100
AcDbLine
 10
2256.212233552167
 20
2859.447697671686
 30
0.0
 11
2219.124879369496
 21
2874.431961408323
 31
0.0
  0
LINE
  5
318
330
20
100
AcDbEntity
  8
_0-0_
  6
Continuous
 62
     4
100
AcDbLine
 10
2256.212233552167
 20
2859.447697671686
 30
0.0
 11
2226.486440533071
 21
2886.212921926041
 31
0.0
  0
TEXT
  5
319
330
20
100
AcDbEntity
  8
_0-0_
 62
     7
100
AcDbText
 10
1560.0
 20
3290.0
 30
0.0
 40
100.0
  1
φ150
 41
0.5999999999999999
100
AcDbText
  0
LINE
  5
31A
330
20
100
AcDbEntity
  8
_0-0_
  6
Continuous
 62
     4
100
AcDbLine
 10
1560.0
 20
3290.0
 30
0.0
 11
1748.280844551415
 21
3290.0
 31
0.0
  0
TEXT
  5
31B
330
20
100
AcDbEntity
  8
_0-0_
 62
     7
100
AcDbText
 10
1722.818017811918
 20
3600.0
 30
0.0
 40
200.0
  1
街渠桝(500A,500B,500C用)(浸透用)
 41
0.5999999999999999
100
AcDbText
  0
TEXT
  5
31C
330
20
100
AcDbEntity
  8
_0-0_
 62
     7
100
AcDbText
 10
3390.0
 20
2940.0
 30
0.0
 40
100.0
  1
当社品名： 特殊桝(街渠Ｂ,Ｃ)底穴φ１５０(浸透用)(名市型)
 41
0.5999999999999999
100
AcDbText
  0
TEXT
  5
31D
330
20
100
AcDbEntity
  8
_0-0_
 62
     7
100
AcDbText
 10
3390.0
 20
2790.0
 30
0.0
 40
100.0
  1
参考質量： ８４４ｋｇ
 41
0.5999999999999999
100
AcDbText
  0
LINE
  5
31E
330
20
100
AcDbEntity
  8
_0-0_
  6
Continuous
 62
     7
100
AcDbLine
 10
1699.068017811917
 20
3570.0
 30
0.0
 11
4240.931982188082
 21
3570.0
 31
0.0
  0
TEXT
  5
31F
330
20
100
AcDbEntity
  8
_0-0_
 62
     7
100
AcDbText
 10
4486.599362813673
 20
3600.0
 30
0.0
 40
100.0
  1
Ｓ＝１／２０，単位 ｍｍ
 41
0.5999999999999999
100
AcDbText
  0
LINE
  5
320
330
20
100
AcDbEntity
  8
_0-0_
  6
Continuous
 62
     7
100
AcDbLine
 10
3400.0
 20
2000.0
 30
0.0
 11
3809.970921989903
 21
2000.0
 31
0.0
  0
LINE
  5
321
330
20
100
AcDbEntity
  8
_0-0_
  6
Continuous
 62
     7
100
AcDbLine
 10
890.0
 20
2000.0
 30
0.0
 11
1300.986016577405
 21
2000.0
 31
0.0
  0
LINE
  5
322
330
20
100
AcDbEntity
  8
_0-0_
  6
Continuous
 62
     7
100
AcDbLine
 10
890.0
 20
3340.0
 30
0.0
 11
1299.209601049276
 21
3340.0
 31
0.0
  0
LINE
  5
323
330
20
100
AcDbEntity
  8
_0-0_
  6
CENTER1
 62
     4
100
AcDbLine
 10
1810.0
 20
2330.0
 30
0.0
 11
1810.0
 21
2530.0
 31
0.0
  0
LINE
  5
324
330
20
100
AcDbEntity
  8
_0-0_
  6
CENTER1
 62
     4
100
AcDbLine
 10
2320.0
 20
2330.0
 30
0.0
 11
2320.0
 21
2530.0
 31
0.0
  0
LINE
  5
325
330
20
100
AcDbEntity
  8
_0-0_
  6
Continuous
 62
     3
100
AcDbLine
 10
2119.151005062349
 20
2970.0
 30
0.0
 11
2562.5
 21
2970.0
 31
0.0
  0
LINE
  5
326
330
20
100
AcDbEntity
  8
_0-0_
  6
DASHED1
 62
     7
100
AcDbLine
 10
2119.151005062349
 20
2970.0
 30
0.0
 11
2550.0
 21
2970.0
 31
0.0
  0
LINE
  5
327
330
20
100
AcDbEntity
  8
_0-0_
  6
Continuous
 62
     4
100
AcDbLine
 10
2470.950000000001
 20
2920.0
 30
0.0
 11
3111.808798800486
 21
3290.0
 31
0.0
  0
LINE
  5
328
330
20
100
AcDbEntity
  8
_0-0_
  6
CENTER1
 62
     4
100
AcDbLine
 10
1810.0
 20
880.0
 30
0.0
 11
1810.0
 21
660.0
 31
0.0
  0
LINE
  5
329
330
20
100
AcDbEntity
  8
_0-0_
  6
CENTER1
 62
     4
100
AcDbLine
 10
2320.0
 20
880.0
 30
0.0
 11
2320.0
 21
660.0
 31
0.0
  0
TEXT
  5
79B
330
20
100
AcDbEntity
  8
_0-0_
 62
     7
100
AcDbText
 10
1703.784767697334
 20
580.0
 30
0.0
 40
100.0
  1
φ150
 41
0.5999999999999999
100
AcDbText
  0
ENDSEC
  0
SECTION
  2
OBJECTS
  0
DICTIONARY
  5
C
330
0
100
AcDbDictionary
281
     1
  3
ACAD_COLOR
350
1B
  3
ACAD_GROUP
350
D
  3
ACAD_LAYOUT
350
19
  3
ACAD_MATERIAL
350
1A
  3
ACAD_MLINESTYLE
350
16
  3
ACAD_PLOTSETTINGS
350
18
  3
ACAD_PLOTSTYLENAME
350
E
  3
ACDBHEADERROUNDTRIPXREC
350
7D1
  3
AcDbVariableDictionary
350
7BD
  0
DICTIONARY
  5
1B
102
{ACAD_REACTORS
330
C
102
}
330
C
100
AcDbDictionary
281
     1
  0
DICTIONARY
  5
D
102
{ACAD_REACTORS
330
C
102
}
330
C
100
AcDbDictionary
281
     1
  0
DICTIONARY
  5
19
102
{ACAD_REACTORS
330
C
102
}
330
C
100
AcDbDictionary
281
     1
  3
Model
350
23
  3
レイアウト1
350
1F
  0
DICTIONARY
  5
1A
102
{ACAD_REACTORS
330
C
102
}
330
C
100
AcDbDictionary
281
     1
  0
DICTIONARY
  5
16
102
{ACAD_REACTORS
330
C
102
}
330
C
100
AcDbDictionary
281
     1
  3
Standard
350
17
  0
DICTIONARY
  5
18
102
{ACAD_REACTORS
330
C
102
}
330
C
100
AcDbDictionary
281
     1
  0
ACDBDICTIONARYWDFLT
  5
E
102
{ACAD_REACTORS
330
C
102
}
330
C
100
AcDbDictionary
281
     1
  3
Normal
350
F
100
AcDbDictionaryWithDefault
340
F
  0
DICTIONARY
  5
7D1
102
{ACAD_REACTORS
330
C
102
}
330
C
100
AcDbDictionary
281
     1
  3
COLORDICT
350
7D3
  3
MATERIALDICT
350
7D2
  0
DICTIONARY
  5
7BD
102
{ACAD_REACTORS
330
C
102
}
330
C
100
AcDbDictionary
281
     1
  3
DIMASSOC
350
7BE
  3
PROJECTNAME
350
7BF
  0
LAYOUT
  5
23
102
{ACAD_XDICTIONARY
360
7D6
102
}
102
{ACAD_REACTORS
330
19
102
}
330
19
100
AcDbPlotSettings
  1

  2
EPSON LP-S5000
  4

  6

 40
0.0
 41
0.0
 42
0.0
 43
0.0
 44
0.0
 45
0.0
 46
0.0
 47
0.0
 48
0.0
 49
0.0
140
0.0
141
0.0
142
1.0
143
1.0
 70
  1712
 72
     0
 73
     0
 74
     0
  7

 75
     0
147
1.0
148
0.0
149
0.0
100
AcDbLayout
  1
Model
 70
     1
 71
     0
 10
0.0
 20
0.0
 11
12.0
 21
9.0
 12
0.0
 22
0.0
 32
0.0
 14
0.0
 24
0.0
 34
0.0
 15
0.0
 25
0.0
 35
0.0
146
0.0
 13
0.0
 23
0.0
 33
0.0
 16
1.0
 26
0.0
 36
0.0
 17
0.0
 27
1.0
 37
0.0
 76
     0
330
20
  0
LAYOUT
  5
1F
102
{ACAD_XDICTIONARY
360
7D4
102
}
102
{ACAD_REACTORS
330
19
102
}
330
19
100
AcDbPlotSettings
  1

  2
EPSON LP-S5000
  4

  6

 40
0.0
 41
0.0
 42
0.0
 43
0.0
 44
0.0
 45
0.0
 46
0.0
 47
0.0
 48
0.0
 49
0.0
140
0.0
141
0.0
142
1.0
143
1.0
 70
   688
 72
     0
 73
     0
 74
     5
  7

 75
    16
147
1.0
148
0.0
149
0.0
100
AcDbLayout
  1
レイアウト1
 70
     1
 71
     1
 10
0.0
 20
0.0
 11
12.0
 21
9.0
 12
0.0
 22
0.0
 32
0.0
 14
1.000000000000000E+20
 24
1.000000000000000E+20
 34
1.000000000000000E+20
 15
-1.000000000000000E+20
 25
-1.000000000000000E+20
 35
-1.000000000000000E+20
146
0.0
 13
0.0
 23
0.0
 33
0.0
 16
1.0
 26
0.0
 36
0.0
 17
0.0
 27
1.0
 37
0.0
 76
     0
330
1C
  0
MLINESTYLE
  5
17
102
{ACAD_REACTORS
330
16
102
}
330
16
100
AcDbMlineStyle
  2
STANDARD
 70
     0
  3

 62
   256
 51
90.0
 52
90.0
 71
     2
 49
0.5
 62
   256
  6
BYLAYER
 49
-0.5
 62
   256
  6
BYLAYER
  0
ACDBPLACEHOLDER
  5
F
102
{ACAD_REACTORS
330
E
102
}
330
E
  0
XRECORD
  5
7D3
102
{ACAD_REACTORS
330
7D1
102
}
330
7D1
100
AcDbXrecord
280
     1
340
1B
  0
XRECORD
  5
7D2
102
{ACAD_REACTORS
330
7D1
102
}
330
7D1
100
AcDbXrecord
280
     1
340
1A
  0
DICTIONARYVAR
  5
7BE
102
{ACAD_REACTORS
330
7BD
102
}
330
7BD
100
DictionaryVariables
280
     0
  1
1
  0
DICTIONARYVAR
  5
7BF
102
{ACAD_REACTORS
330
7BD
102
}
330
7BD
100
DictionaryVariables
280
     0
  1

  0
DICTIONARY
  5
7D6
330
23
100
AcDbDictionary
280
     1
281
     1
  3
ACAD_XREC_ROUNDTRIP
360
7D7
  0
DICTIONARY
  5
7D4
330
1F
100
AcDbDictionary
280
     1
281
     1
  3
ACAD_XREC_ROUNDTRIP
360
7D5
  0
XRECORD
  5
7D7
102
{ACAD_REACTORS
330
7D6
102
}
330
7D6
100
AcDbXrecord
280
     1
102
SHADEPLOT
 70
     0
102
SHADEPLOTRESLEVEL
 70
     2
102
SHADEPLOTCUSTOMDPI
 70
   300
  0
XRECORD
  5
7D5
102
{ACAD_REACTORS
330
7D4
102
}
330
7D4
100
AcDbXrecord
280
     1
102
SHADEPLOT
 70
     0
102
SHADEPLOTRESLEVEL
 70
     2
102
SHADEPLOTCUSTOMDPI
 70
   300
  0
ENDSEC
  0
EOF
