  0
SECTION
  2
HEADER
  9
$ACADVER
  1
AC1015
  9
$ACADMAINTVER
 70
    20
  9
$DWGCODEPAGE
  3
ANSI_932
  9
$INSBASE
 10
0.0
 20
0.0
 30
0.0
  9
$EXTMIN
 10
0.0
 20
0.0
 30
0.0
  9
$EXTMAX
 10
16819.99993279995
 20
11879.99995240002
 30
0.0
  9
$LIMMIN
 10
0.0
 20
0.0
  9
$LIMMAX
 10
420.0
 20
297.0
  9
$ORTHOMODE
 70
     0
  9
$REGENMODE
 70
     1
  9
$FILLMODE
 70
     1
  9
$QTEXTMODE
 70
     0
  9
$MIRRTEXT
 70
     0
  9
$LTSCALE
 40
20.0
  9
$ATTMODE
 70
     1
  9
$TEXTSIZE
 40
2.5
  9
$TRACEWID
 40
1.0
  9
$TEXTSTYLE
  7
STANDARD
  9
$CLAYER
  8
D-STR-HTXT
  9
$CELTYPE
  6
BYLAYER
  9
$CECOLOR
 62
   256
  9
$CELTSCALE
 40
1.0
  9
$DISPSILH
 70
     0
  9
$DIMSCALE
 40
1.0
  9
$DIMASZ
 40
20.0
  9
$DIMEXO
 40
20.0
  9
$DIMDLI
 40
0.0
  9
$DIMRND
 40
0.0
  9
$DIMDLE
 40
0.0
  9
$DIMEXE
 40
20.0
  9
$DIMTP
 40
0.0
  9
$DIMTM
 40
0.0
  9
$DIMTXT
 40
70.0
  9
$DIMCEN
 40
20.0
  9
$DIMTSZ
 40
0.0
  9
$DIMTOL
 70
     0
  9
$DIMLIM
 70
     0
  9
$DIMTIH
 70
     0
  9
$DIMTOH
 70
     0
  9
$DIMSE1
 70
     0
  9
$DIMSE2
 70
     0
  9
$DIMTAD
 70
     1
  9
$DIMZIN
 70
     8
  9
$DIMBLK
  1
OPEN
  9
$DIMASO
 70
     1
  9
$DIMSHO
 70
     1
  9
$DIMPOST
  1

  9
$DIMAPOST
  1

  9
$DIMALT
 70
     0
  9
$DIMALTD
 70
     3
  9
$DIMALTF
 40
0.03937007874016
  9
$DIMLFAC
 40
1.0
  9
$DIMTOFL
 70
     1
  9
$DIMTVP
 40
0.0
  9
$DIMTIX
 70
     1
  9
$DIMSOXD
 70
     0
  9
$DIMSAH
 70
     0
  9
$DIMBLK1
  1

  9
$DIMBLK2
  1

  9
$DIMSTYLE
  2
20
  9
$DIMCLRD
 70
   256
  9
$DIMCLRE
 70
   256
  9
$DIMCLRT
 70
   256
  9
$DIMTFAC
 40
1.0
  9
$DIMGAP
 40
20.0
  9
$DIMJUST
 70
     0
  9
$DIMSD1
 70
     0
  9
$DIMSD2
 70
     0
  9
$DIMTOLJ
 70
     1
  9
$DIMTZIN
 70
     8
  9
$DIMALTZ
 70
     0
  9
$DIMALTTZ
 70
     0
  9
$DIMUPT
 70
     0
  9
$DIMDEC
 70
     0
  9
$DIMTDEC
 70
     0
  9
$DIMALTU
 70
     2
  9
$DIMALTTD
 70
     3
  9
$DIMTXSTY
  7
STANDARD
  9
$DIMAUNIT
 70
     1
  9
$DIMADEC
 70
     4
  9
$DIMALTRND
 40
0.0
  9
$DIMAZIN
 70
     0
  9
$DIMDSEP
 70
    46
  9
$DIMATFIT
 70
     3
  9
$DIMFRAC
 70
     0
  9
$DIMLDRBLK
  1

  9
$DIMLUNIT
 70
     2
  9
$DIMLWD
 70
    -2
  9
$DIMLWE
 70
    -2
  9
$DIMTMOVE
 70
     1
  9
$LUNITS
 70
     2
  9
$LUPREC
 70
     4
  9
$SKETCHINC
 40
1.0
  9
$FILLETRAD
 40
10.0
  9
$AUNITS
 70
     0
  9
$AUPREC
 70
     0
  9
$MENU
  1
.
  9
$ELEVATION
 40
0.0
  9
$PELEVATION
 40
0.0
  9
$THICKNESS
 40
0.0
  9
$LIMCHECK
 70
     0
  9
$CHAMFERA
 40
150.0
  9
$CHAMFERB
 40
150.0
  9
$CHAMFERC
 40
20.0
  9
$CHAMFERD
 40
0.0
  9
$SKPOLY
 70
     0
  9
$TDCREATE
 40
2452404.412662234
  9
$TDUCREATE
 40
2452404.037662234
  9
$TDUPDATE
 40
2454744.609522026
  9
$TDUUPDATE
 40
2454744.234522026
  9
$TDINDWG
 40
1.4779695718
  9
$TDUSRTIMER
 40
1.4779688773
  9
$USRTIMER
 70
     1
  9
$ANGBASE
 50
0.0
  9
$ANGDIR
 70
     0
  9
$PDMODE
 70
     0
  9
$PDSIZE
 40
0.0
  9
$PLINEWID
 40
0.0
  9
$SPLFRAME
 70
     0
  9
$SPLINETYPE
 70
     6
  9
$SPLINESEGS
 70
     8
  9
$HANDSEED
  5
23BD5
  9
$SURFTAB1
 70
     6
  9
$SURFTAB2
 70
     6
  9
$SURFTYPE
 70
     6
  9
$SURFU
 70
     6
  9
$SURFV
 70
     6
  9
$UCSBASE
  2

  9
$UCSNAME
  2

  9
$UCSORG
 10
0.0
 20
0.0
 30
0.0
  9
$UCSXDIR
 10
1.0
 20
0.0
 30
0.0
  9
$UCSYDIR
 10
0.0
 20
1.0
 30
0.0
  9
$UCSORTHOREF
  2

  9
$UCSORTHOVIEW
 70
     0
  9
$UCSORGTOP
 10
0.0
 20
0.0
 30
0.0
  9
$UCSORGBOTTOM
 10
0.0
 20
0.0
 30
0.0
  9
$UCSORGLEFT
 10
0.0
 20
0.0
 30
0.0
  9
$UCSORGRIGHT
 10
0.0
 20
0.0
 30
0.0
  9
$UCSORGFRONT
 10
0.0
 20
0.0
 30
0.0
  9
$UCSORGBACK
 10
0.0
 20
0.0
 30
0.0
  9
$PUCSBASE
  2

  9
$PUCSNAME
  2

  9
$PUCSORG
 10
0.0
 20
0.0
 30
0.0
  9
$PUCSXDIR
 10
1.0
 20
0.0
 30
0.0
  9
$PUCSYDIR
 10
0.0
 20
1.0
 30
0.0
  9
$PUCSORTHOREF
  2

  9
$PUCSORTHOVIEW
 70
     0
  9
$PUCSORGTOP
 10
0.0
 20
0.0
 30
0.0
  9
$PUCSORGBOTTOM
 10
0.0
 20
0.0
 30
0.0
  9
$PUCSORGLEFT
 10
0.0
 20
0.0
 30
0.0
  9
$PUCSORGRIGHT
 10
0.0
 20
0.0
 30
0.0
  9
$PUCSORGFRONT
 10
0.0
 20
0.0
 30
0.0
  9
$PUCSORGBACK
 10
0.0
 20
0.0
 30
0.0
  9
$USERI1
 70
     0
  9
$USERI2
 70
     0
  9
$USERI3
 70
     0
  9
$USERI4
 70
     0
  9
$USERI5
 70
     0
  9
$USERR1
 40
0.0
  9
$USERR2
 40
0.0
  9
$USERR3
 40
0.0
  9
$USERR4
 40
0.0
  9
$USERR5
 40
0.0
  9
$WORLDVIEW
 70
     1
  9
$SHADEDGE
 70
     3
  9
$SHADEDIF
 70
    70
  9
$TILEMODE
 70
     1
  9
$MAXACTVP
 70
    48
  9
$PINSBASE
 10
0.0
 20
0.0
 30
0.0
  9
$PLIMCHECK
 70
     0
  9
$PEXTMIN
 10
-7.18438714725903
 20
-19.73882792270024
 30
-0.0015258207003583
  9
$PEXTMAX
 10
833.8481947040165
 20
574.2966304217307
 30
0.0000000349246037
  9
$PLIMMIN
 10
-7.184387147259029
 20
-19.73882792270024
  9
$PLIMMAX
 10
-7.184387147259029
 20
-19.73882792270024
  9
$UNITMODE
 70
     0
  9
$VISRETAIN
 70
     1
  9
$PLINEGEN
 70
     0
  9
$PSLTSCALE
 70
     1
  9
$TREEDEPTH
 70
  3020
  9
$CMLSTYLE
  2
STANDARD
  9
$CMLJUST
 70
     0
  9
$CMLSCALE
 40
20.0
  9
$PROXYGRAPHICS
 70
     1
  9
$MEASUREMENT
 70
     0
  9
$CELWEIGHT
370
    -1
  9
$ENDCAPS
280
     0
  9
$JOINSTYLE
280
     0
  9
$LWDISPLAY
290
     0
  9
$INSUNITS
 70
     0
  9
$HYPERLINKBASE
  1

  9
$STYLESHEET
  1
canon国土交通省.ctb
  9
$XEDIT
290
     1
  9
$CEPSNTYPE
380
     0
  9
$PSTYLEMODE
290
     1
  9
$FINGERPRINTGUID
  2
{2179596F-6415-11D6-8A52-000255ECC0C6}
  9
$VERSIONGUID
  2
{1F6376B4-9D01-11D6-9C0E-000629A6C5B5}
  9
$EXTNAMES
290
     1
  9
$PSVPSCALE
 40
0.0
  9
$OLESTARTUP
290
     0
  0
ENDSEC
  0
SECTION
  2
CLASSES
  0
CLASS
  1
ACDBDICTIONARYWDFLT
  2
AcDbDictionaryWithDefault
  3
ObjectDBX Classes
 90
        0
280
     0
281
     0
  0
CLASS
  1
ACDBPLACEHOLDER
  2
AcDbPlaceHolder
  3
ObjectDBX Classes
 90
        0
280
     0
281
     0
  0
CLASS
  1
LAYOUT
  2
AcDbLayout
  3
ObjectDBX Classes
 90
        0
280
     0
281
     0
  0
CLASS
  1
DICTIONARYVAR
  2
AcDbDictionaryVar
  3
ObjectDBX Classes
 90
        0
280
     0
281
     0
  0
CLASS
  1
PLOTSETTINGS
  2
AcDbPlotSettings
  3
ObjectDBX Classes
 90
    32768
280
     0
281
     0
  0
CLASS
  1
TABLESTYLE
  2
AcDbTableStyle
  3
ObjectDBX Classes
 90
     2047
280
     0
281
     0
  0
ENDSEC
  0
SECTION
  2
TABLES
  0
TABLE
  2
VPORT
  5
8
330
0
100
AcDbSymbolTable
 70
     2
  0
VPORT
  5
23BCD
330
8
100
AcDbSymbolTableRecord
100
AcDbViewportTableRecord
  2
*Active
 70
     0
 10
0.0
 20
0.0
 11
1.0
 21
1.0
 12
8409.358471404644
 22
6008.425511977432
 13
0.0
 23
0.0
 14
10.0
 24
10.0
 15
10.0
 25
10.0
 16
0.0
 26
0.0
 36
1.0
 17
0.0
 27
0.0
 37
0.0
 40
12138.06958433631
 41
1.786538461538461
 42
50.0
 43
0.0
 44
0.0
 50
0.0
 51
0.0
 71
     0
 72
   100
 73
     1
 74
     3
 75
     0
 76
     0
 77
     0
 78
     0
281
     0
 65
     1
110
0.0
120
0.0
130
0.0
111
1.0
121
0.0
131
0.0
112
0.0
122
1.0
132
0.0
 79
     0
146
0.0
  0
ENDTAB
  0
TABLE
  2
LTYPE
  5
5
330
0
100
AcDbSymbolTable
 70
     3
  0
LTYPE
  5
14
330
5
100
AcDbSymbolTableRecord
100
AcDbLinetypeTableRecord
  2
BYBLOCK
 70
     0
  3

 72
    65
 73
     0
 40
0.0
  0
LTYPE
  5
15
330
5
100
AcDbSymbolTableRecord
100
AcDbLinetypeTableRecord
  2
BYLAYER
 70
     0
  3

 72
    65
 73
     0
 40
0.0
  0
LTYPE
  5
16
330
5
100
AcDbSymbolTableRecord
100
AcDbLinetypeTableRecord
  2
CONTINUOUS
 70
     0
  3
Solid line
 72
    65
 73
     0
 40
0.0
  0
LTYPE
  5
86
330
5
100
AcDbSymbolTableRecord
100
AcDbLinetypeTableRecord
  2
CENTER
 70
     0
  3
____ _ ____ _ ____ _ ____ _ ____ _ ____ _ ____
 72
    65
 73
     4
 40
17.5
 49
13.0
 74
     0
 49
-1.5
 74
     0
 49
1.5
 74
     0
 49
-1.5
 74
     0
  0
LTYPE
  5
1CC8E
330
5
100
AcDbSymbolTableRecord
100
AcDbLinetypeTableRecord
  2
CENTER2
 70
     0
  3
----------  --  ----------  --  
 72
    65
 73
     4
 40
20.0
 49
12.5
 74
     0
 49
-2.5
 74
     0
 49
2.5
 74
     0
 49
-2.5
 74
     0
  0
ENDTAB
  0
TABLE
  2
LAYER
  5
2
330
0
100
AcDbSymbolTable
 70
    15
  0
LAYER
  5
10
330
2
100
AcDbSymbolTableRecord
100
AcDbLayerTableRecord
  2
0
 70
     0
 62
     7
  6
CONTINUOUS
370
    13
390
7E81
  0
LAYER
  5
AC
330
2
100
AcDbSymbolTableRecord
100
AcDbLayerTableRecord
  2
D-STR-DIM
 70
     0
 62
     7
  6
CONTINUOUS
370
    13
390
7E81
  0
LAYER
  5
D6
330
2
100
AcDbSymbolTableRecord
100
AcDbLayerTableRecord
  2
D-TTL-TXT
 70
     0
 62
     7
  6
CONTINUOUS
370
    13
390
7E81
  0
LAYER
  5
3CD
330
2
100
AcDbSymbolTableRecord
100
AcDbLayerTableRecord
  2
DEFPOINTS
 70
     0
 62
     7
  6
CONTINUOUS
290
     0
370
    13
390
7E81
  0
LAYER
  5
3CE
330
2
100
AcDbSymbolTableRecord
100
AcDbLayerTableRecord
  2
D-TTL-LINE
 70
     0
 62
     7
  6
CONTINUOUS
370
    13
390
7E81
  0
LAYER
  5
1408F
330
2
100
AcDbSymbolTableRecord
100
AcDbLayerTableRecord
  2
D-STR
 70
     0
 62
     1
  6
CONTINUOUS
370
    18
390
7E81
  0
LAYER
  5
1620E
330
2
100
AcDbSymbolTableRecord
100
AcDbLayerTableRecord
  2
D-TTL
 70
     0
 62
     2
  6
CONTINUOUS
370
    13
390
7E81
  0
LAYER
  5
1620F
330
2
100
AcDbSymbolTableRecord
100
AcDbLayerTableRecord
  2
D-TTL-FRAM
 70
     0
 62
     2
  6
CONTINUOUS
290
     0
370
    13
390
7E81
  0
LAYER
  5
16212
330
2
100
AcDbSymbolTableRecord
100
AcDbLayerTableRecord
  2
D-BMK
 70
     0
 62
     2
  6
CENTER
370
    13
390
7E81
  0
LAYER
  5
16213
330
2
100
AcDbSymbolTableRecord
100
AcDbLayerTableRecord
  2
D-STR-HTXT
 70
     0
 62
     7
  6
CONTINUOUS
370
    13
390
7E81
  0
LAYER
  5
16216
330
2
100
AcDbSymbolTableRecord
100
AcDbLayerTableRecord
  2
D-MTR-FRAM
 70
     0
 62
     7
  6
CONTINUOUS
370
    13
390
7E81
  0
LAYER
  5
16217
330
2
100
AcDbSymbolTableRecord
100
AcDbLayerTableRecord
  2
D-MTR
 70
     0
 62
     6
  6
CONTINUOUS
370
    13
390
7E81
  0
LAYER
  5
16218
330
2
100
AcDbSymbolTableRecord
100
AcDbLayerTableRecord
  2
D-MTR-TXT
 70
     0
 62
     7
  6
CONTINUOUS
370
    13
390
7E81
  0
LAYER
  5
16219
330
2
100
AcDbSymbolTableRecord
100
AcDbLayerTableRecord
  2
D-MTR-MTXT
 70
     0
 62
     7
  6
CONTINUOUS
370
    13
390
7E81
  0
LAYER
  5
1621C
330
2
100
AcDbSymbolTableRecord
100
AcDbLayerTableRecord
  2
D-STR-STR2
 70
     0
 62
     1
  6
CONTINUOUS
370
    18
390
7E81
  0
ENDTAB
  0
TABLE
  2
STYLE
  5
3
330
0
100
AcDbSymbolTable
 70
     2
  0
STYLE
  5
11
330
3
100
AcDbSymbolTableRecord
100
AcDbTextStyleTableRecord
  2
STANDARD
 70
     0
 40
0.0
 41
1.0
 50
0.0
 71
     0
 42
2.5
  3
simplex.shx
  4
bigfont.shx
  0
STYLE
  5
1F432
330
3
100
AcDbSymbolTableRecord
100
AcDbTextStyleTableRecord
  2
明朝
 70
     0
 40
0.0
 41
1.0
 50
0.0
 71
     0
 42
10.0
  3
MS PMincho.ttf
  4

1001
ACAD
1000
MS PMincho
1071
    32786
  0
ENDTAB
  0
TABLE
  2
VIEW
  5
6
330
0
100
AcDbSymbolTable
 70
     0
  0
ENDTAB
  0
TABLE
  2
UCS
  5
7
330
0
100
AcDbSymbolTable
 70
     0
  0
ENDTAB
  0
TABLE
  2
APPID
  5
9
330
0
100
AcDbSymbolTable
 70
     2
  0
APPID
  5
12
330
9
100
AcDbSymbolTableRecord
100
AcDbRegAppTableRecord
  2
ACAD
 70
     0
  0
APPID
  5
7C1E
330
9
100
AcDbSymbolTableRecord
100
AcDbRegAppTableRecord
  2
CONTENTBLOCKICON
 70
     0
  0
ENDTAB
  0
TABLE
  2
DIMSTYLE
  5
A
330
0
100
AcDbSymbolTable
 70
     3
100
AcDbDimStyleTable
 71
     1
340
1CA9B
  0
DIMSTYLE
105
1CA9B
102
{ACAD_REACTORS
330
23AFC
102
}
330
A
100
AcDbSymbolTableRecord
100
AcDbDimStyleTableRecord
  2
20
 70
     0
 41
20.0
 42
20.0
 43
0.0
 44
20.0
 73
     0
 74
     0
 77
     1
 78
     8
140
70.0
141
20.0
143
0.03937007874016
147
20.0
171
     3
172
     1
174
     1
176
   256
177
   256
178
   256
179
     4
271
     0
272
     0
274
     3
275
     1
279
     1
284
     8
340
11
341
31
342
31
  0
DIMSTYLE
105
1CC90
330
A
100
AcDbSymbolTableRecord
100
AcDbDimStyleTableRecord
  2
Standard
 70
     0
340
11
  0
DIMSTYLE
105
23B20
330
A
100
AcDbSymbolTableRecord
100
AcDbDimStyleTableRecord
  2
30
 70
     0
 41
30.0
 42
30.0
 43
0.0
 44
30.0
 73
     0
 74
     0
 77
     1
 78
     8
140
105.0
141
30.0
143
0.03937007874016
147
30.0
171
     3
172
     1
174
     1
176
   256
177
   256
178
   256
179
     4
271
     0
272
     0
274
     3
275
     1
279
     1
284
     8
340
11
341
31
342
31
  0
ENDTAB
  0
TABLE
  2
BLOCK_RECORD
  5
1
330
0
100
AcDbSymbolTable
 70
     1
  0
BLOCK_RECORD
  5
1F
102
{ACAD_XDICTIONARY
360
7BCB
102
}
330
1
100
AcDbSymbolTableRecord
100
AcDbBlockTableRecord
  2
*MODEL_SPACE
340
7E82
  0
BLOCK_RECORD
  5
1B
102
{ACAD_XDICTIONARY
360
7BCD
102
}
330
1
100
AcDbSymbolTableRecord
100
AcDbBlockTableRecord
  2
*PAPER_SPACE
340
7E83
  0
BLOCK_RECORD
  5
31
330
1
100
AcDbSymbolTableRecord
100
AcDbBlockTableRecord
  2
_OPEN
340
0
310
2800000020000000200000000100080000000000000400000000000000000000000000000000000000000000000080000080000000808000800000008000800080800000C0C0C000C0DCC000F0CAA6000020400000206000002080000020A0000020C0000020E00000400000004020000040400000406000004080000040A0
310
000040C0000040E00000600000006020000060400000606000006080000060A0000060C0000060E00000800000008020000080400000806000008080000080A0000080C0000080E00000A0000000A0200000A0400000A0600000A0800000A0A00000A0C00000A0E00000C0000000C0200000C0400000C0600000C0800000C0
310
A00000C0C00000C0E00000E0000000E0200000E0400000E0600000E0800000E0A00000E0C00000E0E00040000000400020004000400040006000400080004000A0004000C0004000E00040200000402020004020400040206000402080004020A0004020C0004020E000404000004040200040404000404060004040800040
310
40A0004040C0004040E00040600000406020004060400040606000406080004060A0004060C0004060E00040800000408020004080400040806000408080004080A0004080C0004080E00040A0000040A0200040A0400040A0600040A0800040A0A00040A0C00040A0E00040C0000040C0200040C0400040C0600040C08000
310
40C0A00040C0C00040C0E00040E0000040E0200040E0400040E0600040E0800040E0A00040E0C00040E0E00080000000800020008000400080006000800080008000A0008000C0008000E00080200000802020008020400080206000802080008020A0008020C0008020E00080400000804020008040400080406000804080
310
008040A0008040C0008040E00080600000806020008060400080606000806080008060A0008060C0008060E00080800000808020008080400080806000808080008080A0008080C0008080E00080A0000080A0200080A0400080A0600080A0800080A0A00080A0C00080A0E00080C0000080C0200080C0400080C0600080C0
310
800080C0A00080C0C00080C0E00080E0000080E0200080E0400080E0600080E0800080E0A00080E0C00080E0E000C0000000C0002000C0004000C0006000C0008000C000A000C000C000C000E000C0200000C0202000C0204000C0206000C0208000C020A000C020C000C020E000C0400000C0402000C0404000C0406000C0
310
408000C040A000C040C000C040E000C0600000C0602000C0604000C0606000C0608000C060A000C060C000C060E000C0800000C0802000C0804000C0806000C0808000C080A000C080C000C080E000C0A00000C0A02000C0A04000C0A06000C0A08000C0A0A000C0A0C000C0A0E000C0C00000C0C02000C0C04000C0C06000
310
C0C08000C0C0A000F0FBFF00A4A0A000808080000000FF0000FF000000FFFF00FF000000FF00FF00FFFF0000FFFFFF0000000000000000000000000000000000000000000000000000000000000000000000000000000000000000000000000000000000000000000000000000000000000000000000000000000000000000
310
00000000000000000000000000000000000000000000000000000000000000000000000000000000000000000000000000000000000000000000000000000000000000000000000000000000000000000000000000000000000000000000000000000000000000000000000000000000000000000000000000000000000000
310
00000000000000000000000000000000000000000000000000000000000000000000000000000000000000000000000000000000000000000000000000000000000000000000000000000000000000000000000000000000000000000000000000000000000000000000000000000000000000000000000000000000000000
310
0000000000000000000000000000000000000000FFFFFF0000000000000000000000000000000000000000000000000000000000000000FFFFFFFFFFFF0000000000000000000000000000000000000000000000000000000000000000FFFFFFFFFFFF00000000000000000000000000000000000000000000000000000000
310
00000000FFFFFFFFFFFF0000000000000000000000000000000000000000000000000000000000000000FFFFFFFFFFFF0000000000FFFFFFFFFFFFFFFFFFFFFFFFFFFFFFFFFFFFFFFFFFFFFFFFFFFFFFFFFFFF000000000000000000000000000000000000000000FFFFFFFFFFFFFF00000000000000000000000000000000
310
00FFFFFFFFFFFFFFFF0000000000000000000000000000000000FFFFFFFFFFFFFF000000000000000000000000000000000000000000FFFFFFFF000000000000000000000000000000000000000000000000000000000000000000000000000000000000000000000000000000000000000000000000000000000000000000
310
00000000000000000000000000000000000000000000000000000000000000000000000000000000000000000000000000000000000000000000000000000000000000000000000000000000000000000000000000000000000000000000000000000000000000000000000000000000000000000000000000000000000000
310
00000000000000000000000000000000000000000000000000000000000000000000000000000000000000000000000000000000000000000000000000000000000000000000000000000000000000000000000000000000000000000000000000000000000000000000000000000000000000000000000000000000000000
310
0000000000000000000000000000000000000000000000000000000000000000000000000000000000000000000000000000000000000000
  0
ENDTAB
  0
ENDSEC
  0
SECTION
  2
BLOCKS
  0
BLOCK
  5
20
330
1F
100
AcDbEntity
  8
0
100
AcDbBlockBegin
  2
*MODEL_SPACE
 70
     0
 10
0.0
 20
0.0
 30
0.0
  3
*MODEL_SPACE
  1

  0
ENDBLK
  5
21
330
1F
100
AcDbEntity
  8
0
100
AcDbBlockEnd
  0
BLOCK
  5
1C
330
1B
100
AcDbEntity
 67
     1
  8
0
100
AcDbBlockBegin
  2
*PAPER_SPACE
 70
     0
 10
0.0
 20
0.0
 30
0.0
  3
*PAPER_SPACE
  1

  0
ENDBLK
  5
1D
330
1B
100
AcDbEntity
 67
     1
  8
0
100
AcDbBlockEnd
  0
BLOCK
  5
35
330
31
100
AcDbEntity
  8
0
100
AcDbBlockBegin
  2
_OPEN
 70
     0
 10
0.0
 20
0.0
 30
0.0
  3
_OPEN
  1

  0
LINE
  5
32
330
31
100
AcDbEntity
  8
0
  6
ByBlock
 62
     0
100
AcDbLine
 10
-1.0
 20
0.1666666666666666
 30
0.0
 11
0.0
 21
0.0
 31
0.0
  0
LINE
  5
33
330
31
100
AcDbEntity
  8
0
  6
ByBlock
 62
     0
100
AcDbLine
 10
-1.0
 20
-0.1666666666666666
 30
0.0
 11
0.0
 21
0.0
 31
0.0
  0
LINE
  5
34
330
31
100
AcDbEntity
  8
0
  6
ByBlock
 62
     0
100
AcDbLine
 10
0.0
 20
0.0
 30
0.0
 11
-1.0
 21
0.0
 31
0.0
  0
ENDBLK
  5
36
330
31
100
AcDbEntity
  8
0
100
AcDbBlockEnd
  0
ENDSEC
  0
SECTION
  2
ENTITIES
  0
MTEXT
  5
74C
330
1F
100
AcDbEntity
  8
D-TTL-LINE
 62
     2
100
AcDbMText
 10
21100.96900863203
 20
11716.83874632694
 30
0.0
 40
140.0
 41
0.0
 71
     4
 72
     5
  1
 
 73
     1
 44
1.0
1001
ACAD
1000
MTEXTBEGIN
1070
    73
1070
     1
1070
    44
1040
1.0
1070
    74
1070
     0
1000
MTEXTEND
  0
MTEXT
  5
140A2
330
1F
100
AcDbEntity
  8
D-STR
 62
     2
100
AcDbMText
 10
133389.7438006938
 20
208126.6376526392
 30
0.0
 40
140.0
 41
0.0
 71
     4
 72
     1
  1
 
 73
     1
 44
1.0
1001
ACAD
1000
MTEXTBEGIN
1070
    73
1070
     1
1070
    44
1040
1.0
1070
    74
1070
     0
1000
MTEXTEND
  0
MTEXT
  5
170AD
330
1F
100
AcDbEntity
  8
D-STR
 62
     2
100
AcDbMText
 10
221722.4650715356
 20
207229.3774545898
 30
0.0
 40
140.0
 41
0.0
 71
     4
 72
     1
  1
 
 73
     1
 44
1.0
1001
ACAD
1000
MTEXTBEGIN
1070
    73
1070
     1
1070
    44
1040
1.0
1070
    74
1070
     0
1000
MTEXTEND
  0
LWPOLYLINE
  5
1F458
330
1F
100
AcDbEntity
  8
D-TTL
  6
Continuous
100
AcDbPolyline
 90
        4
 70
     1
 43
0.0
 10
0.0
 20
11879.99995240002
 10
16819.99993279995
 20
11879.99995240002
 10
16819.99993279995
 20
0.0
 10
0.0
 20
0.0
  0
LWPOLYLINE
  5
1F459
330
1F
100
AcDbEntity
  8
D-TTL
  6
Continuous
100
AcDbPolyline
 90
        4
 70
     1
 43
0.0
 10
800.0
 20
11479.99995240003
 10
16419.99993279995
 20
11479.99995240003
 10
16419.99993279995
 20
400.0
 10
800.0
 20
400.0
  0
TEXT
  5
20224
330
1F
100
AcDbEntity
  8
D-STR-DIM
100
AcDbText
 10
8422.60374074962
 20
4767.611108179834
 30
0.0
 40
70.0
  1
200
 50
90.0
100
AcDbText
  0
TEXT
  5
20225
330
1F
100
AcDbEntity
  8
D-STR-DIM
100
AcDbText
 10
8422.60374074962
 20
5585.611304924145
 30
0.0
 40
70.0
  1
1500
 50
90.00001500002756
100
AcDbText
  0
TEXT
  5
20226
330
1F
100
AcDbEntity
  8
D-STR-DIM
100
AcDbText
 10
8422.60374074962
 20
6467.611101413727
 30
0.0
 40
70.0
  1
200
 50
90.0
100
AcDbText
  0
LINE
  5
20229
330
1F
100
AcDbEntity
  8
D-STR-DIM
  6
Continuous
100
AcDbLine
 10
7658.603723869969
 20
4954.47130743612
 30
0.0
 11
8468.603740566521
 21
4954.47130743612
 31
0.0
  0
LINE
  5
2022A
330
1F
100
AcDbEntity
  8
D-STR-DIM
  6
Continuous
100
AcDbLine
 10
7658.603723869969
 20
6454.471301466026
 30
0.0
 11
8468.603740566521
 21
6454.471301466026
 31
0.0
  0
LINE
  5
2022B
330
1F
100
AcDbEntity
  8
D-STR-DIM
  6
Continuous
100
AcDbLine
 10
7668.603743750573
 20
4754.471308232132
 30
0.0
 11
9608.603716029243
 21
4754.471308232132
 31
0.0
  0
LINE
  5
2022C
330
1F
100
AcDbEntity
  8
D-STR-DIM
  6
Continuous
100
AcDbLine
 10
7668.603743750573
 20
6654.471100670012
 30
0.0
 11
9608.603716029243
 21
6654.471100670012
 31
0.0
  0
LINE
  5
20231
330
1F
100
AcDbEntity
  8
D-STR-DIM
  6
Continuous
100
AcDbLine
 10
7638.603723869969
 20
2774.470916192262
 30
0.0
 11
7638.603723869969
 21
3484.470913286815
 31
0.0
  0
LINE
  5
20232
330
1F
100
AcDbEntity
  8
D-STR-DIM
  6
Continuous
100
AcDbLine
 10
6038.603930238061
 20
2774.470916192262
 30
0.0
 11
6038.603930238061
 21
3484.470913286815
 31
0.0
  0
LINE
  5
20238
330
1F
100
AcDbEntity
  8
D-STR-DIM
  6
Continuous
100
AcDbLine
 10
6038.603930238061
 20
4724.470708351535
 30
0.0
 11
6038.603930238061
 21
2784.471516072857
 31
0.0
  0
LINE
  5
20239
330
1F
100
AcDbEntity
  8
D-STR-DIM
  6
Continuous
100
AcDbLine
 10
7638.603723869969
 20
4724.470708351535
 30
0.0
 11
7638.603723869969
 21
2784.471516072857
 31
0.0
  0
LINE
  5
2024E
330
1F
100
AcDbEntity
  8
D-STR-DIM
  6
Continuous
100
AcDbLine
 10
6838.603727054016
 20
854.4711237543815
 30
0.0
 11
7238.603725461993
 21
854.4711237543815
 31
0.0
  0
LINE
  5
20250
330
1F
100
AcDbEntity
  8
D-STR-HTXT
  6
Continuous
100
AcDbLine
 10
6538.603728248038
 20
1254.471522162354
 30
0.0
 11
7254.074365400403
 21
1054.471122958369
 31
0.0
  0
LINE
  5
20252
330
1F
100
AcDbEntity
  8
D-STR-STR2
  6
Continuous
100
AcDbLine
 10
7088.603786059024
 20
1354.471521764348
 30
0.0
 11
7188.603745661002
 21
1354.471521764348
 31
0.0
  0
LINE
  5
20253
330
1F
100
AcDbEntity
  8
D-STR-STR2
  6
Continuous
100
AcDbLine
 10
7088.603786059024
 20
2654.471516590266
 30
0.0
 11
7188.603745661002
 21
2654.471516590266
 31
0.0
  0
LINE
  5
20254
330
1F
100
AcDbEntity
  8
D-STR
  6
Continuous
100
AcDbLine
 10
7638.603723869969
 20
1254.471522162354
 30
0.0
 11
6038.603930238061
 21
1254.471522162354
 31
0.0
  0
LINE
  5
20255
330
1F
100
AcDbEntity
  8
D-STR
  6
Continuous
100
AcDbLine
 10
7638.603723869969
 20
2754.470916192262
 30
0.0
 11
6038.603930238061
 21
2754.470916192262
 31
0.0
  0
CIRCLE
  5
20256
330
1F
100
AcDbEntity
  8
D-STR-STR2
  6
Continuous
100
AcDbCircle
 10
6838.603727054016
 20
1704.471120371328
 30
0.0
 40
169.9999953233892
  0
CIRCLE
  5
20257
330
1F
100
AcDbEntity
  8
D-STR-STR2
  6
Continuous
100
AcDbCircle
 10
6838.603727054016
 20
1704.471120371328
 30
0.0
 40
149.9999954029904
  0
LINE
  5
20258
330
1F
100
AcDbEntity
  8
D-STR
  6
Continuous
100
AcDbLine
 10
6338.603929044043
 20
1854.471319774316
 30
0.0
 11
6338.603929044043
 21
1404.471121565347
 31
0.0
  0
LINE
  5
20259
330
1F
100
AcDbEntity
  8
D-STR
  6
Continuous
100
AcDbLine
 10
6238.603929442048
 20
1894.471519615113
 30
0.0
 11
6238.603929442048
 21
1364.471521724548
 31
0.0
  0
LINE
  5
2025A
330
1F
100
AcDbEntity
  8
D-BMK
  6
CENTER2
100
AcDbLine
 10
6838.603727054016
 20
1904.470919575317
 30
0.0
 11
6838.603727054016
 21
1504.47112116734
 31
0.0
  0
LINE
  5
2025B
330
1F
100
AcDbEntity
  8
D-STR
  6
Continuous
100
AcDbLine
 10
6038.603930238061
 20
2754.470916192262
 30
0.0
 11
6038.603930238061
 21
1254.471522162354
 31
0.0
  0
TEXT
  5
2025C
330
1F
100
AcDbEntity
  8
D-STR-DIM
100
AcDbText
 10
6351.743928991801
 20
870.4713236906997
 30
0.0
 40
70.0
  1
800
100
AcDbText
  0
LINE
  5
2025D
330
1F
100
AcDbEntity
  8
D-STR-DIM
  6
Continuous
100
AcDbLine
 10
6838.603727054016
 20
854.4711237543815
 30
0.0
 11
6438.603928646038
 21
854.4711237543815
 31
0.0
  0
LINE
  5
2025E
330
1F
100
AcDbEntity
  8
D-STR-DIM
  6
Continuous
100
AcDbLine
 10
6038.603930238061
 20
1234.471522162354
 30
0.0
 11
6038.603930238061
 21
824.4715238737819
 31
0.0
  0
LINE
  5
2025F
330
1F
100
AcDbEntity
  8
D-STR-DIM
  6
Continuous
100
AcDbLine
 10
6038.603930238061
 20
854.4711237543815
 30
0.0
 11
6438.603928646038
 21
854.4711237543815
 31
0.0
  0
CIRCLE
  5
20260
330
1F
100
AcDbEntity
  8
D-STR-DIM
  6
Continuous
100
AcDbCircle
 10
6038.603930238061
 20
854.4711237543815
 30
0.0
 40
5.999997976119627
  0
LINE
  5
20261
330
1F
100
AcDbEntity
  8
D-STR
  6
Continuous
100
AcDbLine
 10
6338.603929044043
 20
1404.471121565347
 30
0.0
 11
6213.603729541559
 21
1354.470921764351
 31
0.0
  0
LINE
  5
20262
330
1F
100
AcDbEntity
  8
D-STR
  6
Continuous
100
AcDbLine
 10
6213.603729541559
 20
1354.471521764348
 30
0.0
 11
6213.603729541559
 21
1254.471522162354
 31
0.0
  0
LINE
  5
20263
330
1F
100
AcDbEntity
  8
D-STR-DIM
  6
Continuous
100
AcDbLine
 10
6838.603727054016
 20
1234.471522162354
 30
0.0
 11
6838.603727054016
 21
824.4715238737819
 31
0.0
  0
CIRCLE
  5
20264
330
1F
100
AcDbEntity
  8
D-STR-DIM
  6
Continuous
100
AcDbCircle
 10
6838.603727054016
 20
854.4711237543815
 30
0.0
 40
5.999997976119627
  0
LINE
  5
20265
330
1F
100
AcDbEntity
  8
D-BMK
  6
CENTER2
100
AcDbLine
 10
7038.603786258026
 20
1704.471120371328
 30
0.0
 11
6638.603727850029
 21
1704.471120371328
 31
0.0
  0
LINE
  5
20266
330
1F
100
AcDbEntity
  8
D-STR-HTXT
  6
Continuous
100
AcDbLine
 10
6575.228328102262
 20
1236.91012223225
 30
0.0
 11
6538.603728248038
 21
1254.471522162354
 31
0.0
  0
LINE
  5
20267
330
1F
100
AcDbEntity
  8
D-BMK
  6
CENTER2
100
AcDbLine
 10
6538.603728248038
 20
1224.471322281756
 30
0.0
 11
6538.603728248038
 21
1384.471121644948
 31
0.0
  0
LINE
  5
20268
330
1F
100
AcDbEntity
  8
D-STR-STR2
  6
Continuous
100
AcDbLine
 10
6588.603728049033
 20
1354.471521764348
 30
0.0
 11
6588.603728049033
 21
1254.471522162354
 31
0.0
  0
LINE
  5
20269
330
1F
100
AcDbEntity
  8
D-STR-STR2
  6
Continuous
100
AcDbLine
 10
6488.603728447042
 20
1354.471521764348
 30
0.0
 11
6588.603728049033
 21
1354.471521764348
 31
0.0
  0
LINE
  5
2026A
330
1F
100
AcDbEntity
  8
D-STR-STR2
  6
Continuous
100
AcDbLine
 10
6488.603728447042
 20
1254.471522162354
 30
0.0
 11
6488.603728447042
 21
1354.471521764348
 31
0.0
  0
LINE
  5
2026B
330
1F
100
AcDbEntity
  8
D-STR-STR2
  6
Continuous
100
AcDbLine
 10
7088.603786059024
 20
1254.471522162354
 30
0.0
 11
7088.603786059024
 21
1354.471521764348
 31
0.0
  0
CIRCLE
  5
2026C
330
1F
100
AcDbEntity
  8
D-STR-STR2
  6
Continuous
100
AcDbCircle
 10
6838.603727054016
 20
1704.471120371328
 30
0.0
 40
37.49999785074763
  0
LINE
  5
20271
330
1F
100
AcDbEntity
  8
D-STR
  6
Continuous
100
AcDbLine
 10
6338.603929044043
 20
2604.470716789272
 30
0.0
 11
6338.603929044043
 21
2154.471118580299
 31
0.0
  0
LINE
  5
20272
330
1F
100
AcDbEntity
  8
D-STR
  6
Continuous
100
AcDbLine
 10
6238.603929442048
 20
2644.47091663007
 30
0.0
 11
6238.603929442048
 21
2114.470918739503
 31
0.0
  0
LINE
  5
20273
330
1F
100
AcDbEntity
  8
D-STR
  6
Continuous
100
AcDbLine
 10
6338.603929044043
 20
2154.471718580297
 30
0.0
 11
6213.603729541559
 21
2104.471518779301
 31
0.0
  0
LINE
  5
20274
330
1F
100
AcDbEntity
  8
D-STR
  6
Continuous
100
AcDbLine
 10
6338.603929044043
 20
1854.471319774316
 30
0.0
 11
6213.603729541559
 21
1904.470919575317
 31
0.0
  0
LINE
  5
20275
330
1F
100
AcDbEntity
  8
D-STR
  6
Continuous
100
AcDbLine
 10
6213.603729541559
 20
2104.471518779301
 30
0.0
 11
6213.603729541559
 21
1904.470919575317
 31
0.0
  0
LINE
  5
20278
330
1F
100
AcDbEntity
  8
D-STR
  6
Continuous
100
AcDbLine
 10
6338.603929044043
 20
2604.471716789267
 30
0.0
 11
6213.603729541559
 21
2654.471516590266
 31
0.0
  0
LINE
  5
20279
330
1F
100
AcDbEntity
  8
D-STR
  6
Continuous
100
AcDbLine
 10
6213.603729541559
 20
2754.470916192262
 30
0.0
 11
6213.603729541559
 21
2654.471516590266
 31
0.0
  0
LINE
  5
20285
330
1F
100
AcDbEntity
  8
D-BMK
  6
CENTER2
100
AcDbLine
 10
6538.603728248038
 20
2784.471516072857
 30
0.0
 11
6538.603728248038
 21
2624.47091670967
 31
0.0
  0
LINE
  5
20286
330
1F
100
AcDbEntity
  8
D-STR-STR2
  6
Continuous
100
AcDbLine
 10
6488.603728447042
 20
2754.470916192262
 30
0.0
 11
6488.603728447042
 21
2654.471516590266
 31
0.0
  0
LINE
  5
20287
330
1F
100
AcDbEntity
  8
D-STR-STR2
  6
Continuous
100
AcDbLine
 10
6488.603728447042
 20
2654.471516590266
 30
0.0
 11
6588.603728049033
 21
2654.471516590266
 31
0.0
  0
LINE
  5
20288
330
1F
100
AcDbEntity
  8
D-STR-STR2
  6
Continuous
100
AcDbLine
 10
6588.603728049033
 20
2654.471516590266
 30
0.0
 11
6588.603728049033
 21
2754.470916192262
 31
0.0
  0
LINE
  5
20289
330
1F
100
AcDbEntity
  8
D-STR-STR2
  6
Continuous
100
AcDbLine
 10
7088.603786059024
 20
2754.470916192262
 30
0.0
 11
7088.603786059024
 21
2654.471516590266
 31
0.0
  0
LINE
  5
2028C
330
1F
100
AcDbEntity
  8
D-STR-DIM
  6
Continuous
100
AcDbLine
 10
8038.603782277961
 20
1704.471120371328
 30
0.0
 11
8038.603782277961
 21
2229.471318281794
 31
0.0
  0
LINE
  5
2028D
330
1F
100
AcDbEntity
  8
D-STR-DIM
  6
Continuous
100
AcDbLine
 10
8338.603741083931
 20
1254.471522162354
 30
0.0
 11
8338.603741083931
 21
2004.471519177307
 31
0.0
  0
LINE
  5
2028E
330
1F
100
AcDbEntity
  8
D-STR
  6
Continuous
100
AcDbLine
 10
7338.603825064018
 20
1854.471319774316
 30
0.0
 11
7338.603825064018
 21
1404.471121565347
 31
0.0
  0
LINE
  5
2028F
330
1F
100
AcDbEntity
  8
D-STR
  6
Continuous
100
AcDbLine
 10
7438.603784665999
 20
1894.471519615113
 30
0.0
 11
7438.603784665999
 21
1364.471521724548
 31
0.0
  0
LINE
  5
20290
330
1F
100
AcDbEntity
  8
D-STR
  6
Continuous
100
AcDbLine
 10
7638.603723869969
 20
2754.470916192262
 30
0.0
 11
7638.603723869969
 21
1254.471522162354
 31
0.0
  0
LINE
  5
20291
330
1F
100
AcDbEntity
  8
D-STR-DIM
  6
Continuous
100
AcDbLine
 10
7658.603723869969
 20
1704.471120371328
 30
0.0
 11
8068.603722158538
 21
1704.471120371328
 31
0.0
  0
LINE
  5
20292
330
1F
100
AcDbEntity
  8
D-STR-DIM
  6
Continuous
100
AcDbLine
 10
7658.603723869969
 20
1254.471522162354
 30
0.0
 11
8368.603760964532
 21
1254.471522162354
 31
0.0
  0
LINE
  5
20293
330
1F
100
AcDbEntity
  8
D-STR-DIM
  6
Continuous
100
AcDbLine
 10
7638.603723869969
 20
1234.471522162354
 30
0.0
 11
7638.603723869969
 21
824.4715238737819
 31
0.0
  0
LINE
  5
20294
330
1F
100
AcDbEntity
  8
D-STR-HTXT
  6
Continuous
100
AcDbLine
 10
7138.60376586001
 20
1254.470922162357
 30
0.0
 11
7254.073745400411
 21
1054.471522958367
 31
0.0
  0
TEXT
  5
20295
330
1F
100
AcDbEntity
  8
D-STR-HTXT
100
AcDbText
 10
7231.213805491414
 20
1070.471122894688
 30
0.0
 40
70.0
  1
　連結金具
100
AcDbText
  0
LINE
  5
20296
330
1F
100
AcDbEntity
  8
D-STR-DIM
  6
Continuous
100
AcDbLine
 10
7638.603723869969
 20
854.4711237543815
 30
0.0
 11
7238.603725461993
 21
854.4711237543815
 31
0.0
  0
LINE
  5
20297
330
1F
100
AcDbEntity
  8
D-STR-HTXT
  6
Continuous
100
AcDbLine
 10
7646.550791620118
 20
1054.471122958369
 30
0.0
 11
7254.073745400411
 21
1054.471122958369
 31
0.0
  0
TEXT
  5
20298
330
1F
100
AcDbEntity
  8
D-STR-DIM
100
AcDbText
 10
7151.743705807749
 20
870.4713236906997
 30
0.0
 40
70.0
  1
800
100
AcDbText
  0
CIRCLE
  5
20299
330
1F
100
AcDbEntity
  8
D-STR-DIM
  6
Continuous
100
AcDbCircle
 10
7638.603723869969
 20
854.4711237543815
 30
0.0
 40
5.999997976119627
  0
LINE
  5
2029A
330
1F
100
AcDbEntity
  8
D-STR
  6
Continuous
100
AcDbLine
 10
7338.603825064018
 20
1404.471121565347
 30
0.0
 11
7463.603784566497
 21
1354.470921764351
 31
0.0
  0
LINE
  5
2029B
330
1F
100
AcDbEntity
  8
D-STR-HTXT
  6
Continuous
100
AcDbLine
 10
7152.495585804714
 20
1216.303522314266
 30
0.0
 11
7138.60376586001
 21
1254.471522162354
 31
0.0
  0
LINE
  5
2029C
330
1F
100
AcDbEntity
  8
D-BMK
  6
CENTER2
100
AcDbLine
 10
7138.60376586001
 20
1224.471322281756
 30
0.0
 11
7138.60376586001
 21
1384.471121644948
 31
0.0
  0
LINE
  5
2029D
330
1F
100
AcDbEntity
  8
D-STR-STR2
  6
Continuous
100
AcDbLine
 10
7188.603745661002
 20
1354.471521764348
 30
0.0
 11
7188.603745661002
 21
1254.471522162354
 31
0.0
  0
LINE
  5
2029E
330
1F
100
AcDbEntity
  8
D-STR
  6
Continuous
100
AcDbLine
 10
7463.603784566497
 20
1354.471521764348
 30
0.0
 11
7463.603784566497
 21
1254.471522162354
 31
0.0
  0
TEXT
  5
2029F
330
1F
100
AcDbEntity
  8
D-STR-DIM
100
AcDbText
 10
8022.603722341635
 20
1392.61112161255
 30
0.0
 40
70.0
  1
450
 50
90.0
100
AcDbText
  0
LINE
  5
202A0
330
1F
100
AcDbEntity
  8
D-STR-DIM
  6
Continuous
100
AcDbLine
 10
8038.603782277961
 20
1254.471522162354
 30
0.0
 11
8038.603782277961
 21
1479.471321266841
 31
0.0
  0
CIRCLE
  5
202A1
330
1F
100
AcDbEntity
  8
D-STR-DIM
  6
Continuous
100
AcDbCircle
 10
8038.603782277961
 20
1254.471522162354
 30
0.0
 40
5.999997976119627
  0
CIRCLE
  5
202A2
330
1F
100
AcDbEntity
  8
D-STR-DIM
  6
Continuous
100
AcDbCircle
 10
8038.603782277961
 20
1704.471120371328
 30
0.0
 40
5.999997976119627
  0
LINE
  5
202A3
330
1F
100
AcDbEntity
  8
D-STR-DIM
  6
Continuous
100
AcDbLine
 10
8038.603782277961
 20
1704.471120371328
 30
0.0
 11
8038.603782277961
 21
1479.471321266841
 31
0.0
  0
CIRCLE
  5
202A4
330
1F
100
AcDbEntity
  8
D-STR-DIM
  6
Continuous
100
AcDbCircle
 10
8338.603741083931
 20
1254.471522162354
 30
0.0
 40
5.999997976119627
  0
LINE
  5
202A5
330
1F
100
AcDbEntity
  8
D-STR-DIM
  6
Continuous
100
AcDbLine
 10
7658.603723869969
 20
2754.470916192262
 30
0.0
 11
8368.603760964532
 21
2754.470916192262
 31
0.0
  0
LINE
  5
202A6
330
1F
100
AcDbEntity
  8
D-STR
  6
Continuous
100
AcDbLine
 10
7338.603825064018
 20
2604.470716789272
 30
0.0
 11
7338.603825064018
 21
2154.471118580299
 31
0.0
  0
LINE
  5
202A7
330
1F
100
AcDbEntity
  8
D-STR
  6
Continuous
100
AcDbLine
 10
7438.603784665999
 20
2644.47091663007
 30
0.0
 11
7438.603784665999
 21
2114.470918739503
 31
0.0
  0
LINE
  5
202A8
330
1F
100
AcDbEntity
  8
D-STR
  6
Continuous
100
AcDbLine
 10
7338.603825064018
 20
1854.471319774316
 30
0.0
 11
7463.604404566488
 21
1904.470919575317
 31
0.0
  0
LINE
  5
202A9
330
1F
100
AcDbEntity
  8
D-STR
  6
Continuous
100
AcDbLine
 10
7338.603825064018
 20
2154.471118580299
 30
0.0
 11
7463.604404566488
 21
2104.470918779303
 31
0.0
  0
LINE
  5
202AA
330
1F
100
AcDbEntity
  8
D-STR
  6
Continuous
100
AcDbLine
 10
7463.603784566497
 20
2104.471518779301
 30
0.0
 11
7463.603784566497
 21
1904.470919575317
 31
0.0
  0
LINE
  5
202AC
330
1F
100
AcDbEntity
  8
D-STR
  6
Continuous
100
AcDbLine
 10
7338.603825064018
 20
2604.471716789267
 30
0.0
 11
7463.603784566497
 21
2654.471516590266
 31
0.0
  0
LINE
  5
202B1
330
1F
100
AcDbEntity
  8
D-BMK
  6
CENTER2
100
AcDbLine
 10
7138.60376586001
 20
2784.471516072857
 30
0.0
 11
7138.60376586001
 21
2624.47091670967
 31
0.0
  0
LINE
  5
202B3
330
1F
100
AcDbEntity
  8
D-STR-STR2
  6
Continuous
100
AcDbLine
 10
7188.603745661002
 20
2654.471516590266
 30
0.0
 11
7188.603745661002
 21
2754.470916192262
 31
0.0
  0
LINE
  5
202B5
330
1F
100
AcDbEntity
  8
D-STR
  6
Continuous
100
AcDbLine
 10
7463.603784566497
 20
2754.470916192262
 30
0.0
 11
7463.603784566497
 21
2654.471516590266
 31
0.0
  0
LINE
  5
202B8
330
1F
100
AcDbEntity
  8
D-STR-DIM
  6
Continuous
100
AcDbLine
 10
8038.603782277961
 20
2754.470916192262
 30
0.0
 11
8038.603782277961
 21
2229.471318281794
 31
0.0
  0
LINE
  5
202B9
330
1F
100
AcDbEntity
  8
D-STR-DIM
  6
Continuous
100
AcDbLine
 10
8338.603741083931
 20
2754.470916192262
 30
0.0
 11
8338.603741083931
 21
2004.471519177307
 31
0.0
  0
TEXT
  5
202BA
330
1F
100
AcDbEntity
  8
D-STR-DIM
100
AcDbText
 10
8022.603722341635
 20
2110.611318754864
 30
0.0
 40
70.0
  1
1050
 50
90.0
100
AcDbText
  0
TEXT
  5
202BB
330
1F
100
AcDbEntity
  8
D-STR-DIM
100
AcDbText
 10
8322.603741147622
 20
1885.61091965038
 30
0.0
 40
70.0
  1
1500
 50
90.0
100
AcDbText
  0
CIRCLE
  5
202BC
330
1F
100
AcDbEntity
  8
D-STR-DIM
  6
Continuous
100
AcDbCircle
 10
8038.603782277961
 20
2754.470916192262
 30
0.0
 40
5.999997976119627
  0
CIRCLE
  5
202BD
330
1F
100
AcDbEntity
  8
D-STR-DIM
  6
Continuous
100
AcDbCircle
 10
8338.603741083931
 20
2754.470916192262
 30
0.0
 40
5.999997976119627
  0
TEXT
  5
202BE
330
1F
100
AcDbEntity
  8
D-STR-DIM
100
AcDbText
 10
3128.743941819519
 20
5808.151104038421
 30
0.0
 40
70.0
  1
10
100
AcDbText
  0
LINE
  5
202C0
330
1F
100
AcDbEntity
  8
D-STR-DIM
  6
Continuous
100
AcDbLine
 10
3288.603941183236
 20
7354.471497883968
 30
0.0
 11
2913.603942675761
 21
7354.471497883968
 31
0.0
  0
LINE
  5
202C1
330
1F
100
AcDbEntity
  8
D-STR-DIM
  6
Continuous
100
AcDbLine
 10
2538.603944168286
 20
4054.471111018178
 30
0.0
 11
3288.603941183236
 21
4054.471111018178
 31
0.0
  0
LINE
  5
202C2
330
1F
100
AcDbEntity
  8
D-STR-DIM
  6
Continuous
100
AcDbLine
 10
3238.604141382233
 20
4354.471509824157
 30
0.0
 11
2921.103742645918
 21
4354.471509824157
 31
0.0
  0
LINE
  5
202C3
330
1F
100
AcDbEntity
  8
D-STR-DIM
  6
Continuous
100
AcDbLine
 10
2913.603942675761
 20
7054.471099077987
 30
0.0
 11
3288.603941183236
 21
7054.471099077987
 31
0.0
  0
LINE
  5
202C6
330
1F
100
AcDbEntity
  8
D-STR
  6
Continuous
100
AcDbLine
 10
2648.603943730479
 20
6354.470701864034
 30
0.0
 11
3178.603941621045
 21
6354.470701864034
 31
0.0
  0
LINE
  5
202C7
330
1F
100
AcDbEntity
  8
D-STR
  6
Continuous
100
AcDbLine
 10
2648.603943730479
 20
5054.470707038117
 30
0.0
 11
3178.603941621045
 21
5054.470707038117
 31
0.0
  0
LINE
  5
202C8
330
1F
100
AcDbEntity
  8
D-STR
  6
Continuous
100
AcDbLine
 10
2538.603944168286
 20
4954.47130743612
 30
0.0
 11
4038.60393819819
 21
4954.47130743612
 31
0.0
  0
LINE
  5
202C9
330
1F
100
AcDbEntity
  8
D-STR
  6
Continuous
100
AcDbLine
 10
2538.603944168286
 20
6454.471301466026
 30
0.0
 11
4038.60393819819
 21
6454.471301466026
 31
0.0
  0
LINE
  5
202CA
330
1F
100
AcDbEntity
  8
D-STR
  6
Continuous
100
AcDbLine
 10
2538.603944168286
 20
4754.471308232132
 30
0.0
 11
4038.60393819819
 21
4754.471308232132
 31
0.0
  0
LINE
  5
202CB
330
1F
100
AcDbEntity
  8
D-STR
  6
Continuous
100
AcDbLine
 10
2538.603944168286
 20
6654.471100670012
 30
0.0
 11
4038.60393819819
 21
6654.471100670012
 31
0.0
  0
LINE
  5
202CC
330
1F
100
AcDbEntity
  8
D-STR
  6
Continuous
100
AcDbLine
 10
2648.603943730479
 20
6454.471301466026
 30
0.0
 11
2648.603943730479
 21
4954.47130743612
 31
0.0
  0
LINE
  5
202CD
330
1F
100
AcDbEntity
  8
D-STR
  6
Continuous
100
AcDbLine
 10
2538.603944168286
 20
6654.471100670012
 30
0.0
 11
2538.603944168286
 21
4754.471308232132
 31
0.0
  0
LINE
  5
202CE
330
1F
100
AcDbEntity
  8
D-STR
  6
Continuous
100
AcDbLine
 10
2638.603743770284
 20
6444.470701505828
 30
0.0
 11
2638.603743770284
 21
4964.470707396322
 31
0.0
  0
LINE
  5
202CF
330
1F
100
AcDbEntity
  8
D-STR-DIM
  6
Continuous
100
AcDbLine
 10
2538.603944168286
 20
4734.471308232133
 30
0.0
 11
2538.603944168286
 21
4024.471311137579
 31
0.0
  0
LINE
  5
202D0
330
1F
100
AcDbEntity
  8
D-STR-DIM
  6
Continuous
100
AcDbLine
 10
2603.603943909582
 20
4734.471308232133
 30
0.0
 11
2603.603943909582
 21
4324.470709943562
 31
0.0
  0
TEXT
  5
202D1
330
1F
100
AcDbEntity
  8
D-STR-DIM
100
AcDbText
 10
2483.744144386653
 20
4258.151310207519
 30
0.0
 40
70.0
  1
65
100
AcDbText
  0
LINE
  5
202D2
330
1F
100
AcDbEntity
  8
D-STR-DIM
  6
Continuous
100
AcDbLine
 10
2603.603943909582
 20
4354.471509824157
 30
0.0
 11
2921.103742645918
 21
4354.471509824157
 31
0.0
  0
CIRCLE
  5
202D3
330
1F
100
AcDbEntity
  8
D-STR-DIM
  6
Continuous
100
AcDbCircle
 10
2538.603944168286
 20
4054.471111018178
 30
0.0
 40
5.999997976119627
  0
CIRCLE
  5
202D4
330
1F
100
AcDbEntity
  8
D-STR-DIM
  6
Continuous
100
AcDbCircle
 10
2603.603943909582
 20
4354.471509824157
 30
0.0
 40
5.999997976119627
  0
CIRCLE
  5
202D5
330
1F
100
AcDbEntity
  8
D-STR-DIM
  6
Continuous
100
AcDbCircle
 10
2538.603944168286
 20
4354.471509824157
 30
0.0
 40
5.999997976119627
  0
LINE
  5
202D6
330
1F
100
AcDbEntity
  8
D-STR-DIM
  6
Continuous
100
AcDbLine
 10
2603.603943909582
 20
4354.471509824157
 30
0.0
 11
2571.104144038928
 21
4354.471509824157
 31
0.0
  0
LINE
  5
202D7
330
1F
100
AcDbEntity
  8
D-STR-DIM
  6
Continuous
100
AcDbLine
 10
2538.603944168286
 20
4354.471509824157
 30
0.0
 11
2571.104144038928
 21
4354.471509824157
 31
0.0
  0
TEXT
  5
202D8
330
1F
100
AcDbEntity
  8
D-STR-DIM
100
AcDbText
 10
2834.24414299167
 20
4370.471109760479
 30
0.0
 40
70.0
  1
635
100
AcDbText
  0
LINE
  5
202D9
330
1F
100
AcDbEntity
  8
D-STR-DIM
  6
Continuous
100
AcDbLine
 10
2758.603943213068
 20
5789.470904112768
 30
0.0
 11
2308.603745083706
 21
5789.470904112768
 31
0.0
  0
LINE
  5
202DA
330
1F
100
AcDbEntity
  8
D-STR-DIM
  6
Continuous
100
AcDbLine
 10
2758.603943213068
 20
5779.471304152568
 30
0.0
 11
2308.603745083706
 21
5779.471304152568
 31
0.0
  0
LINE
  5
202DB
330
1F
100
AcDbEntity
  8
D-STR-DIM
  6
Continuous
100
AcDbLine
 10
2758.603943213068
 20
5529.470705147586
 30
0.0
 11
2308.603745083706
 21
5529.470705147586
 31
0.0
  0
LINE
  5
202DC
330
1F
100
AcDbEntity
  8
D-STR-DIM
  6
Continuous
100
AcDbLine
 10
2758.603943213068
 20
5519.471105187385
 30
0.0
 11
2308.603745083706
 21
5519.471105187385
 31
0.0
  0
TEXT
  5
202DD
330
1F
100
AcDbEntity
  8
D-STR-DIM
100
AcDbText
 10
2434.924144580982
 20
5469.611105385832
 30
0.0
 40
70.0
  1
10
 50
90.0
100
AcDbText
  0
LINE
  5
202DE
330
1F
100
AcDbEntity
  8
D-STR-DIM
  6
Continuous
100
AcDbLine
 10
2338.603944964297
 20
5529.470705147586
 30
0.0
 11
2338.603944964297
 21
5654.471504650075
 31
0.0
  0
CIRCLE
  5
202DF
330
1F
100
AcDbEntity
  8
D-STR-DIM
  6
Continuous
100
AcDbCircle
 10
2338.603944964297
 20
5529.470705147586
 30
0.0
 40
5.999997976119627
  0
CIRCLE
  5
202E0
330
1F
100
AcDbEntity
  8
D-STR-DIM
  6
Continuous
100
AcDbCircle
 10
2338.603944964297
 20
5519.471105187385
 30
0.0
 40
5.999997976119627
  0
LINE
  5
202E1
330
1F
100
AcDbEntity
  8
D-STR-DIM
  6
Continuous
100
AcDbLine
 10
2338.603944964297
 20
5529.470705147586
 30
0.0
 11
2338.603944964297
 21
5524.471305167486
 31
0.0
  0
LINE
  5
202E2
330
1F
100
AcDbEntity
  8
D-STR-DIM
  6
Continuous
100
AcDbLine
 10
2338.603944964297
 20
5519.471105187385
 30
0.0
 11
2338.603944964297
 21
5524.471305167486
 31
0.0
  0
TEXT
  5
202E3
330
1F
100
AcDbEntity
  8
D-STR-DIM
100
AcDbText
 10
2322.603745027998
 20
5567.610904995786
 30
0.0
 40
70.0
  1
250
 50
90.0
100
AcDbText
  0
TEXT
  5
202E4
330
1F
100
AcDbEntity
  8
D-STR-DIM
100
AcDbText
 10
2434.924144580982
 20
5729.611304351016
 30
0.0
 40
70.0
  1
10
 50
90.0
100
AcDbText
  0
CIRCLE
  5
202E5
330
1F
100
AcDbEntity
  8
D-STR-DIM
  6
Continuous
100
AcDbCircle
 10
2338.603944964297
 20
5789.470904112768
 30
0.0
 40
5.999997976119627
  0
CIRCLE
  5
202E6
330
1F
100
AcDbEntity
  8
D-STR-DIM
  6
Continuous
100
AcDbCircle
 10
2338.603944964297
 20
5779.471304152568
 30
0.0
 40
5.999997976119627
  0
LINE
  5
202E7
330
1F
100
AcDbEntity
  8
D-STR-DIM
  6
Continuous
100
AcDbLine
 10
2338.603944964297
 20
5789.470904112768
 30
0.0
 11
2338.603944964297
 21
5784.471704132666
 31
0.0
  0
LINE
  5
202E8
330
1F
100
AcDbEntity
  8
D-STR-DIM
  6
Continuous
100
AcDbLine
 10
2338.603944964297
 20
5779.471304152568
 30
0.0
 11
2338.603944964297
 21
5784.471704132666
 31
0.0
  0
LINE
  5
202E9
330
1F
100
AcDbEntity
  8
D-STR-DIM
  6
Continuous
100
AcDbLine
 10
2338.603944964297
 20
5779.471304152568
 30
0.0
 11
2338.603944964297
 21
5654.471504650075
 31
0.0
  0
CIRCLE
  5
202EA
330
1F
100
AcDbEntity
  8
D-STR-STR2
  6
Continuous
100
AcDbCircle
 10
2603.603943909582
 20
5037.471107105775
 30
0.0
 40
9.999997960199371
  0
LINE
  5
202EB
330
1F
100
AcDbEntity
  8
D-STR
  6
Continuous
100
AcDbLine
 10
2538.603944168286
 20
4954.47130743612
 30
0.0
 11
2648.603943730479
 21
4954.47130743612
 31
0.0
  0
LINE
  5
202EC
330
1F
100
AcDbEntity
  8
D-STR
  6
Continuous
100
AcDbLine
 10
2538.603944168286
 20
4964.470707396322
 30
0.0
 11
2638.603743770284
 21
4964.470707396322
 31
0.0
  0
LINE
  5
202ED
330
1F
100
AcDbEntity
  8
D-STR
  6
Continuous
100
AcDbLine
 10
2638.603743770284
 20
4964.470707396322
 30
0.0
 11
2648.603943730479
 21
4954.470307436125
 31
0.0
  0
LINE
  5
202EE
330
1F
100
AcDbEntity
  8
D-BMK
  6
CENTER2
100
AcDbLine
 10
2643.604143750374
 20
5037.471107105775
 30
0.0
 11
2563.604144068777
 21
5037.471107105775
 31
0.0
  0
LINE
  5
202EF
330
1F
100
AcDbEntity
  8
D-BMK
  6
CENTER2
100
AcDbLine
 10
2603.603943909582
 20
5077.471306946573
 30
0.0
 11
2603.603943909582
 21
4997.47090726498
 31
0.0
  0
LINE
  5
202F0
330
1F
100
AcDbEntity
  8
D-STR-DIM
  6
Continuous
100
AcDbLine
 10
2788.603943173269
 20
5319.471105983396
 30
0.0
 11
2913.603942675761
 21
5319.471105983396
 31
0.0
  0
LINE
  5
202F1
330
1F
100
AcDbEntity
  8
D-BMK
  6
CENTER2
100
AcDbLine
 10
2748.603943332473
 20
5654.471504650075
 30
0.0
 11
3078.60394201905
 21
5654.471504650075
 31
0.0
  0
LINE
  5
202F2
330
1F
100
AcDbEntity
  8
D-STR-STR2
  6
Continuous
100
AcDbLine
 10
2778.603943213068
 20
5789.470904112768
 30
0.0
 11
3048.603742138458
 21
5789.470904112768
 31
0.0
  0
LINE
  5
202F3
330
1F
100
AcDbEntity
  8
D-STR-STR2
  6
Continuous
100
AcDbLine
 10
2778.603943213068
 20
5519.471105187385
 30
0.0
 11
3048.603742138458
 21
5519.471105187385
 31
0.0
  0
LINE
  5
202F4
330
1F
100
AcDbEntity
  8
D-STR-STR2
  6
Continuous
100
AcDbLine
 10
2788.603943173269
 20
5529.470705147586
 30
0.0
 11
3038.604142178248
 21
5529.470705147586
 31
0.0
  0
LINE
  5
202F5
330
1F
100
AcDbEntity
  8
D-STR-STR2
  6
Continuous
100
AcDbLine
 10
2788.603943173269
 20
5779.471304152568
 30
0.0
 11
3038.604142178248
 21
5779.471304152568
 31
0.0
  0
LINE
  5
202F6
330
1F
100
AcDbEntity
  8
D-STR-STR2
  6
Continuous
100
AcDbLine
 10
2778.603943213068
 20
5789.470904112768
 30
0.0
 11
2778.603943213068
 21
5519.471105187385
 31
0.0
  0
LINE
  5
202F7
330
1F
100
AcDbEntity
  8
D-STR-STR2
  6
Continuous
100
AcDbLine
 10
2788.603943173269
 20
5779.471304152568
 30
0.0
 11
2788.603943173269
 21
5529.470705147586
 31
0.0
  0
TEXT
  5
202F8
330
1F
100
AcDbEntity
  8
D-STR-DIM
100
AcDbText
 10
2728.743943411544
 20
5223.151106366757
 30
0.0
 40
70.0
  1
10
100
AcDbText
  0
CIRCLE
  5
202F9
330
1F
100
AcDbEntity
  8
D-STR-DIM
  6
Continuous
100
AcDbCircle
 10
2788.603943173269
 20
5319.471105983396
 30
0.0
 40
5.999997976119627
  0
CIRCLE
  5
202FA
330
1F
100
AcDbEntity
  8
D-STR-DIM
  6
Continuous
100
AcDbCircle
 10
2778.603943213068
 20
5319.471105983396
 30
0.0
 40
5.999997976119627
  0
LINE
  5
202FB
330
1F
100
AcDbEntity
  8
D-STR-DIM
  6
Continuous
100
AcDbLine
 10
2788.603943173269
 20
5499.471105187385
 30
0.0
 11
2788.603943173269
 21
5289.471506102799
 31
0.0
  0
LINE
  5
202FC
330
1F
100
AcDbEntity
  8
D-STR-DIM
  6
Continuous
100
AcDbLine
 10
2778.603943213068
 20
5499.471105187385
 30
0.0
 11
2778.603943213068
 21
5289.471506102799
 31
0.0
  0
LINE
  5
202FD
330
1F
100
AcDbEntity
  8
D-STR-DIM
  6
Continuous
100
AcDbLine
 10
2788.603943173269
 20
5319.471105983396
 30
0.0
 11
2783.603743193177
 21
5319.471105983396
 31
0.0
  0
LINE
  5
202FE
330
1F
100
AcDbEntity
  8
D-STR-DIM
  6
Continuous
100
AcDbLine
 10
2778.603943213068
 20
5319.471105983396
 30
0.0
 11
2783.603743193177
 21
5319.471105983396
 31
0.0
  0
LINE
  5
202FF
330
1F
100
AcDbEntity
  8
D-BMK
  6
CENTER2
100
AcDbLine
 10
2913.603942675761
 20
5819.471503993366
 30
0.0
 11
2913.603942675761
 21
5489.471505306787
 31
0.0
  0
LINE
  5
20300
330
1F
100
AcDbEntity
  8
D-STR-STR2
  6
Continuous
100
AcDbLine
 10
3048.603742138458
 20
5789.470904112768
 30
0.0
 11
3048.603742138458
 21
5519.471105187385
 31
0.0
  0
LINE
  5
20301
330
1F
100
AcDbEntity
  8
D-STR-STR2
  6
Continuous
100
AcDbLine
 10
3038.604142178248
 20
5779.471304152568
 30
0.0
 11
3038.604142178248
 21
5529.470705147586
 31
0.0
  0
TEXT
  5
20302
330
1F
100
AcDbEntity
  8
D-STR-DIM
100
AcDbText
 10
2988.744142376721
 20
5223.151106366757
 30
0.0
 40
70.0
  1
10
100
AcDbText
  0
LINE
  5
20303
330
1F
100
AcDbEntity
  8
D-STR-DIM
  6
Continuous
100
AcDbLine
 10
3038.604142178248
 20
5319.471105983396
 30
0.0
 11
2913.603942675761
 21
5319.471105983396
 31
0.0
  0
TEXT
  5
20304
330
1F
100
AcDbEntity
  8
D-STR-DIM
100
AcDbText
 10
2826.743743021461
 20
5335.470905919718
 30
0.0
 40
70.0
  1
250
100
AcDbText
  0
CIRCLE
  5
20305
330
1F
100
AcDbEntity
  8
D-STR-DIM
  6
Continuous
100
AcDbCircle
 10
3048.603742138458
 20
5319.471105983396
 30
0.0
 40
5.999997976119627
  0
CIRCLE
  5
20306
330
1F
100
AcDbEntity
  8
D-STR-DIM
  6
Continuous
100
AcDbCircle
 10
3038.604142178248
 20
5319.471105983396
 30
0.0
 40
5.999997976119627
  0
LINE
  5
20307
330
1F
100
AcDbEntity
  8
D-STR-DIM
  6
Continuous
100
AcDbLine
 10
3048.603742138458
 20
5499.471105187385
 30
0.0
 11
3048.603742138458
 21
5289.471506102799
 31
0.0
  0
LINE
  5
20308
330
1F
100
AcDbEntity
  8
D-STR-DIM
  6
Continuous
100
AcDbLine
 10
3048.603742138458
 20
5319.471105983396
 30
0.0
 11
3043.603942158353
 21
5319.471105983396
 31
0.0
  0
LINE
  5
20309
330
1F
100
AcDbEntity
  8
D-STR-DIM
  6
Continuous
100
AcDbLine
 10
3038.604142178248
 20
5319.471105983396
 30
0.0
 11
3043.603942158353
 21
5319.471105983396
 31
0.0
  0
LINE
  5
2030A
330
1F
100
AcDbEntity
  8
D-STR-DIM
  6
Continuous
100
AcDbLine
 10
3038.604142178248
 20
5499.471105187385
 30
0.0
 11
3038.604142178248
 21
5289.471506102799
 31
0.0
  0
LINE
  5
2030B
330
1F
100
AcDbEntity
  8
D-STR-DIM
  6
Continuous
100
AcDbLine
 10
2538.603944168286
 20
6674.471100670013
 30
0.0
 11
2538.603944168286
 21
7384.471097764566
 31
0.0
  0
TEXT
  5
2030C
330
1F
100
AcDbEntity
  8
D-STR-DIM
100
AcDbText
 10
2421.753944633378
 20
5920.470903591382
 30
0.0
 40
70.0
  1
100
100
AcDbText
  0
LINE
  5
2030D
330
1F
100
AcDbEntity
  8
D-STR-DIM
  6
Continuous
100
AcDbLine
 10
2588.604143969276
 20
5904.47110365506
 30
0.0
 11
2421.754544633361
 21
5904.47110365506
 31
0.0
  0
LINE
  5
2030E
330
1F
100
AcDbEntity
  8
D-STR-DIM
  6
Continuous
100
AcDbLine
 10
2478.603944168286
 20
6154.470902660046
 30
0.0
 11
2108.603945879712
 21
6154.470902660046
 31
0.0
  0
LINE
  5
2030F
330
1F
100
AcDbEntity
  8
D-STR-DIM
  6
Continuous
100
AcDbLine
 10
2518.603944168285
 20
6454.471301466026
 30
0.0
 11
2108.603945879712
 21
6454.471301466026
 31
0.0
  0
LINE
  5
20310
330
1F
100
AcDbEntity
  8
D-STR-HTXT
  6
Continuous
100
AcDbLine
 10
2288.604145163294
 20
5904.470103655063
 30
0.0
 11
2538.603944168286
 21
6154.470902660046
 31
0.0
  0
TEXT
  5
20311
330
1F
100
AcDbEntity
  8
D-STR-HTXT
100
AcDbText
 10
1863.332129228617
 20
5920.470903591382
 30
0.0
 40
70.0
  1
　連結金具
100
AcDbText
  0
LINE
  5
20312
330
1F
100
AcDbEntity
  8
D-STR-HTXT
  6
Continuous
100
AcDbLine
 10
2288.604145163294
 20
5904.47110365506
 30
0.0
 11
1922.989325236471
 21
5904.47110365506
 31
0.0
  0
TEXT
  5
20313
330
1F
100
AcDbEntity
  8
D-STR-DIM
100
AcDbText
 10
2122.603745824012
 20
6217.611502408741
 30
0.0
 40
70.0
  1
300
 50
90.0
100
AcDbText
  0
LINE
  5
20314
330
1F
100
AcDbEntity
  8
D-STR-DIM
  6
Continuous
100
AcDbLine
 10
2138.603945760311
 20
6154.470902660046
 30
0.0
 11
2138.603945760311
 21
6304.471102063035
 31
0.0
  0
CIRCLE
  5
20315
330
1F
100
AcDbEntity
  8
D-STR-DIM
  6
Continuous
100
AcDbCircle
 10
2138.603945760311
 20
6154.470902660046
 30
0.0
 40
5.999997976119627
  0
CIRCLE
  5
20316
330
1F
100
AcDbEntity
  8
D-STR-DIM
  6
Continuous
100
AcDbCircle
 10
2138.603945760311
 20
6454.471301466026
 30
0.0
 40
5.999997976119627
  0
LINE
  5
20317
330
1F
100
AcDbEntity
  8
D-STR-DIM
  6
Continuous
100
AcDbLine
 10
2138.603945760311
 20
6454.471301466026
 30
0.0
 11
2138.603945760311
 21
6304.471102063035
 31
0.0
  0
LINE
  5
20318
330
1F
100
AcDbEntity
  8
D-BMK
  6
CENTER2
100
AcDbLine
 10
2748.603943332473
 20
6154.470902660046
 30
0.0
 11
3078.60394201905
 21
6154.470902660046
 31
0.0
  0
LINE
  5
20319
330
1F
100
AcDbEntity
  8
D-STR-STR2
  6
Continuous
100
AcDbLine
 10
2778.603943213068
 20
6289.471302122736
 30
0.0
 11
3048.603742138458
 21
6289.471302122736
 31
0.0
  0
LINE
  5
2031A
330
1F
100
AcDbEntity
  8
D-STR-STR2
  6
Continuous
100
AcDbLine
 10
2778.603943213068
 20
6019.471503197352
 30
0.0
 11
3048.603742138458
 21
6019.471503197352
 31
0.0
  0
LINE
  5
2031B
330
1F
100
AcDbEntity
  8
D-STR-STR2
  6
Continuous
100
AcDbLine
 10
2788.603943173269
 20
6029.471103157552
 30
0.0
 11
3038.604142178248
 21
6029.471103157552
 31
0.0
  0
LINE
  5
2031C
330
1F
100
AcDbEntity
  8
D-STR-STR2
  6
Continuous
100
AcDbLine
 10
2788.603943173269
 20
6279.470702162539
 30
0.0
 11
3038.604142178248
 21
6279.470702162539
 31
0.0
  0
LINE
  5
2031D
330
1F
100
AcDbEntity
  8
D-STR-STR2
  6
Continuous
100
AcDbLine
 10
2778.603943213068
 20
6289.471302122736
 30
0.0
 11
2778.603943213068
 21
6019.471503197352
 31
0.0
  0
LINE
  5
2031E
330
1F
100
AcDbEntity
  8
D-STR-STR2
  6
Continuous
100
AcDbLine
 10
2788.603943173269
 20
6279.470702162539
 30
0.0
 11
2788.603943173269
 21
6029.471103157552
 31
0.0
  0
LINE
  5
2031F
330
1F
100
AcDbEntity
  8
D-STR-DIM
  6
Continuous
100
AcDbLine
 10
2643.604143750374
 20
5904.47110365506
 30
0.0
 11
2771.865543239929
 21
5904.47110365506
 31
0.0
  0
CIRCLE
  5
20320
330
1F
100
AcDbEntity
  8
D-STR-DIM
  6
Continuous
100
AcDbCircle
 10
2648.603943730479
 20
5904.47110365506
 30
0.0
 40
5.999997976119627
  0
CIRCLE
  5
20321
330
1F
100
AcDbEntity
  8
D-STR-DIM
  6
Continuous
100
AcDbCircle
 10
2638.603743770284
 20
5904.47110365506
 30
0.0
 40
5.999997976119627
  0
CIRCLE
  5
20322
330
1F
100
AcDbEntity
  8
D-STR-DIM
  6
Continuous
100
AcDbCircle
 10
2538.603944168286
 20
5904.47110365506
 30
0.0
 40
5.999997976119627
  0
LINE
  5
20323
330
1F
100
AcDbEntity
  8
D-STR-DIM
  6
Continuous
100
AcDbLine
 10
2648.603943730479
 20
5904.47110365506
 30
0.0
 11
2643.604143750374
 21
5904.47110365506
 31
0.0
  0
LINE
  5
20324
330
1F
100
AcDbEntity
  8
D-STR-DIM
  6
Continuous
100
AcDbLine
 10
2638.603743770284
 20
5904.47110365506
 30
0.0
 11
2643.604143750374
 21
5904.47110365506
 31
0.0
  0
LINE
  5
20325
330
1F
100
AcDbEntity
  8
D-STR-DIM
  6
Continuous
100
AcDbLine
 10
2638.603743770284
 20
5904.47110365506
 30
0.0
 11
2588.604143969276
 21
5904.47110365506
 31
0.0
  0
LINE
  5
20326
330
1F
100
AcDbEntity
  8
D-STR-DIM
  6
Continuous
100
AcDbLine
 10
2538.603944168286
 20
5904.47110365506
 30
0.0
 11
2588.604143969276
 21
5904.47110365506
 31
0.0
  0
LINE
  5
20327
330
1F
100
AcDbEntity
  8
D-STR-HTXT
  6
Continuous
100
AcDbLine
 10
2505.332144300706
 20
6131.173902752771
 30
0.0
 11
2538.603944168286
 21
6154.470902660046
 31
0.0
  0
LINE
  5
20328
330
1F
100
AcDbEntity
  8
D-BMK
  6
CENTER2
100
AcDbLine
 10
2508.604144287681
 20
6154.470902660046
 30
0.0
 11
2652.604343714561
 21
6154.470902660046
 31
0.0
  0
LINE
  5
20329
330
1F
100
AcDbEntity
  8
D-STR-STR2
  6
Continuous
100
AcDbLine
 10
2622.60414383397
 20
6204.471502461039
 30
0.0
 11
2622.60414383397
 21
6104.471102859047
 31
0.0
  0
LINE
  5
2032A
330
1F
100
AcDbEntity
  8
D-STR-STR2
  6
Continuous
100
AcDbLine
 10
2538.603944168286
 20
6204.471502461039
 30
0.0
 11
2622.60414383397
 21
6204.471502461039
 31
0.0
  0
LINE
  5
2032B
330
1F
100
AcDbEntity
  8
D-STR-STR2
  6
Continuous
100
AcDbLine
 10
2622.60414383397
 20
6104.471102859047
 30
0.0
 11
2538.603944168286
 21
6104.471102859047
 31
0.0
  0
TEXT
  5
2032C
330
1F
100
AcDbEntity
  8
D-STR-DIM
100
AcDbText
 10
2662.145943676597
 20
5920.470903591382
 30
0.0
 40
70.0
  1
10
100
AcDbText
  0
CIRCLE
  5
2032D
330
1F
100
AcDbEntity
  8
D-STR-STR2
  6
Continuous
100
AcDbCircle
 10
2603.603943909582
 20
6378.471301768512
 30
0.0
 40
9.999997960199371
  0
LINE
  5
2032E
330
1F
100
AcDbEntity
  8
D-STR
  6
Continuous
100
AcDbLine
 10
2648.603943730479
 20
6454.471301466026
 30
0.0
 11
2638.603743770284
 21
6444.470701505828
 31
0.0
  0
LINE
  5
2032F
330
1F
100
AcDbEntity
  8
D-STR
  6
Continuous
100
AcDbLine
 10
2538.603944168286
 20
6444.470701505828
 30
0.0
 11
2638.603743770284
 21
6444.470701505828
 31
0.0
  0
LINE
  5
20330
330
1F
100
AcDbEntity
  8
D-STR
  6
Continuous
100
AcDbLine
 10
2538.603944168286
 20
6454.471301466026
 30
0.0
 11
2648.603943730479
 21
6454.471301466026
 31
0.0
  0
LINE
  5
20331
330
1F
100
AcDbEntity
  8
D-BMK
  6
CENTER2
100
AcDbLine
 10
2643.604143750374
 20
6378.471301768512
 30
0.0
 11
2563.604144068777
 21
6378.471301768512
 31
0.0
  0
LINE
  5
20332
330
1F
100
AcDbEntity
  8
D-BMK
  6
CENTER2
100
AcDbLine
 10
2603.603943909582
 20
6418.471501609309
 30
0.0
 11
2603.603943909582
 21
6338.471101927712
 31
0.0
  0
LINE
  5
20333
330
1F
100
AcDbEntity
  8
D-BMK
  6
CENTER2
100
AcDbLine
 10
2913.603942675761
 20
6319.470902003335
 30
0.0
 11
2913.603942675761
 21
5989.470903316756
 31
0.0
  0
LINE
  5
20334
330
1F
100
AcDbEntity
  8
D-STR-STR2
  6
Continuous
100
AcDbLine
 10
3048.603742138458
 20
6289.471302122736
 30
0.0
 11
3048.603742138458
 21
6019.471503197352
 31
0.0
  0
LINE
  5
20335
330
1F
100
AcDbEntity
  8
D-STR-STR2
  6
Continuous
100
AcDbLine
 10
3038.604142178248
 20
6279.470702162539
 30
0.0
 11
3038.604142178248
 21
6029.471103157552
 31
0.0
  0
LINE
  5
20336
330
1F
100
AcDbEntity
  8
D-STR-DIM
  6
Continuous
100
AcDbLine
 10
2913.603942675761
 20
7054.471099077987
 30
0.0
 11
2726.104143422017
 21
7054.471099077987
 31
0.0
  0
TEXT
  5
20338
330
1F
100
AcDbEntity
  8
D-STR-DIM
100
AcDbText
 10
2639.24394376779
 20
7070.470699014308
 30
0.0
 40
70.0
  1
375
100
AcDbText
  0
LINE
  5
20339
330
1F
100
AcDbEntity
  8
D-STR-DIM
  6
Continuous
100
AcDbLine
 10
2538.603944168286
 20
7054.471099077987
 30
0.0
 11
2726.104143422017
 21
7054.471099077987
 31
0.0
  0
CIRCLE
  5
2033A
330
1F
100
AcDbEntity
  8
D-STR-DIM
  6
Continuous
100
AcDbCircle
 10
2538.603944168286
 20
7054.471099077987
 30
0.0
 40
5.999997976119627
  0
LINE
  5
2033B
330
1F
100
AcDbEntity
  8
D-STR-DIM
  6
Continuous
100
AcDbLine
 10
2913.603942675761
 20
6674.471100670013
 30
0.0
 11
2913.603942675761
 21
7084.470698958589
 31
0.0
  0
CIRCLE
  5
2033C
330
1F
100
AcDbEntity
  8
D-STR-DIM
  6
Continuous
100
AcDbCircle
 10
2913.603942675761
 20
7054.471099077987
 30
0.0
 40
5.999997976119627
  0
LINE
  5
2033D
330
1F
100
AcDbEntity
  8
D-STR-DIM
  6
Continuous
100
AcDbLine
 10
2538.603944168286
 20
7354.471497883968
 30
0.0
 11
2913.603942675761
 21
7354.471497883968
 31
0.0
  0
CIRCLE
  5
2033E
330
1F
100
AcDbEntity
  8
D-STR-DIM
  6
Continuous
100
AcDbCircle
 10
2538.603944168286
 20
7354.471497883968
 30
0.0
 40
5.999997976119627
  0
TEXT
  5
2033F
330
1F
100
AcDbEntity
  8
D-STR-DIM
100
AcDbText
 10
2826.743743021461
 20
7370.471097820288
 30
0.0
 40
70.0
  1
750
100
AcDbText
  0
LINE
  5
20341
330
1F
100
AcDbEntity
  8
D-STR-DIM
  6
Continuous
100
AcDbLine
 10
8338.603741083931
 20
8354.471093903905
 30
0.0
 11
8338.603741083931
 21
9104.471090918856
 31
0.0
  0
LINE
  5
20342
330
1F
100
AcDbEntity
  8
D-STR-DIM
  6
Continuous
100
AcDbLine
 10
8038.603782277961
 20
8604.470692908892
 30
0.0
 11
8038.603782277961
 21
9104.471090918856
 31
0.0
  0
LINE
  5
20343
330
1F
100
AcDbEntity
  8
D-STR-HTXT
  6
Continuous
100
AcDbLine
 10
7158.235725781847
 20
8644.813892748322
 30
0.0
 11
7181.532785689161
 21
8611.542092880744
 31
0.0
  0
LINE
  5
20344
330
1F
100
AcDbEntity
  8
D-STR-HTXT
  6
Continuous
100
AcDbLine
 10
6518.971328326201
 20
8644.813892748322
 30
0.0
 11
6495.674328418904
 21
8611.542092880744
 31
0.0
  0
LINE
  5
20345
330
1F
100
AcDbEntity
  8
D-STR-HTXT
  6
Continuous
100
AcDbLine
 10
6838.603727054016
 20
8954.470891515867
 30
0.0
 11
7181.532165689169
 21
8611.543092880742
 31
0.0
  0
LINE
  5
20346
330
1F
100
AcDbEntity
  8
D-STR-HTXT
  6
Continuous
100
AcDbLine
 10
6495.675328418947
 20
8611.542092880744
 30
0.0
 11
6838.603727054016
 21
8954.470891515867
 31
0.0
  0
LINE
  5
20347
330
1F
100
AcDbEntity
  8
D-BMK
  6
CENTER2
100
AcDbLine
 10
7188.603745661002
 20
8564.470693068093
 30
0.0
 11
7188.603745661002
 21
8644.470892749687
 31
0.0
  0
LINE
  5
20348
330
1F
100
AcDbEntity
  8
D-BMK
  6
CENTER2
100
AcDbLine
 10
6488.603728447042
 20
8564.470693068093
 30
0.0
 11
6488.603728447042
 21
8644.470892749687
 31
0.0
  0
LINE
  5
20349
330
1F
100
AcDbEntity
  8
D-STR
  6
Continuous
100
AcDbLine
 10
7638.603723869969
 20
8354.471093903905
 30
0.0
 11
7638.603723869969
 21
9854.471087933809
 31
0.0
  0
LINE
  5
2034A
330
1F
100
AcDbEntity
  8
D-STR
  6
Continuous
100
AcDbLine
 10
6038.603930238061
 20
8354.471093903905
 30
0.0
 11
6038.603930238061
 21
9854.471087933809
 31
0.0
  0
LINE
  5
2034B
330
1F
100
AcDbEntity
  8
D-STR-DIM
  6
Continuous
100
AcDbLine
 10
6018.603930238061
 20
6454.471301466026
 30
0.0
 11
5608.603931949488
 21
6454.471301466026
 31
0.0
  0
LINE
  5
2034C
330
1F
100
AcDbEntity
  8
D-STR-DIM
  6
Continuous
100
AcDbLine
 10
6018.603930238061
 20
6378.471301768512
 30
0.0
 11
5608.603931949488
 21
6378.471301768512
 31
0.0
  0
LINE
  5
2034D
330
1F
100
AcDbEntity
  8
D-STR-DIM
  6
Continuous
100
AcDbLine
 10
6018.603930238061
 20
5037.471107105775
 30
0.0
 11
5608.603931949488
 21
5037.471107105775
 31
0.0
  0
LINE
  5
2034E
330
1F
100
AcDbEntity
  8
D-STR-DIM
  6
Continuous
100
AcDbLine
 10
6018.603930238061
 20
4954.47130743612
 30
0.0
 11
5608.603931949488
 21
4954.47130743612
 31
0.0
  0
LINE
  5
20351
330
1F
100
AcDbEntity
  8
D-STR-DIM
  6
Continuous
100
AcDbLine
 10
6008.603730357471
 20
4754.471308232132
 30
0.0
 11
4068.603938078789
 21
4754.471308232132
 31
0.0
  0
LINE
  5
20352
330
1F
100
AcDbEntity
  8
D-STR-DIM
  6
Continuous
100
AcDbLine
 10
6008.603730357471
 20
6654.471100670012
 30
0.0
 11
4068.603938078789
 21
6654.471100670012
 31
0.0
  0
TEXT
  5
20353
330
1F
100
AcDbEntity
  8
D-STR-DIM
100
AcDbText
 10
4422.604136669852
 20
5817.611504000766
 30
0.0
 40
70.0
  1
500
 50
90.0
100
AcDbText
  0
LINE
  5
20354
330
1F
100
AcDbEntity
  8
D-STR-DIM
  6
Continuous
100
AcDbLine
 10
4438.603736606169
 20
5654.471504650075
 30
0.0
 11
4438.603736606169
 21
5904.47110365506
 31
0.0
  0
LINE
  5
20355
330
1F
100
AcDbEntity
  8
D-STR-DIM
  6
Continuous
100
AcDbLine
 10
5638.60393183009
 20
6378.471301768512
 30
0.0
 11
5638.60393183009
 21
5707.971304437144
 31
0.0
  0
LINE
  5
20356
330
1F
100
AcDbEntity
  8
D-STR-DIM
  6
Continuous
100
AcDbLine
 10
5238.603933422113
 20
6654.471100670012
 30
0.0
 11
5238.603933422113
 21
5704.471304451073
 31
0.0
  0
LINE
  5
20357
330
1F
100
AcDbEntity
  8
D-STR
  6
Continuous
100
AcDbLine
 10
3938.603938596197
 20
6444.470701505828
 30
0.0
 11
3938.603938596197
 21
4964.470707396322
 31
0.0
  0
LINE
  5
20358
330
1F
100
AcDbEntity
  8
D-STR
  6
Continuous
100
AcDbLine
 10
3188.603941581244
 20
6444.470701505828
 30
0.0
 11
3188.603941581244
 21
4964.470707396322
 31
0.0
  0
LINE
  5
20359
330
1F
100
AcDbEntity
  8
D-STR
  6
Continuous
100
AcDbLine
 10
3388.603940785233
 20
6444.470701505828
 30
0.0
 11
3388.603940785233
 21
4964.470707396322
 31
0.0
  0
LINE
  5
2035A
330
1F
100
AcDbEntity
  8
D-STR
  6
Continuous
100
AcDbLine
 10
4038.60393819819
 20
6654.471100670012
 30
0.0
 11
4038.60393819819
 21
4754.471308232132
 31
0.0
  0
LINE
  5
2035B
330
1F
100
AcDbEntity
  8
D-STR
  6
Continuous
100
AcDbLine
 10
3398.60394074543
 20
6454.471301466026
 30
0.0
 11
3398.60394074543
 21
4954.47130743612
 31
0.0
  0
LINE
  5
2035C
330
1F
100
AcDbEntity
  8
D-STR
  6
Continuous
100
AcDbLine
 10
3178.603941621045
 20
6454.471301466026
 30
0.0
 11
3178.603941621045
 21
4954.47130743612
 31
0.0
  0
LINE
  5
2035D
330
1F
100
AcDbEntity
  8
D-STR
  6
Continuous
100
AcDbLine
 10
3928.603938635997
 20
6454.471301466026
 30
0.0
 11
3928.603938635997
 21
4954.47130743612
 31
0.0
  0
LINE
  5
2035E
330
1F
100
AcDbEntity
  8
D-STR-DIM
  6
Continuous
100
AcDbLine
 10
4058.603938198189
 20
5654.471504650075
 30
0.0
 11
4468.60393648676
 21
5654.471504650075
 31
0.0
  0
LINE
  5
2035F
330
1F
100
AcDbEntity
  8
D-STR-DIM
  6
Continuous
100
AcDbLine
 10
4058.603938198189
 20
4954.47130743612
 30
0.0
 11
4468.60393648676
 21
4954.47130743612
 31
0.0
  0
LINE
  5
20360
330
1F
100
AcDbEntity
  8
D-STR-DIM
  6
Continuous
100
AcDbLine
 10
4038.60393819819
 20
4734.471308232133
 30
0.0
 11
4038.60393819819
 21
4024.471311137579
 31
0.0
  0
LINE
  5
20361
330
1F
100
AcDbEntity
  8
D-STR-DIM
  6
Continuous
100
AcDbLine
 10
3973.603738456899
 20
4734.471308232133
 30
0.0
 11
3973.603738456899
 21
4324.470709943562
 31
0.0
  0
LINE
  5
20362
330
1F
100
AcDbEntity
  8
D-STR-DIM
  6
Continuous
100
AcDbLine
 10
3338.604140984229
 20
4734.471308232133
 30
0.0
 11
3338.604140984229
 21
4324.470709943562
 31
0.0
  0
LINE
  5
20363
330
1F
100
AcDbEntity
  8
D-STR-DIM
  6
Continuous
100
AcDbLine
 10
3238.604141382233
 20
4734.471308232133
 30
0.0
 11
3238.604141382233
 21
4324.470709943562
 31
0.0
  0
LINE
  5
20364
330
1F
100
AcDbEntity
  8
D-STR-DIM
  6
Continuous
100
AcDbLine
 10
4038.60393819819
 20
4054.471111018178
 30
0.0
 11
3288.603941183236
 21
4054.471111018178
 31
0.0
  0
LINE
  5
20365
330
1F
100
AcDbEntity
  8
D-STR-DIM
  6
Continuous
100
AcDbLine
 10
3973.603738456899
 20
4354.471509824157
 30
0.0
 11
3656.103939720566
 21
4354.471509824157
 31
0.0
  0
LINE
  5
20366
330
1F
100
AcDbEntity
  8
D-STR-DIM
  6
Continuous
100
AcDbLine
 10
3338.604140984229
 20
4354.471509824157
 30
0.0
 11
3656.103939720566
 21
4354.471509824157
 31
0.0
  0
TEXT
  5
20367
330
1F
100
AcDbEntity
  8
D-STR-DIM
100
AcDbText
 10
3169.743941656321
 20
4070.470710954498
 30
0.0
 40
70.0
  1
1500
100
AcDbText
  0
TEXT
  5
20368
330
1F
100
AcDbEntity
  8
D-STR-DIM
100
AcDbText
 10
3201.743741528936
 20
4258.151310207519
 30
0.0
 40
70.0
  1
100
100
AcDbText
  0
LINE
  5
20369
330
1F
100
AcDbEntity
  8
D-STR-DIM
  6
Continuous
100
AcDbLine
 10
3338.604140984229
 20
4354.471509824157
 30
0.0
 11
3288.603941183236
 21
4354.471509824157
 31
0.0
  0
CIRCLE
  5
2036A
330
1F
100
AcDbEntity
  8
D-STR-DIM
  6
Continuous
100
AcDbCircle
 10
3238.604141382233
 20
4354.471509824157
 30
0.0
 40
5.999997976119627
  0
LINE
  5
2036B
330
1F
100
AcDbEntity
  8
D-STR-DIM
  6
Continuous
100
AcDbLine
 10
3238.604141382233
 20
4354.471509824157
 30
0.0
 11
3288.603941183236
 21
4354.471509824157
 31
0.0
  0
CIRCLE
  5
2036C
330
1F
100
AcDbEntity
  8
D-STR-DIM
  6
Continuous
100
AcDbCircle
 10
3338.604140984229
 20
4354.471509824157
 30
0.0
 40
5.999997976119627
  0
TEXT
  5
2036D
330
1F
100
AcDbEntity
  8
D-STR-DIM
100
AcDbText
 10
3569.243740066263
 20
4370.471109760479
 30
0.0
 40
70.0
  1
635
100
AcDbText
  0
CIRCLE
  5
2036E
330
1F
100
AcDbEntity
  8
D-STR-DIM
  6
Continuous
100
AcDbCircle
 10
4038.60393819819
 20
4054.471111018178
 30
0.0
 40
5.999997976119627
  0
CIRCLE
  5
2036F
330
1F
100
AcDbEntity
  8
D-STR-DIM
  6
Continuous
100
AcDbCircle
 10
3973.603738456899
 20
4354.471509824157
 30
0.0
 40
5.999997976119627
  0
LINE
  5
20370
330
1F
100
AcDbEntity
  8
D-STR-DIM
  6
Continuous
100
AcDbLine
 10
3973.603738456899
 20
4354.471509824157
 30
0.0
 11
4006.104138327534
 21
4354.471509824157
 31
0.0
  0
TEXT
  5
20371
330
1F
100
AcDbEntity
  8
D-STR-DIM
100
AcDbText
 10
3983.744138416558
 20
4258.151310207519
 30
0.0
 40
70.0
  1
65
100
AcDbText
  0
CIRCLE
  5
20372
330
1F
100
AcDbEntity
  8
D-STR-DIM
  6
Continuous
100
AcDbCircle
 10
4038.60393819819
 20
4354.471509824157
 30
0.0
 40
5.999997976119627
  0
LINE
  5
20373
330
1F
100
AcDbEntity
  8
D-STR-DIM
  6
Continuous
100
AcDbLine
 10
4038.60393819819
 20
4354.471509824157
 30
0.0
 11
4006.104138327534
 21
4354.471509824157
 31
0.0
  0
LINE
  5
20374
330
1F
100
AcDbEntity
  8
D-STR
  6
Continuous
100
AcDbLine
 10
3398.60394074543
 20
5054.470707038117
 30
0.0
 11
3928.603938635997
 21
5054.470707038117
 31
0.0
  0
LINE
  5
20375
330
1F
100
AcDbEntity
  8
D-BMK
  6
CENTER2
100
AcDbLine
 10
3498.603940347423
 20
5654.471504650075
 30
0.0
 11
3828.603939034004
 21
5654.471504650075
 31
0.0
  0
LINE
  5
20376
330
1F
100
AcDbEntity
  8
D-STR
  6
Continuous
100
AcDbLine
 10
3188.603941581244
 20
4964.470707396322
 30
0.0
 11
3388.603940785233
 21
4964.470707396322
 31
0.0
  0
LINE
  5
20377
330
1F
100
AcDbEntity
  8
D-BMK
  6
CENTER2
100
AcDbLine
 10
3378.603740825037
 20
5037.471107105775
 30
0.0
 11
3298.603941143437
 21
5037.471107105775
 31
0.0
  0
LINE
  5
20378
330
1F
100
AcDbEntity
  8
D-STR
  6
Continuous
100
AcDbLine
 10
3178.603941621045
 20
4954.47130743612
 30
0.0
 11
3398.60394074543
 21
4954.47130743612
 31
0.0
  0
CIRCLE
  5
20379
330
1F
100
AcDbEntity
  8
D-STR-STR2
  6
Continuous
100
AcDbCircle
 10
3238.604141382233
 20
5037.471107105775
 30
0.0
 40
9.999997960199371
  0
LINE
  5
2037A
330
1F
100
AcDbEntity
  8
D-BMK
  6
CENTER2
100
AcDbLine
 10
3278.603741223044
 20
5037.471107105775
 30
0.0
 11
3198.603941541442
 21
5037.471107105775
 31
0.0
  0
LINE
  5
2037B
330
1F
100
AcDbEntity
  8
D-BMK
  6
CENTER2
100
AcDbLine
 10
3238.604141382233
 20
5077.471306946573
 30
0.0
 11
3238.604141382233
 21
4997.47090726498
 31
0.0
  0
LINE
  5
2037C
330
1F
100
AcDbEntity
  8
D-STR
  6
Continuous
100
AcDbLine
 10
3178.603941621045
 20
4954.470307436125
 30
0.0
 11
3188.603941581244
 21
4964.470707396322
 31
0.0
  0
CIRCLE
  5
2037D
330
1F
100
AcDbEntity
  8
D-STR-STR2
  6
Continuous
100
AcDbCircle
 10
3338.604140984229
 20
5037.471107105775
 30
0.0
 40
9.999997960199371
  0
LINE
  5
2037E
330
1F
100
AcDbEntity
  8
D-STR
  6
Continuous
100
AcDbLine
 10
3388.603940785233
 20
4964.470707396322
 30
0.0
 11
3398.60294074546
 21
4954.47130743612
 31
0.0
  0
LINE
  5
2037F
330
1F
100
AcDbEntity
  8
D-BMK
  6
CENTER2
100
AcDbLine
 10
3338.604140984229
 20
5077.471306946573
 30
0.0
 11
3338.604140984229
 21
4997.47090726498
 31
0.0
  0
TEXT
  5
20380
330
1F
100
AcDbEntity
  8
D-STR-DIM
100
AcDbText
 10
3338.74374098371
 20
5808.151104038421
 30
0.0
 40
70.0
  1
10
100
AcDbText
  0
LINE
  5
20381
330
1F
100
AcDbEntity
  8
D-STR-STR2
  6
Continuous
100
AcDbLine
 10
3788.603739193212
 20
5779.471304152568
 30
0.0
 11
3788.603739193212
 21
5529.470705147586
 31
0.0
  0
LINE
  5
20382
330
1F
100
AcDbEntity
  8
D-STR-STR2
  6
Continuous
100
AcDbLine
 10
3538.604140188216
 20
5779.471304152568
 30
0.0
 11
3538.604140188216
 21
5529.470705147586
 31
0.0
  0
LINE
  5
20383
330
1F
100
AcDbEntity
  8
D-BMK
  6
CENTER2
100
AcDbLine
 10
3663.603939690715
 20
5819.471503993366
 30
0.0
 11
3663.603939690715
 21
5489.471505306787
 31
0.0
  0
LINE
  5
20384
330
1F
100
AcDbEntity
  8
D-STR-STR2
  6
Continuous
100
AcDbLine
 10
3798.603739153409
 20
5789.470904112768
 30
0.0
 11
3798.603739153409
 21
5519.471105187385
 31
0.0
  0
LINE
  5
20385
330
1F
100
AcDbEntity
  8
D-STR-STR2
  6
Continuous
100
AcDbLine
 10
3528.603940228022
 20
5789.470904112768
 30
0.0
 11
3528.603940228022
 21
5519.471105187385
 31
0.0
  0
LINE
  5
20386
330
1F
100
AcDbEntity
  8
D-STR-STR2
  6
Continuous
100
AcDbLine
 10
3538.604140188216
 20
5529.470705147586
 30
0.0
 11
3788.603739193212
 21
5529.470705147586
 31
0.0
  0
LINE
  5
20387
330
1F
100
AcDbEntity
  8
D-STR-STR2
  6
Continuous
100
AcDbLine
 10
3528.603940228022
 20
5519.471105187385
 30
0.0
 11
3798.603739153409
 21
5519.471105187385
 31
0.0
  0
LINE
  5
20388
330
1F
100
AcDbEntity
  8
D-STR-STR2
  6
Continuous
100
AcDbLine
 10
3538.604140188216
 20
5779.471304152568
 30
0.0
 11
3788.603739193212
 21
5779.471304152568
 31
0.0
  0
LINE
  5
20389
330
1F
100
AcDbEntity
  8
D-STR-STR2
  6
Continuous
100
AcDbLine
 10
3528.603940228022
 20
5789.470904112768
 30
0.0
 11
3798.603739153409
 21
5789.470904112768
 31
0.0
  0
LINE
  5
2038A
330
1F
100
AcDbEntity
  8
D-STR-DIM
  6
Continuous
100
AcDbLine
 10
4438.603736606169
 20
4954.47130743612
 30
0.0
 11
4438.603736606169
 21
5304.471306043098
 31
0.0
  0
CIRCLE
  5
2038B
330
1F
100
AcDbEntity
  8
D-STR-STR2
  6
Continuous
100
AcDbCircle
 10
3973.603738456899
 20
5037.471107105775
 30
0.0
 40
9.999997960199371
  0
LINE
  5
2038C
330
1F
100
AcDbEntity
  8
D-STR
  6
Continuous
100
AcDbLine
 10
4038.60393819819
 20
4964.470707396322
 30
0.0
 11
3938.603938596197
 21
4964.470707396322
 31
0.0
  0
LINE
  5
2038D
330
1F
100
AcDbEntity
  8
D-STR
  6
Continuous
100
AcDbLine
 10
4038.60393819819
 20
4954.47130743612
 30
0.0
 11
3928.603938635997
 21
4954.47130743612
 31
0.0
  0
LINE
  5
2038E
330
1F
100
AcDbEntity
  8
D-BMK
  6
CENTER2
100
AcDbLine
 10
4013.603938297691
 20
5037.471107105775
 30
0.0
 11
3933.60413861609
 21
5037.471107105775
 31
0.0
  0
LINE
  5
2038F
330
1F
100
AcDbEntity
  8
D-STR
  6
Continuous
100
AcDbLine
 10
3938.603938596197
 20
4964.471707396317
 30
0.0
 11
3928.603938635997
 21
4954.47130743612
 31
0.0
  0
LINE
  5
20390
330
1F
100
AcDbEntity
  8
D-BMK
  6
CENTER2
100
AcDbLine
 10
3973.603738456899
 20
5077.471306946573
 30
0.0
 11
3973.603738456899
 21
4997.47090726498
 31
0.0
  0
CIRCLE
  5
20391
330
1F
100
AcDbEntity
  8
D-STR-DIM
  6
Continuous
100
AcDbCircle
 10
4438.603736606169
 20
4954.47130743612
 30
0.0
 40
5.999997976119627
  0
LINE
  5
20392
330
1F
100
AcDbEntity
  8
D-STR-DIM
  6
Continuous
100
AcDbLine
 10
4438.603736606169
 20
5654.471504650075
 30
0.0
 11
4438.603736606169
 21
5304.471306043098
 31
0.0
  0
TEXT
  5
20393
330
1F
100
AcDbEntity
  8
D-STR-DIM
100
AcDbText
 10
4422.604136669852
 20
5217.610706388807
 30
0.0
 40
70.0
  1
700
 50
90.0
100
AcDbText
  0
CIRCLE
  5
20394
330
1F
100
AcDbEntity
  8
D-STR-DIM
  6
Continuous
100
AcDbCircle
 10
4438.603736606169
 20
5654.471504650075
 30
0.0
 40
5.999997976119627
  0
LINE
  5
2039A
330
1F
100
AcDbEntity
  8
D-STR-DIM
  6
Continuous
100
AcDbLine
 10
5638.60393183009
 20
5037.471107105775
 30
0.0
 11
5638.60393183009
 21
5707.971304437144
 31
0.0
  0
LINE
  5
2039B
330
1F
100
AcDbEntity
  8
D-STR-DIM
  6
Continuous
100
AcDbLine
 10
5238.603933422113
 20
4754.471308232132
 30
0.0
 11
5238.603933422113
 21
5704.471304451073
 31
0.0
  0
CIRCLE
  5
2039C
330
1F
100
AcDbEntity
  8
D-STR-DIM
  6
Continuous
100
AcDbCircle
 10
5238.603933422113
 20
4754.471308232132
 30
0.0
 40
5.999997976119627
  0
TEXT
  5
2039D
330
1F
100
AcDbEntity
  8
D-STR-DIM
100
AcDbText
 10
5622.603931893784
 20
4941.111507489293
 30
0.0
 40
70.0
  1
83
 50
90.0
100
AcDbText
  0
CIRCLE
  5
2039E
330
1F
100
AcDbEntity
  8
D-STR-DIM
  6
Continuous
100
AcDbCircle
 10
5638.60393183009
 20
5037.471107105775
 30
0.0
 40
5.999997976119627
  0
CIRCLE
  5
2039F
330
1F
100
AcDbEntity
  8
D-STR-DIM
  6
Continuous
100
AcDbCircle
 10
5638.60393183009
 20
4954.47130743612
 30
0.0
 40
5.999997976119627
  0
LINE
  5
203A0
330
1F
100
AcDbEntity
  8
D-STR-DIM
  6
Continuous
100
AcDbLine
 10
5638.60393183009
 20
5037.471107105775
 30
0.0
 11
5638.60393183009
 21
4995.970707270947
 31
0.0
  0
LINE
  5
203A1
330
1F
100
AcDbEntity
  8
D-STR-DIM
  6
Continuous
100
AcDbLine
 10
5638.60393183009
 20
4954.47130743612
 30
0.0
 11
5638.60393183009
 21
4995.970707270947
 31
0.0
  0
TEXT
  5
203A2
330
1F
100
AcDbEntity
  8
D-STR-DIM
100
AcDbText
 10
5222.603733485817
 20
5585.611304924145
 30
0.0
 40
70.0
  1
1900
 50
90.0
100
AcDbText
  0
TEXT
  5
203A3
330
1F
100
AcDbEntity
  8
D-STR-DIM
100
AcDbText
 10
5622.603931893784
 20
5589.111304910213
 30
0.0
 40
70.0
  1
1341
 50
90.0
100
AcDbText
  0
LINE
  5
203A4
330
1F
100
AcDbEntity
  8
D-STR-DIM
  6
Continuous
100
AcDbLine
 10
4058.603938198189
 20
6454.471301466026
 30
0.0
 11
4468.60393648676
 21
6454.471301466026
 31
0.0
  0
LINE
  5
203A5
330
1F
100
AcDbEntity
  8
D-STR-DIM
  6
Continuous
100
AcDbLine
 10
4098.60393819819
 20
6154.470902660046
 30
0.0
 11
4468.60393648676
 21
6154.470902660046
 31
0.0
  0
LINE
  5
203A6
330
1F
100
AcDbEntity
  8
D-STR-DIM
  6
Continuous
100
AcDbLine
 10
4038.60393819819
 20
6950.471099491915
 30
0.0
 11
4038.60393819819
 21
7384.471097764566
 31
0.0
  0
LINE
  5
203A7
330
1F
100
AcDbEntity
  8
D-STR-DIM
  6
Continuous
100
AcDbLine
 10
3288.603941183236
 20
7162.829153329818
 30
0.0
 11
3288.603941183236
 21
7384.471097764566
 31
0.0
  0
TEXT
  5
203A8
330
1F
100
AcDbEntity
  8
D-STR-DIM
100
AcDbText
 10
3805.342139126622
 20
5920.470903591382
 30
0.0
 40
70.0
  1
10
100
AcDbText
  0
TEXT
  5
203A9
330
1F
100
AcDbEntity
  8
D-STR-DIM
100
AcDbText
 10
3764.243939290216
 20
7070.470699014308
 30
0.0
 40
70.0
  1
375
100
AcDbText
  0
TEXT
  5
203AA
330
1F
100
AcDbEntity
  8
D-STR-HTXT
100
AcDbText
 10
3590.563339981472
 20
6774.470700192407
 30
0.0
 40
70.0
  1
　　（セラミック）
100
AcDbText
  0
TEXT
  5
203AB
330
1F
100
AcDbEntity
  8
D-STR-HTXT
100
AcDbText
 10
3590.563339981472
 20
6870.47069981032
 30
0.0
 40
70.0
  1
　インサート Ｍ16
100
AcDbText
  0
LINE
  5
203AC
330
1F
100
AcDbEntity
  8
D-STR-DIM
  6
Continuous
100
AcDbLine
 10
3933.60413861609
 20
5904.47110365506
 30
0.0
 11
3805.342139126622
 21
5904.47110365506
 31
0.0
  0
LINE
  5
203AD
330
1F
100
AcDbEntity
  8
D-STR-DIM
  6
Continuous
100
AcDbLine
 10
3663.603939690715
 20
7054.471099077987
 30
0.0
 11
3851.104138944446
 21
7054.471099077987
 31
0.0
  0
LINE
  5
203AE
330
1F
100
AcDbEntity
  8
D-STR-HTXT
  6
Continuous
100
AcDbLine
 10
4348.244971176187
 20
6854.471099874
 30
0.0
 11
3613.423339890486
 21
6854.471099874
 31
0.0
  0
LINE
  5
203AF
330
1F
100
AcDbEntity
  8
D-STR
  6
Continuous
100
AcDbLine
 10
3398.60394074543
 20
6354.470701864034
 30
0.0
 11
3928.603938635997
 21
6354.470701864034
 31
0.0
  0
LINE
  5
203B0
330
1F
100
AcDbEntity
  8
D-BMK
  6
CENTER2
100
AcDbLine
 10
3498.603940347423
 20
6154.470902660046
 30
0.0
 11
3828.603939034004
 21
6154.470902660046
 31
0.0
  0
LINE
  5
203B1
330
1F
100
AcDbEntity
  8
D-STR-HTXT
  6
Continuous
100
AcDbLine
 10
3244.790541357618
 20
6386.327501737241
 30
0.0
 11
3613.423339890486
 21
6854.470099874003
 31
0.0
  0
LINE
  5
203B2
330
1F
100
AcDbEntity
  8
D-STR-HTXT
  6
Continuous
100
AcDbLine
 10
3343.603940964334
 20
6387.131101734044
 30
0.0
 11
3613.423339890486
 21
6854.471099874
 31
0.0
  0
TEXT
  5
203B3
330
1F
100
AcDbEntity
  8
D-STR-DIM
100
AcDbText
 10
3201.743741528936
 20
5920.470903591382
 30
0.0
 40
70.0
  1
200
100
AcDbText
  0
LINE
  5
203B4
330
1F
100
AcDbEntity
  8
D-STR-DIM
  6
Continuous
100
AcDbLine
 10
3388.603940785233
 20
5904.47110365506
 30
0.0
 11
3288.603941183236
 21
5904.47110365506
 31
0.0
  0
CIRCLE
  5
203B5
330
1F
100
AcDbEntity
  8
D-STR-DIM
  6
Continuous
100
AcDbCircle
 10
3188.603941581244
 20
5904.47110365506
 30
0.0
 40
5.999997976119627
  0
CIRCLE
  5
203B6
330
1F
100
AcDbEntity
  8
D-STR-DIM
  6
Continuous
100
AcDbCircle
 10
3178.603941621045
 20
5904.47110365506
 30
0.0
 40
5.999997976119627
  0
LINE
  5
203B7
330
1F
100
AcDbEntity
  8
D-STR-DIM
  6
Continuous
100
AcDbLine
 10
3188.603941581244
 20
5904.47110365506
 30
0.0
 11
3288.603941183236
 21
5904.47110365506
 31
0.0
  0
LINE
  5
203B8
330
1F
100
AcDbEntity
  8
D-STR-DIM
  6
Continuous
100
AcDbLine
 10
3188.603941581244
 20
5904.47110365506
 30
0.0
 11
3183.604141601138
 21
5904.47110365506
 31
0.0
  0
LINE
  5
203B9
330
1F
100
AcDbEntity
  8
D-STR-DIM
  6
Continuous
100
AcDbLine
 10
3178.603941621045
 20
5904.47110365506
 30
0.0
 11
3183.604141601138
 21
5904.47110365506
 31
0.0
  0
CIRCLE
  5
203BA
330
1F
100
AcDbEntity
  8
D-STR-DIM
  6
Continuous
100
AcDbCircle
 10
3398.60394074543
 20
5904.47110365506
 30
0.0
 40
5.999997976119627
  0
CIRCLE
  5
203BB
330
1F
100
AcDbEntity
  8
D-STR-DIM
  6
Continuous
100
AcDbCircle
 10
3388.603940785233
 20
5904.47110365506
 30
0.0
 40
5.999997976119627
  0
LINE
  5
203BC
330
1F
100
AcDbEntity
  8
D-STR-DIM
  6
Continuous
100
AcDbLine
 10
3398.60394074543
 20
5904.47110365506
 30
0.0
 11
3393.604140765325
 21
5904.47110365506
 31
0.0
  0
LINE
  5
203BD
330
1F
100
AcDbEntity
  8
D-STR-DIM
  6
Continuous
100
AcDbLine
 10
3388.603940785233
 20
5904.47110365506
 30
0.0
 11
3393.604140765325
 21
5904.47110365506
 31
0.0
  0
LINE
  5
203BE
330
1F
100
AcDbEntity
  8
D-BMK
  6
CENTER2
100
AcDbLine
 10
3378.603740825037
 20
6378.471301768512
 30
0.0
 11
3298.603941143437
 21
6378.471301768512
 31
0.0
  0
LINE
  5
203BF
330
1F
100
AcDbEntity
  8
D-STR
  6
Continuous
100
AcDbLine
 10
3178.603941621045
 20
6454.471301466026
 30
0.0
 11
3398.60394074543
 21
6454.471301466026
 31
0.0
  0
LINE
  5
203C0
330
1F
100
AcDbEntity
  8
D-STR
  6
Continuous
100
AcDbLine
 10
3188.603941581244
 20
6444.470701505828
 30
0.0
 11
3388.603940785233
 21
6444.470701505828
 31
0.0
  0
CIRCLE
  5
203C1
330
1F
100
AcDbEntity
  8
D-STR-STR2
  6
Continuous
100
AcDbCircle
 10
3238.604141382233
 20
6378.471301768512
 30
0.0
 40
9.999997960199371
  0
LINE
  5
203C2
330
1F
100
AcDbEntity
  8
D-STR-HTXT
  6
Continuous
100
AcDbLine
 10
3263.995341281189
 20
6422.118101594794
 30
0.0
 11
3244.790541357618
 21
6386.327501737241
 31
0.0
  0
LINE
  5
203C3
330
1F
100
AcDbEntity
  8
D-BMK
  6
CENTER2
100
AcDbLine
 10
3238.604141382233
 20
6418.471501609309
 30
0.0
 11
3238.604141382233
 21
6338.471101927712
 31
0.0
  0
LINE
  5
203C4
330
1F
100
AcDbEntity
  8
D-STR
  6
Continuous
100
AcDbLine
 10
3178.603941621045
 20
6454.471301466026
 30
0.0
 11
3188.603941581244
 21
6444.470701505828
 31
0.0
  0
LINE
  5
203C5
330
1F
100
AcDbEntity
  8
D-BMK
  6
CENTER2
100
AcDbLine
 10
3278.603741223044
 20
6378.471301768512
 30
0.0
 11
3198.603941541442
 21
6378.471301768512
 31
0.0
  0
CIRCLE
  5
203C6
330
1F
100
AcDbEntity
  8
D-STR-STR2
  6
Continuous
100
AcDbCircle
 10
3338.604140984229
 20
6378.471301768512
 30
0.0
 40
9.999997960199371
  0
LINE
  5
203C7
330
1F
100
AcDbEntity
  8
D-STR-HTXT
  6
Continuous
100
AcDbLine
 10
3357.495740909101
 20
6425.298101582137
 30
0.0
 11
3343.603940964334
 21
6387.131101734044
 31
0.0
  0
LINE
  5
203C8
330
1F
100
AcDbEntity
  8
D-BMK
  6
CENTER2
100
AcDbLine
 10
3338.604140984229
 20
6418.471501609309
 30
0.0
 11
3338.604140984229
 21
6338.471101927712
 31
0.0
  0
LINE
  5
203C9
330
1F
100
AcDbEntity
  8
D-STR
  6
Continuous
100
AcDbLine
 10
3398.60294074546
 20
6454.471301466026
 30
0.0
 11
3388.603940785233
 21
6444.471701505825
 31
0.0
  0
LINE
  5
203CA
330
1F
100
AcDbEntity
  8
D-BMK
  6
CENTER2
100
AcDbLine
 10
3663.603939690715
 20
6319.470902003335
 30
0.0
 11
3663.603939690715
 21
5989.470903316756
 31
0.0
  0
LINE
  5
203CB
330
1F
100
AcDbEntity
  8
D-STR-STR2
  6
Continuous
100
AcDbLine
 10
3528.603940228022
 20
6289.471302122736
 30
0.0
 11
3528.603940228022
 21
6019.471503197352
 31
0.0
  0
LINE
  5
203CC
330
1F
100
AcDbEntity
  8
D-STR-STR2
  6
Continuous
100
AcDbLine
 10
3798.603739153409
 20
6289.471302122736
 30
0.0
 11
3798.603739153409
 21
6019.471503197352
 31
0.0
  0
LINE
  5
203CD
330
1F
100
AcDbEntity
  8
D-STR-STR2
  6
Continuous
100
AcDbLine
 10
3538.604140188216
 20
6279.470702162539
 30
0.0
 11
3538.604140188216
 21
6029.471103157552
 31
0.0
  0
LINE
  5
203CE
330
1F
100
AcDbEntity
  8
D-STR-STR2
  6
Continuous
100
AcDbLine
 10
3788.603739193212
 20
6279.470702162539
 30
0.0
 11
3788.603739193212
 21
6029.471103157552
 31
0.0
  0
LINE
  5
203CF
330
1F
100
AcDbEntity
  8
D-STR-STR2
  6
Continuous
100
AcDbLine
 10
3528.603940228022
 20
6019.471503197352
 30
0.0
 11
3798.603739153409
 21
6019.471503197352
 31
0.0
  0
LINE
  5
203D0
330
1F
100
AcDbEntity
  8
D-STR-STR2
  6
Continuous
100
AcDbLine
 10
3538.604140188216
 20
6029.471103157552
 30
0.0
 11
3788.603739193212
 21
6029.471103157552
 31
0.0
  0
LINE
  5
203D1
330
1F
100
AcDbEntity
  8
D-STR-STR2
  6
Continuous
100
AcDbLine
 10
3528.603940228022
 20
6289.471302122736
 30
0.0
 11
3798.603739153409
 21
6289.471302122736
 31
0.0
  0
LINE
  5
203D2
330
1F
100
AcDbEntity
  8
D-STR-STR2
  6
Continuous
100
AcDbLine
 10
3538.604140188216
 20
6279.470702162539
 30
0.0
 11
3788.603739193212
 21
6279.470702162539
 31
0.0
  0
LINE
  5
203D3
330
1F
100
AcDbEntity
  8
D-STR-DIM
  6
Continuous
100
AcDbLine
 10
3663.603939690715
 20
7054.471099077987
 30
0.0
 11
3288.603941183236
 21
7054.471099077987
 31
0.0
  0
LINE
  5
203D4
330
1F
100
AcDbEntity
  8
D-STR-DIM
  6
Continuous
100
AcDbLine
 10
3288.603941183236
 20
7024.471499197389
 30
0.0
 11
3288.603941183236
 21
6684.470900550611
 31
0.0
  0
TEXT
  5
203D5
330
1F
100
AcDbEntity
  8
D-STR-DIM
100
AcDbText
 10
3201.743741528936
 20
7070.470699014308
 30
0.0
 40
70.0
  1
750
100
AcDbText
  0
LINE
  5
203D6
330
1F
100
AcDbEntity
  8
D-STR-DIM
  6
Continuous
100
AcDbLine
 10
3663.603939690715
 20
6728.471500375488
 30
0.0
 11
3663.603939690715
 21
6684.470900550611
 31
0.0
  0
CIRCLE
  5
203D7
330
1F
100
AcDbEntity
  8
D-STR-DIM
  6
Continuous
100
AcDbCircle
 10
3663.603939690715
 20
7054.471099077987
 30
0.0
 40
5.999997976119627
  0
LINE
  5
203D8
330
1F
100
AcDbEntity
  8
D-STR-DIM
  6
Continuous
100
AcDbLine
 10
3663.603939690715
 20
6950.471099491915
 30
0.0
 11
3663.603939690715
 21
7084.470698958589
 31
0.0
  0
LINE
  5
203D9
330
1F
100
AcDbEntity
  8
D-STR-DIM
  6
Continuous
100
AcDbLine
 10
3988.604138397187
 20
5904.47110365506
 30
0.0
 11
4155.453337733114
 21
5904.47110365506
 31
0.0
  0
LINE
  5
203DA
330
1F
100
AcDbEntity
  8
D-STR-DIM
  6
Continuous
100
AcDbLine
 10
3938.603938596197
 20
5904.47110365506
 30
0.0
 11
3988.604138397187
 21
5904.47110365506
 31
0.0
  0
LINE
  5
203DB
330
1F
100
AcDbEntity
  8
D-BMK
  6
CENTER2
100
AcDbLine
 10
4068.603938078789
 20
6154.470902660046
 30
0.0
 11
3924.603938651974
 21
6154.470902660046
 31
0.0
  0
LINE
  5
203DC
330
1F
100
AcDbEntity
  8
D-STR-STR2
  6
Continuous
100
AcDbLine
 10
3954.603538532513
 20
6104.471102859047
 30
0.0
 11
4038.60393819819
 21
6104.471102859047
 31
0.0
  0
LINE
  5
203DD
330
1F
100
AcDbEntity
  8
D-STR-STR2
  6
Continuous
100
AcDbLine
 10
4038.60393819819
 20
6204.471502461039
 30
0.0
 11
3954.603538532513
 21
6204.471502461039
 31
0.0
  0
CIRCLE
  5
203DE
330
1F
100
AcDbEntity
  8
D-STR-DIM
  6
Continuous
100
AcDbCircle
 10
3928.603938635997
 20
5904.47110365506
 30
0.0
 40
5.999997976119627
  0
CIRCLE
  5
203DF
330
1F
100
AcDbEntity
  8
D-STR-DIM
  6
Continuous
100
AcDbCircle
 10
3938.603938596197
 20
5904.47110365506
 30
0.0
 40
5.999997976119627
  0
LINE
  5
203E0
330
1F
100
AcDbEntity
  8
D-STR-DIM
  6
Continuous
100
AcDbLine
 10
3928.603938635997
 20
5904.47110365506
 30
0.0
 11
3933.60413861609
 21
5904.47110365506
 31
0.0
  0
LINE
  5
203E1
330
1F
100
AcDbEntity
  8
D-STR-DIM
  6
Continuous
100
AcDbLine
 10
3938.603938596197
 20
5904.47110365506
 30
0.0
 11
3933.60413861609
 21
5904.47110365506
 31
0.0
  0
LINE
  5
203E2
330
1F
100
AcDbEntity
  8
D-STR-STR2
  6
Continuous
100
AcDbLine
 10
3954.603538532513
 20
6204.471502461039
 30
0.0
 11
3954.603538532513
 21
6104.471102859047
 31
0.0
  0
TEXT
  5
203E3
330
1F
100
AcDbEntity
  8
D-STR-DIM
100
AcDbText
 10
3981.733938424554
 20
5920.470903591382
 30
0.0
 40
70.0
  1
100
100
AcDbText
  0
CIRCLE
  5
203E4
330
1F
100
AcDbEntity
  8
D-STR-DIM
  6
Continuous
100
AcDbCircle
 10
4038.60393819819
 20
5904.47110365506
 30
0.0
 40
5.999997976119627
  0
LINE
  5
203E5
330
1F
100
AcDbEntity
  8
D-STR-DIM
  6
Continuous
100
AcDbLine
 10
4038.60393819819
 20
5904.47110365506
 30
0.0
 11
3988.604138397187
 21
5904.47110365506
 31
0.0
  0
CIRCLE
  5
203E6
330
1F
100
AcDbEntity
  8
D-STR-STR2
  6
Continuous
100
AcDbCircle
 10
3973.603738456899
 20
6378.471301768512
 30
0.0
 40
9.999997960199371
  0
LINE
  5
203E7
330
1F
100
AcDbEntity
  8
D-BMK
  6
CENTER2
100
AcDbLine
 10
4013.603938297691
 20
6378.471301768512
 30
0.0
 11
3933.60413861609
 21
6378.471301768512
 31
0.0
  0
LINE
  5
203E8
330
1F
100
AcDbEntity
  8
D-STR
  6
Continuous
100
AcDbLine
 10
4038.60393819819
 20
6454.471301466026
 30
0.0
 11
3928.603938635997
 21
6454.471301466026
 31
0.0
  0
LINE
  5
203E9
330
1F
100
AcDbEntity
  8
D-STR
  6
Continuous
100
AcDbLine
 10
4038.60393819819
 20
6444.470701505828
 30
0.0
 11
3938.603938596197
 21
6444.470701505828
 31
0.0
  0
LINE
  5
203EA
330
1F
100
AcDbEntity
  8
D-STR
  6
Continuous
100
AcDbLine
 10
3928.603938635997
 20
6454.471301466026
 30
0.0
 11
3938.602938596225
 21
6444.471701505825
 31
0.0
  0
LINE
  5
203EB
330
1F
100
AcDbEntity
  8
D-BMK
  6
CENTER2
100
AcDbLine
 10
3973.603738456899
 20
6418.471501609309
 30
0.0
 11
3973.603738456899
 21
6338.471101927712
 31
0.0
  0
TEXT
  5
203EC
330
1F
100
AcDbEntity
  8
D-STR-DIM
100
AcDbText
 10
4422.604136669852
 20
6217.611502408741
 30
0.0
 40
70.0
  1
300
 50
90.0
100
AcDbText
  0
LINE
  5
203ED
330
1F
100
AcDbEntity
  8
D-STR-DIM
  6
Continuous
100
AcDbLine
 10
4438.603736606169
 20
6154.470902660046
 30
0.0
 11
4438.603736606169
 21
6304.471102063035
 31
0.0
  0
CIRCLE
  5
203EE
330
1F
100
AcDbEntity
  8
D-STR-DIM
  6
Continuous
100
AcDbCircle
 10
4438.603736606169
 20
6154.470902660046
 30
0.0
 40
5.999997976119627
  0
LINE
  5
203EF
330
1F
100
AcDbEntity
  8
D-STR-DIM
  6
Continuous
100
AcDbLine
 10
4438.603736606169
 20
6154.470902660046
 30
0.0
 11
4438.603736606169
 21
5904.47110365506
 31
0.0
  0
CIRCLE
  5
203F0
330
1F
100
AcDbEntity
  8
D-STR-DIM
  6
Continuous
100
AcDbCircle
 10
4438.603736606169
 20
6454.471301466026
 30
0.0
 40
5.999997976119627
  0
LINE
  5
203F1
330
1F
100
AcDbEntity
  8
D-STR-DIM
  6
Continuous
100
AcDbLine
 10
4438.603736606169
 20
6454.471301466026
 30
0.0
 11
4438.603736606169
 21
6304.471102063035
 31
0.0
  0
LINE
  5
203F2
330
1F
100
AcDbEntity
  8
D-STR-DIM
  6
Continuous
100
AcDbLine
 10
4038.60393819819
 20
6728.471500375488
 30
0.0
 11
4038.60393819819
 21
6684.470900550611
 31
0.0
  0
LINE
  5
203F3
330
1F
100
AcDbEntity
  8
D-STR-DIM
  6
Continuous
100
AcDbLine
 10
4038.60393819819
 20
7054.471099077987
 30
0.0
 11
3851.104138944446
 21
7054.471099077987
 31
0.0
  0
CIRCLE
  5
203F4
330
1F
100
AcDbEntity
  8
D-STR-DIM
  6
Continuous
100
AcDbCircle
 10
4038.60393819819
 20
7054.471099077987
 30
0.0
 40
5.999997976119627
  0
LINE
  5
203F5
330
1F
100
AcDbEntity
  8
D-STR-DIM
  6
Continuous
100
AcDbLine
 10
4038.60393819819
 20
6950.471099491915
 30
0.0
 11
4038.60393819819
 21
7084.470698958589
 31
0.0
  0
LINE
  5
203F6
330
1F
100
AcDbEntity
  8
D-STR-DIM
  6
Continuous
100
AcDbLine
 10
4038.60393819819
 20
7354.471497883968
 30
0.0
 11
3663.603939690715
 21
7354.471497883968
 31
0.0
  0
LINE
  5
203F7
330
1F
100
AcDbEntity
  8
D-STR-DIM
  6
Continuous
100
AcDbLine
 10
3288.603941183236
 20
7354.471497883968
 30
0.0
 11
3663.603939690715
 21
7354.471497883968
 31
0.0
  0
CIRCLE
  5
203F8
330
1F
100
AcDbEntity
  8
D-STR-DIM
  6
Continuous
100
AcDbCircle
 10
3288.603941183236
 20
7354.471497883968
 30
0.0
 40
5.999997976119627
  0
TEXT
  5
203F9
330
1F
100
AcDbEntity
  8
D-STR-DIM
100
AcDbText
 10
3576.743740036412
 20
7370.471097820288
 30
0.0
 40
70.0
  1
750
100
AcDbText
  0
CIRCLE
  5
203FB
330
1F
100
AcDbEntity
  8
D-STR-DIM
  6
Continuous
100
AcDbCircle
 10
4038.60393819819
 20
7354.471497883968
 30
0.0
 40
5.999997976119627
  0
TEXT
  5
203FD
330
1F
100
AcDbEntity
  8
D-STR-DIM
100
AcDbText
 10
5622.603931893784
 20
6361.611501835613
 30
0.0
 40
70.0
  1
76
 50
90.0
100
AcDbText
  0
CIRCLE
  5
203FE
330
1F
100
AcDbEntity
  8
D-STR-DIM
  6
Continuous
100
AcDbCircle
 10
5638.60393183009
 20
6454.471301466026
 30
0.0
 40
5.999997976119627
  0
CIRCLE
  5
203FF
330
1F
100
AcDbEntity
  8
D-STR-DIM
  6
Continuous
100
AcDbCircle
 10
5638.60393183009
 20
6378.471301768512
 30
0.0
 40
5.999997976119627
  0
LINE
  5
20400
330
1F
100
AcDbEntity
  8
D-STR-DIM
  6
Continuous
100
AcDbLine
 10
5638.60393183009
 20
6454.471301466026
 30
0.0
 11
5638.60393183009
 21
6416.471701617266
 31
0.0
  0
LINE
  5
20401
330
1F
100
AcDbEntity
  8
D-STR-DIM
  6
Continuous
100
AcDbLine
 10
5638.60393183009
 20
6378.471301768512
 30
0.0
 11
5638.60393183009
 21
6416.471701617266
 31
0.0
  0
CIRCLE
  5
20402
330
1F
100
AcDbEntity
  8
D-STR-DIM
  6
Continuous
100
AcDbCircle
 10
5238.603933422113
 20
6654.471100670012
 30
0.0
 40
5.999997976119627
  0
LINE
  5
20408
330
1F
100
AcDbEntity
  8
D-STR-DIM
  6
Continuous
100
AcDbLine
 10
7513.60376436749
 20
6009.471103157553
 30
0.0
 11
7513.60376436749
 21
5849.471103873964
 31
0.0
  0
LINE
  5
20409
330
1F
100
AcDbEntity
  8
D-STR-DIM
  6
Continuous
100
AcDbLine
 10
7563.603744168481
 20
6009.471103157553
 30
0.0
 11
7563.603744168481
 21
5849.471103873964
 31
0.0
  0
LINE
  5
2040A
330
1F
100
AcDbEntity
  8
D-STR-DIM
  6
Continuous
100
AcDbLine
 10
6163.603729740561
 20
6009.471103157553
 30
0.0
 11
6163.603729740561
 21
5849.471103873964
 31
0.0
  0
LINE
  5
2040B
330
1F
100
AcDbEntity
  8
D-STR-DIM
  6
Continuous
100
AcDbLine
 10
6113.603729939564
 20
6009.471103157553
 30
0.0
 11
6113.603729939564
 21
5849.471103873964
 31
0.0
  0
LINE
  5
2040C
330
1F
100
AcDbEntity
  8
D-STR-DIM
  6
Continuous
100
AcDbLine
 10
8138.603741879943
 20
6354.470701864034
 30
0.0
 11
8138.603741879943
 21
5704.471304451073
 31
0.0
  0
LINE
  5
2040D
330
1F
100
AcDbEntity
  8
D-STR
  6
Continuous
100
AcDbLine
 10
7463.603784566497
 20
4954.47130743612
 30
0.0
 11
7463.603784566497
 21
6454.471301466026
 31
0.0
  0
LINE
  5
2040E
330
1F
100
AcDbEntity
  8
D-STR
  6
Continuous
100
AcDbLine
 10
6213.603729541559
 20
4954.47130743612
 30
0.0
 11
6213.603729541559
 21
6454.471301466026
 31
0.0
  0
LINE
  5
2040F
330
1F
100
AcDbEntity
  8
D-STR
  6
Continuous
100
AcDbLine
 10
6038.603930238061
 20
4754.471308232132
 30
0.0
 11
6038.603930238061
 21
6654.471100670012
 31
0.0
  0
LINE
  5
20410
330
1F
100
AcDbEntity
  8
D-STR
  6
Continuous
100
AcDbLine
 10
7638.603723869969
 20
4754.471308232132
 30
0.0
 11
7638.603723869969
 21
6654.471100670012
 31
0.0
  0
LINE
  5
20411
330
1F
100
AcDbEntity
  8
D-STR
  6
Continuous
100
AcDbLine
 10
6238.603929442048
 20
5054.470707038117
 30
0.0
 11
6238.603929442048
 21
6354.470701864034
 31
0.0
  0
LINE
  5
20412
330
1F
100
AcDbEntity
  8
D-STR
  6
Continuous
100
AcDbLine
 10
7438.603784665999
 20
5054.470707038117
 30
0.0
 11
7438.603784665999
 21
6354.470701864034
 31
0.0
  0
TEXT
  5
20413
330
1F
100
AcDbEntity
  8
D-STR-HTXT
100
AcDbText
 10
6513.243928348966
 20
4474.470909346552
 30
0.0
 40
70.0
  1
　ピットバルブ φ75
100
AcDbText
  0
LINE
  5
20414
330
1F
100
AcDbEntity
  8
D-STR-DIM
  6
Continuous
100
AcDbLine
 10
7138.60376586001
 20
3454.471313406216
 30
0.0
 11
6838.603727054016
 21
3454.471313406216
 31
0.0
  0
LINE
  5
20415
330
1F
100
AcDbEntity
  8
D-STR-DIM
  6
Continuous
100
AcDbLine
 10
7638.603723869969
 20
4054.471111018178
 30
0.0
 11
6838.603727054016
 21
4054.471111018178
 31
0.0
  0
LINE
  5
20416
330
1F
100
AcDbEntity
  8
D-STR-HTXT
  6
Continuous
100
AcDbLine
 10
7367.966941486303
 20
4554.471309028147
 30
0.0
 11
6536.103928257983
 21
4554.471309028147
 31
0.0
  0
LINE
  5
20417
330
1F
100
AcDbEntity
  8
D-STR-STR2
  6
Continuous
100
AcDbLine
 10
7088.603786059024
 20
4870.470507770448
 30
0.0
 11
7188.603745661002
 21
4870.470507770448
 31
0.0
  0
LINE
  5
20418
330
1F
100
AcDbEntity
  8
D-STR
  6
Continuous
100
AcDbLine
 10
6038.603930238061
 20
4754.471308232132
 30
0.0
 11
7638.603723869969
 21
4754.471308232132
 31
0.0
  0
LINE
  5
20419
330
1F
100
AcDbEntity
  8
D-STR
  6
Continuous
100
AcDbLine
 10
6338.603929044043
 20
4954.47130743612
 30
0.0
 11
7338.603825064018
 21
4954.47130743612
 31
0.0
  0
LINE
  5
2041A
330
1F
100
AcDbEntity
  8
D-STR-DIM
  6
Continuous
100
AcDbLine
 10
6538.603728248038
 20
3454.471313406216
 30
0.0
 11
6288.603929243045
 21
3454.471313406216
 31
0.0
  0
LINE
  5
2041B
330
1F
100
AcDbEntity
  8
D-STR-DIM
  6
Continuous
100
AcDbLine
 10
6038.603930238061
 20
4054.471111018178
 30
0.0
 11
6838.603727054016
 21
4054.471111018178
 31
0.0
  0
LINE
  5
2041C
330
1F
100
AcDbEntity
  8
D-STR-DIM
  6
Continuous
100
AcDbLine
 10
6038.603930238061
 20
3454.471313406216
 30
0.0
 11
6288.603929243045
 21
3454.471313406216
 31
0.0
  0
CIRCLE
  5
2041D
330
1F
100
AcDbEntity
  8
D-STR-DIM
  6
Continuous
100
AcDbCircle
 10
6038.603930238061
 20
3454.471313406216
 30
0.0
 40
5.999997976119627
  0
TEXT
  5
2041E
330
1F
100
AcDbEntity
  8
D-STR-DIM
100
AcDbText
 10
6201.743929588812
 20
3470.470913342538
 30
0.0
 40
70.0
  1
500
100
AcDbText
  0
CIRCLE
  5
2041F
330
1F
100
AcDbEntity
  8
D-STR-DIM
  6
Continuous
100
AcDbCircle
 10
6038.603930238061
 20
4054.471111018178
 30
0.0
 40
5.999997976119627
  0
TEXT
  5
20420
330
1F
100
AcDbEntity
  8
D-STR-DIM
100
AcDbText
 10
6751.743847399751
 20
3470.470913342538
 30
0.0
 40
70.0
  1
600
100
AcDbText
  0
LINE
  5
20421
330
1F
100
AcDbEntity
  8
D-STR-DIM
  6
Continuous
100
AcDbLine
 10
6538.603728248038
 20
3454.471313406216
 30
0.0
 11
6838.603727054016
 21
3454.471313406216
 31
0.0
  0
CIRCLE
  5
20422
330
1F
100
AcDbEntity
  8
D-STR-DIM
  6
Continuous
100
AcDbCircle
 10
6538.603728248038
 20
3454.471313406216
 30
0.0
 40
5.999997976119627
  0
LINE
  5
20423
330
1F
100
AcDbEntity
  8
D-STR-DIM
  6
Continuous
100
AcDbLine
 10
6538.603728248038
 20
2804.471516072857
 30
0.0
 11
6538.603728248038
 21
3484.470913286815
 31
0.0
  0
TEXT
  5
20424
330
1F
100
AcDbEntity
  8
D-STR-DIM
100
AcDbText
 10
6719.743927527092
 20
4070.470710954498
 30
0.0
 40
70.0
  1
1600
100
AcDbText
  0
LINE
  5
20425
330
1F
100
AcDbEntity
  8
D-STR
  6
Continuous
100
AcDbLine
 10
6213.604929541597
 20
4954.470307436125
 30
0.0
 11
6338.605129044081
 21
4954.470307436125
 31
0.0
  0
LINE
  5
20426
330
1F
100
AcDbEntity
  8
D-STR
  6
Continuous
100
AcDbLine
 10
6338.605129044081
 20
4954.47130743612
 30
0.0
 11
6238.60512944209
 21
5054.470707038117
 31
0.0
  0
LINE
  5
20427
330
1F
100
AcDbEntity
  8
D-STR-STR2
  6
Continuous
100
AcDbLine
 10
6133.603929859955
 20
5027.470707145578
 30
0.0
 11
6213.603729541559
 21
5027.470707145578
 31
0.0
  0
LINE
  5
20428
330
1F
100
AcDbEntity
  8
D-STR-STR2
  6
Continuous
100
AcDbLine
 10
6133.603929859955
 20
5027.470707145578
 30
0.0
 11
6133.603929859955
 21
5047.470707065976
 31
0.0
  0
LINE
  5
20429
330
1F
100
AcDbEntity
  8
D-STR-STR2
  6
Continuous
100
AcDbLine
 10
6133.603929859955
 20
5047.470707065976
 30
0.0
 11
6213.603729541559
 21
5047.470707065976
 31
0.0
  0
CIRCLE
  5
2042A
330
1F
100
AcDbEntity
  8
D-STR-DIM
  6
Continuous
100
AcDbCircle
 10
6113.603729939564
 20
5879.470903754563
 30
0.0
 40
5.999997976119627
  0
LINE
  5
2042B
330
1F
100
AcDbEntity
  8
D-STR-DIM
  6
Continuous
100
AcDbLine
 10
6113.603729939564
 20
5879.470903754563
 30
0.0
 11
6076.103930088808
 21
5879.470903754563
 31
0.0
  0
LINE
  5
2042C
330
1F
100
AcDbEntity
  8
D-STR
  6
Continuous
100
AcDbLine
 10
6038.6051302381
 20
5789.470904112768
 30
0.0
 11
6113.603729939564
 21
5779.471304152568
 31
0.0
  0
LINE
  5
2042D
330
1F
100
AcDbEntity
  8
D-STR
  6
Continuous
100
AcDbLine
 10
6038.6051302381
 20
5519.471105187385
 30
0.0
 11
6113.605129939596
 21
5529.470705147586
 31
0.0
  0
LINE
  5
2042E
330
1F
100
AcDbEntity
  8
D-STR-DIM
  6
Continuous
100
AcDbLine
 10
6076.103930088808
 20
5879.470903754563
 30
0.0
 11
5903.13033077729
 21
5879.470903754563
 31
0.0
  0
CIRCLE
  5
2042F
330
1F
100
AcDbEntity
  8
D-STR-DIM
  6
Continuous
100
AcDbCircle
 10
6038.603930238061
 20
5879.470903754563
 30
0.0
 40
5.999997976119627
  0
LINE
  5
20430
330
1F
100
AcDbEntity
  8
D-STR-DIM
  6
Continuous
100
AcDbLine
 10
6038.603930238061
 20
5879.470903754563
 30
0.0
 11
6076.103930088808
 21
5879.470903754563
 31
0.0
  0
LINE
  5
20431
330
1F
100
AcDbEntity
  8
D-STR
  6
Continuous
100
AcDbLine
 10
6163.603729740561
 20
5529.470705147586
 30
0.0
 11
6163.603729740561
 21
5779.471304152568
 31
0.0
  0
LINE
  5
20432
330
1F
100
AcDbEntity
  8
D-STR
  6
Continuous
100
AcDbLine
 10
6113.603729939564
 20
5529.470705147586
 30
0.0
 11
6113.603729939564
 21
5779.471304152568
 31
0.0
  0
TEXT
  5
20433
330
1F
100
AcDbEntity
  8
D-STR-DIM
100
AcDbText
 10
6258.254129363873
 20
5370.470705780413
 30
0.0
 40
70.0
  1
25
100
AcDbText
  0
LINE
  5
20434
330
1F
100
AcDbEntity
  8
D-STR-DIM
  6
Continuous
100
AcDbLine
 10
6226.103929491801
 20
5354.471105844094
 30
0.0
 11
6367.973928927202
 21
5354.471105844094
 31
0.0
  0
CIRCLE
  5
20435
330
1F
100
AcDbEntity
  8
D-STR-DIM
  6
Continuous
100
AcDbCircle
 10
6238.603929442048
 20
5354.471105844094
 30
0.0
 40
5.999997976119627
  0
CIRCLE
  5
20436
330
1F
100
AcDbEntity
  8
D-STR-DIM
  6
Continuous
100
AcDbCircle
 10
6213.603729541559
 20
5354.471105844094
 30
0.0
 40
5.999997976119627
  0
LINE
  5
20437
330
1F
100
AcDbEntity
  8
D-STR-DIM
  6
Continuous
100
AcDbLine
 10
6238.603929442048
 20
5354.471105844094
 30
0.0
 11
6226.103929491801
 21
5354.471105844094
 31
0.0
  0
LINE
  5
20438
330
1F
100
AcDbEntity
  8
D-STR-DIM
  6
Continuous
100
AcDbLine
 10
6213.603729541559
 20
5354.471105844094
 30
0.0
 11
6226.103929491801
 21
5354.471105844094
 31
0.0
  0
LINE
  5
20439
330
1F
100
AcDbEntity
  8
D-STR
  6
Continuous
100
AcDbLine
 10
6163.605129740594
 20
5529.470705147586
 30
0.0
 11
6238.603929442048
 21
5519.471105187385
 31
0.0
  0
LINE
  5
2043A
330
1F
100
AcDbEntity
  8
D-STR-DIM
  6
Continuous
100
AcDbLine
 10
6201.103929591301
 20
5879.470903754563
 30
0.0
 11
6372.54192890902
 21
5879.470903754563
 31
0.0
  0
CIRCLE
  5
2043B
330
1F
100
AcDbEntity
  8
D-STR-DIM
  6
Continuous
100
AcDbCircle
 10
6238.603929442048
 20
5879.470903754563
 30
0.0
 40
5.999997976119627
  0
CIRCLE
  5
2043C
330
1F
100
AcDbEntity
  8
D-STR-DIM
  6
Continuous
100
AcDbCircle
 10
6163.603729740561
 20
5879.470903754563
 30
0.0
 40
5.999997976119627
  0
LINE
  5
2043D
330
1F
100
AcDbEntity
  8
D-STR-DIM
  6
Continuous
100
AcDbLine
 10
6238.603929442048
 20
5879.470903754563
 30
0.0
 11
6201.103929591301
 21
5879.470903754563
 31
0.0
  0
LINE
  5
2043E
330
1F
100
AcDbEntity
  8
D-STR-DIM
  6
Continuous
100
AcDbLine
 10
6163.603729740561
 20
5879.470903754563
 30
0.0
 11
6201.103929591301
 21
5879.470903754563
 31
0.0
  0
LINE
  5
2043F
330
1F
100
AcDbEntity
  8
D-STR-DIM
  6
Continuous
100
AcDbLine
 10
6163.603729740561
 20
5879.470903754563
 30
0.0
 11
6138.603929840058
 21
5879.470903754563
 31
0.0
  0
LINE
  5
20440
330
1F
100
AcDbEntity
  8
D-STR-DIM
  6
Continuous
100
AcDbLine
 10
6113.603729939564
 20
5879.470903754563
 30
0.0
 11
6138.603929840058
 21
5879.470903754563
 31
0.0
  0
LINE
  5
20441
330
1F
100
AcDbEntity
  8
D-STR
  6
Continuous
100
AcDbLine
 10
6163.603729740561
 20
5779.471304152568
 30
0.0
 11
6238.603929442048
 21
5789.471904112766
 31
0.0
  0
LINE
  5
20442
330
1F
100
AcDbEntity
  8
D-STR-DIM
  6
Continuous
100
AcDbLine
 10
7008.604406377417
 20
4974.471307436121
 30
0.0
 11
7008.604406377417
 21
5384.470705724694
 31
0.0
  0
LINE
  5
20443
330
1F
100
AcDbEntity
  8
D-STR-DIM
  6
Continuous
100
AcDbLine
 10
6988.603806457035
 20
4974.471307436121
 30
0.0
 11
6988.603806457035
 21
5384.470705724694
 31
0.0
  0
LINE
  5
20444
330
1F
100
AcDbEntity
  8
D-STR-DIM
  6
Continuous
100
AcDbLine
 10
6688.603927651022
 20
4974.471307436121
 30
0.0
 11
6688.603927651022
 21
5384.470705724694
 31
0.0
  0
LINE
  5
20445
330
1F
100
AcDbEntity
  8
D-STR-DIM
  6
Continuous
100
AcDbLine
 10
6668.603927730621
 20
4974.471307436121
 30
0.0
 11
6668.603927730621
 21
5384.470705724694
 31
0.0
  0
TEXT
  5
20446
330
1F
100
AcDbEntity
  8
D-STR-HTXT
100
AcDbText
 10
6673.243927712154
 20
4570.471108964465
 30
0.0
 40
70.0
  1
　排水ピット
100
AcDbText
  0
LINE
  5
20447
330
1F
100
AcDbEntity
  8
D-STR-HTXT
  6
Continuous
100
AcDbLine
 10
6536.103928257983
 20
4554.471309028147
 30
0.0
 11
6801.103807203297
 21
4819.471907973428
 31
0.0
  0
LINE
  5
20448
330
1F
100
AcDbEntity
  8
D-STR-STR2
  6
Continuous
100
AcDbLine
 10
6688.603927651022
 20
4884.471507714724
 30
0.0
 11
6988.603806457035
 21
4884.471507714724
 31
0.0
  0
LINE
  5
20449
330
1F
100
AcDbEntity
  8
D-BMK
  6
CENTER2
100
AcDbLine
 10
6538.603728248038
 20
4984.470907316719
 30
0.0
 11
6538.603728248038
 21
4840.47090788985
 31
0.0
  0
LINE
  5
2044A
330
1F
100
AcDbEntity
  8
D-STR-STR2
  6
Continuous
100
AcDbLine
 10
6488.603728447042
 20
4954.47130743612
 30
0.0
 11
6488.603728447042
 21
4870.470507770448
 31
0.0
  0
LINE
  5
2044B
330
1F
100
AcDbEntity
  8
D-STR-STR2
  6
Continuous
100
AcDbLine
 10
6588.603728049033
 20
4870.470507770448
 30
0.0
 11
6588.603728049033
 21
4954.47130743612
 31
0.0
  0
LINE
  5
2044C
330
1F
100
AcDbEntity
  8
D-STR-STR2
  6
Continuous
100
AcDbLine
 10
6488.603728447042
 20
4870.470507770448
 30
0.0
 11
6588.603728049033
 21
4870.470507770448
 31
0.0
  0
LINE
  5
2044D
330
1F
100
AcDbEntity
  8
D-STR-STR2
  6
Continuous
100
AcDbLine
 10
6668.604927730668
 20
4954.47130743612
 30
0.0
 11
6688.605127651062
 21
4884.471507714724
 31
0.0
  0
LINE
  5
2044E
330
1F
100
AcDbEntity
  8
D-BMK
  6
CENTER2
100
AcDbLine
 10
6838.603727054016
 20
4984.470907316719
 30
0.0
 11
6838.603727054016
 21
4724.470708351535
 31
0.0
  0
LINE
  5
2044F
330
1F
100
AcDbEntity
  8
D-STR-STR2
  6
Continuous
100
AcDbLine
 10
7088.603786059024
 20
4954.47130743612
 30
0.0
 11
7088.603786059024
 21
4870.470507770448
 31
0.0
  0
LINE
  5
20450
330
1F
100
AcDbEntity
  8
D-STR-STR2
  6
Continuous
100
AcDbLine
 10
6876.103786904787
 20
4884.471507714724
 30
0.0
 11
6876.103786904787
 21
4754.471308232132
 31
0.0
  0
LINE
  5
20451
330
1F
100
AcDbEntity
  8
D-STR-STR2
  6
Continuous
100
AcDbLine
 10
6801.103807203297
 20
4884.471507714724
 30
0.0
 11
6801.103807203297
 21
4754.471308232132
 31
0.0
  0
LINE
  5
20452
330
1F
100
AcDbEntity
  8
D-STR-HTXT
  6
Continuous
100
AcDbLine
 10
6767.832207335712
 20
4796.173908066156
 30
0.0
 11
6801.103807203297
 21
4819.470907973428
 31
0.0
  0
CIRCLE
  5
20453
330
1F
100
AcDbEntity
  8
D-STR-DIM
  6
Continuous
100
AcDbCircle
 10
6926.103766705772
 20
4954.47130743612
 30
0.0
 40
5.999997976119627
  0
CIRCLE
  5
20454
330
1F
100
AcDbEntity
  8
D-STR-DIM
  6
Continuous
100
AcDbCircle
 10
6926.103766705772
 20
4884.471507714724
 30
0.0
 40
5.999997976119627
  0
TEXT
  5
20455
330
1F
100
AcDbEntity
  8
D-STR-DIM
100
AcDbText
 10
6910.103846769425
 20
4994.675507276105
 30
0.0
 40
70.0
  1
70
 50
90.00010600008364
100
AcDbText
  0
LINE
  5
20456
330
1F
100
AcDbEntity
  8
D-STR-DIM
  6
Continuous
100
AcDbLine
 10
6926.103766705772
 20
4954.47130743612
 30
0.0
 11
6926.103766705772
 21
4919.471307575424
 31
0.0
  0
LINE
  5
20457
330
1F
100
AcDbEntity
  8
D-STR-DIM
  6
Continuous
100
AcDbLine
 10
6926.103766705772
 20
4919.471307575424
 30
0.0
 11
6926.103766705772
 21
5104.395106839413
 31
0.0
  0
LINE
  5
20458
330
1F
100
AcDbEntity
  8
D-STR-DIM
  6
Continuous
100
AcDbLine
 10
6926.103766705772
 20
4884.471507714724
 30
0.0
 11
6926.103766705772
 21
4919.471307575424
 31
0.0
  0
LINE
  5
20459
330
1F
100
AcDbEntity
  8
D-STR-STR2
  6
Continuous
100
AcDbLine
 10
6988.603806457035
 20
4884.470507714727
 30
0.0
 11
7008.603786377425
 21
4954.47130743612
 31
0.0
  0
TEXT
  5
2045A
330
1F
100
AcDbEntity
  8
D-STR-DIM
100
AcDbText
 10
6719.743927527092
 20
5370.470705780413
 30
0.0
 40
70.0
  1
φ300
100
AcDbText
  0
LINE
  5
2045B
330
1F
100
AcDbEntity
  8
D-STR-DIM
  6
Continuous
100
AcDbLine
 10
6688.603927651022
 20
5354.471105844094
 30
0.0
 11
6838.603727054016
 21
5354.471105844094
 31
0.0
  0
TEXT
  5
2045C
330
1F
100
AcDbEntity
  8
D-STR-DIM
100
AcDbText
 10
6623.743927909197
 20
5258.150906227456
 30
0.0
 40
70.0
  1
20
100
AcDbText
  0
CIRCLE
  5
2045D
330
1F
100
AcDbEntity
  8
D-STR-DIM
  6
Continuous
100
AcDbCircle
 10
6688.603927651022
 20
5354.471105844094
 30
0.0
 40
5.999997976119627
  0
CIRCLE
  5
2045E
330
1F
100
AcDbEntity
  8
D-STR-DIM
  6
Continuous
100
AcDbCircle
 10
6668.603927730621
 20
5354.471105844094
 30
0.0
 40
5.999997976119627
  0
LINE
  5
2045F
330
1F
100
AcDbEntity
  8
D-STR-DIM
  6
Continuous
100
AcDbLine
 10
6688.603927651022
 20
5354.471105844094
 30
0.0
 11
6678.603927690821
 21
5354.471105844094
 31
0.0
  0
LINE
  5
20460
330
1F
100
AcDbEntity
  8
D-STR-DIM
  6
Continuous
100
AcDbLine
 10
6668.603927730621
 20
5354.471105844094
 30
0.0
 11
6678.603927690821
 21
5354.471105844094
 31
0.0
  0
LINE
  5
20461
330
1F
100
AcDbEntity
  8
D-STR-DIM
  6
Continuous
100
AcDbLine
 10
6988.603806457035
 20
5354.471105844094
 30
0.0
 11
6838.603727054016
 21
5354.471105844094
 31
0.0
  0
TEXT
  5
20462
330
1F
100
AcDbEntity
  8
D-STR-DIM
100
AcDbText
 10
6943.743826635541
 20
5258.150906227456
 30
0.0
 40
70.0
  1
20
100
AcDbText
  0
CIRCLE
  5
20463
330
1F
100
AcDbEntity
  8
D-STR-DIM
  6
Continuous
100
AcDbCircle
 10
7008.604406377417
 20
5354.471105844094
 30
0.0
 40
5.999997976119627
  0
CIRCLE
  5
20464
330
1F
100
AcDbEntity
  8
D-STR-DIM
  6
Continuous
100
AcDbCircle
 10
6988.603806457035
 20
5354.471105844094
 30
0.0
 40
5.999997976119627
  0
LINE
  5
20465
330
1F
100
AcDbEntity
  8
D-STR-DIM
  6
Continuous
100
AcDbLine
 10
7008.604406377417
 20
5354.471105844094
 30
0.0
 11
6998.604226417228
 21
5354.471105844094
 31
0.0
  0
LINE
  5
20466
330
1F
100
AcDbEntity
  8
D-STR-DIM
  6
Continuous
100
AcDbLine
 10
6988.603806457035
 20
5354.471105844094
 30
0.0
 11
6998.604226417228
 21
5354.471105844094
 31
0.0
  0
TEXT
  5
20467
330
1F
100
AcDbEntity
  8
D-STR-DIM
100
AcDbText
 10
7301.743785210696
 20
3470.470913342538
 30
0.0
 40
70.0
  1
500
100
AcDbText
  0
LINE
  5
20468
330
1F
100
AcDbEntity
  8
D-STR-DIM
  6
Continuous
100
AcDbLine
 10
7638.603723869969
 20
3454.471313406216
 30
0.0
 11
7388.603804865008
 21
3454.471313406216
 31
0.0
  0
LINE
  5
20469
330
1F
100
AcDbEntity
  8
D-STR-DIM
  6
Continuous
100
AcDbLine
 10
7138.60376586001
 20
3454.471313406216
 30
0.0
 11
7388.603804865008
 21
3454.471313406216
 31
0.0
  0
CIRCLE
  5
2046A
330
1F
100
AcDbEntity
  8
D-STR-DIM
  6
Continuous
100
AcDbCircle
 10
7138.60376586001
 20
3454.471313406216
 30
0.0
 40
5.999997976119627
  0
LINE
  5
2046B
330
1F
100
AcDbEntity
  8
D-STR-DIM
  6
Continuous
100
AcDbLine
 10
7138.60376586001
 20
2804.471516072857
 30
0.0
 11
7138.60376586001
 21
3484.470913286815
 31
0.0
  0
CIRCLE
  5
2046C
330
1F
100
AcDbEntity
  8
D-STR-DIM
  6
Continuous
100
AcDbCircle
 10
7638.603723869969
 20
3454.471313406216
 30
0.0
 40
5.999997976119627
  0
CIRCLE
  5
2046D
330
1F
100
AcDbEntity
  8
D-STR-DIM
  6
Continuous
100
AcDbCircle
 10
7638.603723869969
 20
4054.471111018178
 30
0.0
 40
5.999997976119627
  0
LINE
  5
2046E
330
1F
100
AcDbEntity
  8
D-STR-DIM
  6
Continuous
100
AcDbLine
 10
7601.103784019239
 20
5879.470903754563
 30
0.0
 11
7774.076783330781
 21
5879.470903754563
 31
0.0
  0
LINE
  5
2046F
330
1F
100
AcDbEntity
  8
D-STR-DIM
  6
Continuous
100
AcDbLine
 10
7658.603723869969
 20
5054.471707038111
 30
0.0
 11
8168.603761760548
 21
5054.471707038111
 31
0.0
  0
LINE
  5
20470
330
1F
100
AcDbEntity
  8
D-STR
  6
Continuous
100
AcDbLine
 10
7438.603784665999
 20
5054.471707038111
 30
0.0
 11
7338.603825064018
 21
4954.472307436117
 31
0.0
  0
LINE
  5
20471
330
1F
100
AcDbEntity
  8
D-STR
  6
Continuous
100
AcDbLine
 10
7463.602544566519
 20
4954.470307436125
 30
0.0
 11
7338.602585064044
 21
4954.470307436125
 31
0.0
  0
LINE
  5
20472
330
1F
100
AcDbEntity
  8
D-BMK
  6
CENTER2
100
AcDbLine
 10
7138.60376586001
 20
4984.470907316719
 30
0.0
 11
7138.60376586001
 21
4840.47090788985
 31
0.0
  0
LINE
  5
20473
330
1F
100
AcDbEntity
  8
D-STR-STR2
  6
Continuous
100
AcDbLine
 10
7188.603745661002
 20
4870.470507770448
 30
0.0
 11
7188.603745661002
 21
4954.47130743612
 31
0.0
  0
LINE
  5
20474
330
1F
100
AcDbEntity
  8
D-STR-STR2
  6
Continuous
100
AcDbLine
 10
7543.603784248093
 20
5027.477507145551
 30
0.0
 11
7463.603784566497
 21
5027.477507145551
 31
0.0
  0
LINE
  5
20475
330
1F
100
AcDbEntity
  8
D-STR-STR2
  6
Continuous
100
AcDbLine
 10
7543.603784248093
 20
5027.477507145551
 30
0.0
 11
7543.603164248101
 21
5047.477707065948
 31
0.0
  0
LINE
  5
20476
330
1F
100
AcDbEntity
  8
D-STR-STR2
  6
Continuous
100
AcDbLine
 10
7543.603164248101
 20
5047.477707065948
 30
0.0
 11
7463.603164566506
 21
5047.476707065953
 31
0.0
  0
LINE
  5
20477
330
1F
100
AcDbEntity
  8
D-STR-DIM
  6
Continuous
100
AcDbLine
 10
7476.103704516718
 20
5879.470903754563
 30
0.0
 11
7304.665825199041
 21
5879.470903754563
 31
0.0
  0
LINE
  5
20478
330
1F
100
AcDbEntity
  8
D-STR-DIM
  6
Continuous
100
AcDbLine
 10
7451.10372461623
 20
5354.471105844094
 30
0.0
 11
7309.233545180915
 21
5354.471105844094
 31
0.0
  0
TEXT
  5
20479
330
1F
100
AcDbEntity
  8
D-STR-DIM
100
AcDbText
 10
7309.233425180874
 20
5370.470705780413
 30
0.0
 40
70.0
  1
25
100
AcDbText
  0
LINE
  5
2047A
330
1F
100
AcDbEntity
  8
D-STR
  6
Continuous
100
AcDbLine
 10
7563.603744168481
 20
5529.470705147586
 30
0.0
 11
7563.603744168481
 21
5779.471304152568
 31
0.0
  0
LINE
  5
2047B
330
1F
100
AcDbEntity
  8
D-STR
  6
Continuous
100
AcDbLine
 10
7513.60376436749
 20
5529.470705147586
 30
0.0
 11
7513.60376436749
 21
5779.471304152568
 31
0.0
  0
LINE
  5
2047C
330
1F
100
AcDbEntity
  8
D-STR
  6
Continuous
100
AcDbLine
 10
7563.603744168481
 20
5529.470705147586
 30
0.0
 11
7638.603103869979
 21
5519.471105187385
 31
0.0
  0
CIRCLE
  5
2047D
330
1F
100
AcDbEntity
  8
D-STR-DIM
  6
Continuous
100
AcDbCircle
 10
7438.603784665999
 20
5354.471105844094
 30
0.0
 40
5.999997976119627
  0
CIRCLE
  5
2047E
330
1F
100
AcDbEntity
  8
D-STR-DIM
  6
Continuous
100
AcDbCircle
 10
7463.603784566497
 20
5354.471105844094
 30
0.0
 40
5.999997976119627
  0
LINE
  5
2047F
330
1F
100
AcDbEntity
  8
D-STR-DIM
  6
Continuous
100
AcDbLine
 10
7438.603784665999
 20
5354.471105844094
 30
0.0
 11
7451.10372461623
 21
5354.471105844094
 31
0.0
  0
LINE
  5
20480
330
1F
100
AcDbEntity
  8
D-STR-DIM
  6
Continuous
100
AcDbLine
 10
7463.603784566497
 20
5354.471105844094
 30
0.0
 11
7451.10372461623
 21
5354.471105844094
 31
0.0
  0
LINE
  5
20481
330
1F
100
AcDbEntity
  8
D-STR
  6
Continuous
100
AcDbLine
 10
7438.603784665999
 20
5519.471105187385
 30
0.0
 11
7513.603144367498
 21
5529.470705147586
 31
0.0
  0
LINE
  5
20482
330
1F
100
AcDbEntity
  8
D-STR-DIM
  6
Continuous
100
AcDbLine
 10
7563.603744168481
 20
5879.470903754563
 30
0.0
 11
7601.103784019239
 21
5879.470903754563
 31
0.0
  0
LINE
  5
20483
330
1F
100
AcDbEntity
  8
D-STR
  6
Continuous
100
AcDbLine
 10
7638.603723869969
 20
5789.471904112766
 30
0.0
 11
7563.603124168489
 21
5779.471304152568
 31
0.0
  0
CIRCLE
  5
20484
330
1F
100
AcDbEntity
  8
D-STR-DIM
  6
Continuous
100
AcDbCircle
 10
7438.603784665999
 20
5879.470903754563
 30
0.0
 40
5.999997976119627
  0
CIRCLE
  5
20485
330
1F
100
AcDbEntity
  8
D-STR-DIM
  6
Continuous
100
AcDbCircle
 10
7513.60376436749
 20
5879.470903754563
 30
0.0
 40
5.999997976119627
  0
CIRCLE
  5
20486
330
1F
100
AcDbEntity
  8
D-STR-DIM
  6
Continuous
100
AcDbCircle
 10
7563.603744168481
 20
5879.470903754563
 30
0.0
 40
5.999997976119627
  0
LINE
  5
20487
330
1F
100
AcDbEntity
  8
D-STR-DIM
  6
Continuous
100
AcDbLine
 10
7438.603784665999
 20
5879.470903754563
 30
0.0
 11
7476.103704516718
 21
5879.470903754563
 31
0.0
  0
LINE
  5
20488
330
1F
100
AcDbEntity
  8
D-STR-DIM
  6
Continuous
100
AcDbLine
 10
7513.60376436749
 20
5879.470903754563
 30
0.0
 11
7476.103704516718
 21
5879.470903754563
 31
0.0
  0
LINE
  5
20489
330
1F
100
AcDbEntity
  8
D-STR-DIM
  6
Continuous
100
AcDbLine
 10
7513.60376436749
 20
5879.470903754563
 30
0.0
 11
7538.60374426798
 21
5879.470903754563
 31
0.0
  0
LINE
  5
2048A
330
1F
100
AcDbEntity
  8
D-STR-DIM
  6
Continuous
100
AcDbLine
 10
7563.603744168481
 20
5879.470903754563
 30
0.0
 11
7538.60374426798
 21
5879.470903754563
 31
0.0
  0
LINE
  5
2048B
330
1F
100
AcDbEntity
  8
D-STR
  6
Continuous
100
AcDbLine
 10
7513.60376436749
 20
5779.471304152568
 30
0.0
 11
7438.603784665999
 21
5789.470904112768
 31
0.0
  0
CIRCLE
  5
2048C
330
1F
100
AcDbEntity
  8
D-STR-DIM
  6
Continuous
100
AcDbCircle
 10
7638.603723869969
 20
5879.470903754563
 30
0.0
 40
5.999997976119627
  0
LINE
  5
2048D
330
1F
100
AcDbEntity
  8
D-STR-DIM
  6
Continuous
100
AcDbLine
 10
7638.603723869969
 20
5879.470903754563
 30
0.0
 11
7601.103784019239
 21
5879.470903754563
 31
0.0
  0
LINE
  5
2048E
330
1F
100
AcDbEntity
  8
D-STR-DIM
  6
Continuous
100
AcDbLine
 10
8138.603741879943
 20
5054.471707038111
 30
0.0
 11
8138.603741879943
 21
5704.471304451073
 31
0.0
  0
TEXT
  5
2048F
330
1F
100
AcDbEntity
  8
D-STR-DIM
100
AcDbText
 10
8122.603761943645
 20
4900.756507649909
 30
0.0
 40
70.0
  1
100
 50
90.0
100
AcDbText
  0
CIRCLE
  5
20490
330
1F
100
AcDbEntity
  8
D-STR-DIM
  6
Continuous
100
AcDbCircle
 10
8138.603741879943
 20
5054.471707038111
 30
0.0
 40
5.999997976119627
  0
CIRCLE
  5
20491
330
1F
100
AcDbEntity
  8
D-STR-DIM
  6
Continuous
100
AcDbCircle
 10
8138.603741879943
 20
4954.472307436117
 30
0.0
 40
5.999997976119627
  0
LINE
  5
20492
330
1F
100
AcDbEntity
  8
D-STR-DIM
  6
Continuous
100
AcDbLine
 10
8138.603741879943
 20
5054.471707038111
 30
0.0
 11
8138.603741879943
 21
5004.471907237115
 31
0.0
  0
LINE
  5
20493
330
1F
100
AcDbEntity
  8
D-STR-DIM
  6
Continuous
100
AcDbLine
 10
8138.603741879943
 20
4954.472307436117
 30
0.0
 11
8138.603741879943
 21
5004.471907237115
 31
0.0
  0
TEXT
  5
20494
330
1F
100
AcDbEntity
  8
D-STR-DIM
100
AcDbText
 10
8122.603761943645
 20
5585.611304924145
 30
0.0
 40
70.0
  1
1300
 50
90.0
100
AcDbText
  0
LINE
  5
20495
330
1F
100
AcDbEntity
  8
D-STR-DIM
  6
Continuous
100
AcDbLine
 10
7188.603745661002
 20
7954.471295495931
 30
0.0
 11
6838.603727054016
 21
7954.471295495931
 31
0.0
  0
LINE
  5
20496
330
1F
100
AcDbEntity
  8
D-STR-DIM
  6
Continuous
100
AcDbLine
 10
7338.603205064029
 20
7054.471099077987
 30
0.0
 11
6838.603367054044
 21
7054.471099077987
 31
0.0
  0
LINE
  5
20497
330
1F
100
AcDbEntity
  8
D-STR-DIM
  6
Continuous
100
AcDbLine
 10
7438.603784665999
 20
7354.471497883968
 30
0.0
 11
6838.603727054016
 21
7354.471497883968
 31
0.0
  0
LINE
  5
20498
330
1F
100
AcDbEntity
  8
D-STR
  6
Continuous
100
AcDbLine
 10
6038.603930238061
 20
8354.471093903905
 30
0.0
 11
7638.603723869969
 21
8354.471093903905
 31
0.0
  0
LINE
  5
20499
330
1F
100
AcDbEntity
  8
D-STR
  6
Continuous
100
AcDbLine
 10
6038.603930238061
 20
6654.471100670012
 30
0.0
 11
7638.603723869969
 21
6654.471100670012
 31
0.0
  0
LINE
  5
2049A
330
1F
100
AcDbEntity
  8
D-STR
  6
Continuous
100
AcDbLine
 10
6338.603929044043
 20
6454.471301466026
 30
0.0
 11
7338.603825064018
 21
6454.471301466026
 31
0.0
  0
LINE
  5
2049B
330
1F
100
AcDbEntity
  8
D-STR-DIM
  6
Continuous
100
AcDbLine
 10
6238.603929442048
 20
6674.471100670013
 30
0.0
 11
6238.603929442048
 21
7384.471097764566
 31
0.0
  0
LINE
  5
2049C
330
1F
100
AcDbEntity
  8
D-STR-DIM
  6
Continuous
100
AcDbLine
 10
6038.603930238061
 20
8324.471494023306
 30
0.0
 11
6038.603930238061
 21
6684.470900550611
 31
0.0
  0
LINE
  5
2049D
330
1F
100
AcDbEntity
  8
D-STR-DIM
  6
Continuous
100
AcDbLine
 10
6338.603929044043
 20
7054.471099077987
 30
0.0
 11
6838.603367054044
 21
7054.471099077987
 31
0.0
  0
TEXT
  5
2049E
330
1F
100
AcDbEntity
  8
D-STR-DIM
100
AcDbText
 10
6083.743930058432
 20
5895.471503690879
 30
0.0
 40
70.0
  1
50
100
AcDbText
  0
LINE
  5
2049F
330
1F
100
AcDbEntity
  8
D-STR
  6
Continuous
100
AcDbLine
 10
6038.6051302381
 20
6019.472503197348
 30
0.0
 11
6113.603729939564
 21
6029.47210315755
 31
0.0
  0
LINE
  5
204A0
330
1F
100
AcDbEntity
  8
D-STR
  6
Continuous
100
AcDbLine
 10
6038.602730238097
 20
6289.471302122736
 30
0.0
 11
6113.605129939596
 21
6279.471702162535
 31
0.0
  0
TEXT
  5
204A1
330
1F
100
AcDbEntity
  8
D-STR-DIM
100
AcDbText
 10
5903.131130777264
 20
5895.471503690879
 30
0.0
 40
70.0
  1
75
100
AcDbText
  0
LINE
  5
204A2
330
1F
100
AcDbEntity
  8
D-STR
  6
Continuous
100
AcDbLine
 10
6163.603729740561
 20
6029.471103157552
 30
0.0
 11
6163.603729740561
 21
6279.470702162539
 31
0.0
  0
LINE
  5
204A3
330
1F
100
AcDbEntity
  8
D-STR
  6
Continuous
100
AcDbLine
 10
6113.603729939564
 20
6029.471103157552
 30
0.0
 11
6113.603729939564
 21
6279.470702162539
 31
0.0
  0
TEXT
  5
204A4
330
1F
100
AcDbEntity
  8
D-STR-DIM
100
AcDbText
 10
6262.821129345723
 20
5895.471503690879
 30
0.0
 40
70.0
  1
75
100
AcDbText
  0
LINE
  5
204A5
330
1F
100
AcDbEntity
  8
D-BMK
  6
CENTER2
100
AcDbLine
 10
6268.603729322655
 20
6154.470902660046
 30
0.0
 11
6124.603729895767
 21
6154.470902660046
 31
0.0
  0
LINE
  5
204A6
330
1F
100
AcDbEntity
  8
D-STR-STR2
  6
Continuous
100
AcDbLine
 10
6154.603529776373
 20
6204.471502461039
 30
0.0
 11
6154.603529776373
 21
6104.471102859047
 31
0.0
  0
LINE
  5
204A7
330
1F
100
AcDbEntity
  8
D-STR-STR2
  6
Continuous
100
AcDbLine
 10
6238.603929442048
 20
6204.471502461039
 30
0.0
 11
6154.603529776373
 21
6204.471502461039
 31
0.0
  0
LINE
  5
204A8
330
1F
100
AcDbEntity
  8
D-STR-STR2
  6
Continuous
100
AcDbLine
 10
6154.603529776373
 20
6104.471102859047
 30
0.0
 11
6238.603929442048
 21
6104.471102859047
 31
0.0
  0
LINE
  5
204A9
330
1F
100
AcDbEntity
  8
D-STR
  6
Continuous
100
AcDbLine
 10
6163.602729740592
 20
6029.471103157552
 30
0.0
 11
6238.60512944209
 21
6019.470503197355
 31
0.0
  0
LINE
  5
204AA
330
1F
100
AcDbEntity
  8
D-STR
  6
Continuous
100
AcDbLine
 10
6213.603729541559
 20
6454.471301466026
 30
0.0
 11
6338.605129044081
 21
6454.471301466026
 31
0.0
  0
LINE
  5
204AB
330
1F
100
AcDbEntity
  8
D-STR
  6
Continuous
100
AcDbLine
 10
6238.603929442048
 20
6354.470701864034
 30
0.0
 11
6338.603929044043
 21
6454.471301466026
 31
0.0
  0
LINE
  5
204AC
330
1F
100
AcDbEntity
  8
D-STR-STR2
  6
Continuous
100
AcDbLine
 10
6133.603929859955
 20
6368.471701808307
 30
0.0
 11
6213.603729541559
 21
6368.471701808307
 31
0.0
  0
LINE
  5
204AD
330
1F
100
AcDbEntity
  8
D-STR-STR2
  6
Continuous
100
AcDbLine
 10
6133.603929859955
 20
6368.471701808307
 30
0.0
 11
6133.603929859955
 21
6388.470901728711
 31
0.0
  0
LINE
  5
204AE
330
1F
100
AcDbEntity
  8
D-STR-STR2
  6
Continuous
100
AcDbLine
 10
6133.603929859955
 20
6388.470901728711
 30
0.0
 11
6213.603729541559
 21
6388.470901728711
 31
0.0
  0
LINE
  5
204AF
330
1F
100
AcDbEntity
  8
D-STR
  6
Continuous
100
AcDbLine
 10
6238.603929442048
 20
6289.471302122736
 30
0.0
 11
6163.603729740561
 21
6279.470702162539
 31
0.0
  0
LINE
  5
204B0
330
1F
100
AcDbEntity
  8
D-STR-DIM
  6
Continuous
100
AcDbLine
 10
6338.603929044043
 20
6674.471100670013
 30
0.0
 11
6338.603929044043
 21
7084.470698958589
 31
0.0
  0
TEXT
  5
204B1
330
1F
100
AcDbEntity
  8
D-STR-DIM
100
AcDbText
 10
6187.42992964577
 20
7070.470699014308
 30
0.0
 40
70.0
  1
100
100
AcDbText
  0
LINE
  5
204B2
330
1F
100
AcDbEntity
  8
D-STR-DIM
  6
Continuous
100
AcDbLine
 10
6238.603929442048
 20
7054.471099077987
 30
0.0
 11
6288.603929243045
 21
7054.471099077987
 31
0.0
  0
CIRCLE
  5
204B3
330
1F
100
AcDbEntity
  8
D-STR-DIM
  6
Continuous
100
AcDbCircle
 10
6238.603929442048
 20
7054.471099077987
 30
0.0
 40
5.999997976119627
  0
CIRCLE
  5
204B4
330
1F
100
AcDbEntity
  8
D-STR-DIM
  6
Continuous
100
AcDbCircle
 10
6338.603929044043
 20
7054.471099077987
 30
0.0
 40
5.999997976119627
  0
LINE
  5
204B5
330
1F
100
AcDbEntity
  8
D-STR-DIM
  6
Continuous
100
AcDbLine
 10
6338.603929044043
 20
7054.471099077987
 30
0.0
 11
6288.603929243045
 21
7054.471099077987
 31
0.0
  0
TEXT
  5
204B6
330
1F
100
AcDbEntity
  8
D-STR-DIM
100
AcDbText
 10
6719.743927527092
 20
7070.470699014308
 30
0.0
 40
70.0
  1
1000
100
AcDbText
  0
LINE
  5
204B7
330
1F
100
AcDbEntity
  8
D-STR-DIM
  6
Continuous
100
AcDbLine
 10
6488.603728447042
 20
7954.471295495931
 30
0.0
 11
6263.603729342557
 21
7954.471295495931
 31
0.0
  0
LINE
  5
204B8
330
1F
100
AcDbEntity
  8
D-STR-DIM
  6
Continuous
100
AcDbLine
 10
6238.603929442048
 20
7354.471497883968
 30
0.0
 11
6838.603727054016
 21
7354.471497883968
 31
0.0
  0
LINE
  5
204B9
330
1F
100
AcDbEntity
  8
D-STR-DIM
  6
Continuous
100
AcDbLine
 10
6038.603930238061
 20
8334.471093903905
 30
0.0
 11
6038.603930238061
 21
7924.470695615333
 31
0.0
  0
TEXT
  5
204BA
330
1F
100
AcDbEntity
  8
D-STR-DIM
100
AcDbText
 10
6051.743730185757
 20
7370.471097820288
 30
0.0
 40
70.0
  1
200
100
AcDbText
  0
LINE
  5
204BB
330
1F
100
AcDbEntity
  8
D-STR-DIM
  6
Continuous
100
AcDbLine
 10
6038.603930238061
 20
7354.471497883968
 30
0.0
 11
6138.603929840058
 21
7354.471497883968
 31
0.0
  0
CIRCLE
  5
204BC
330
1F
100
AcDbEntity
  8
D-STR-DIM
  6
Continuous
100
AcDbCircle
 10
6038.603930238061
 20
7354.471497883968
 30
0.0
 40
5.999997976119627
  0
CIRCLE
  5
204BD
330
1F
100
AcDbEntity
  8
D-STR-DIM
  6
Continuous
100
AcDbCircle
 10
6238.603929442048
 20
7354.471497883968
 30
0.0
 40
5.999997976119627
  0
LINE
  5
204BE
330
1F
100
AcDbEntity
  8
D-STR-DIM
  6
Continuous
100
AcDbLine
 10
6238.603929442048
 20
7354.471497883968
 30
0.0
 11
6138.603929840058
 21
7354.471497883968
 31
0.0
  0
LINE
  5
204BF
330
1F
100
AcDbEntity
  8
D-STR-DIM
  6
Continuous
100
AcDbLine
 10
6038.603930238061
 20
7954.471295495931
 30
0.0
 11
6263.603729342557
 21
7954.471295495931
 31
0.0
  0
CIRCLE
  5
204C0
330
1F
100
AcDbEntity
  8
D-STR-DIM
  6
Continuous
100
AcDbCircle
 10
6038.603930238061
 20
7954.471295495931
 30
0.0
 40
5.999997976119627
  0
TEXT
  5
204C1
330
1F
100
AcDbEntity
  8
D-STR-DIM
100
AcDbText
 10
6176.743929688313
 20
7970.470895432251
 30
0.0
 40
70.0
  1
450
100
AcDbText
  0
LINE
  5
204C2
330
1F
100
AcDbEntity
  8
D-STR-DIM
  6
Continuous
100
AcDbLine
 10
6488.603728447042
 20
8334.471093903905
 30
0.0
 11
6488.603728447042
 21
7924.470695615333
 31
0.0
  0
TEXT
  5
204C3
330
1F
100
AcDbEntity
  8
D-STR-DIM
100
AcDbText
 10
6719.743927527092
 20
7370.471097820288
 30
0.0
 40
70.0
  1
1200
100
AcDbText
  0
TEXT
  5
204C4
330
1F
100
AcDbEntity
  8
D-STR-DIM
100
AcDbText
 10
6751.743847399751
 20
7970.470895432251
 30
0.0
 40
70.0
  1
700
100
AcDbText
  0
LINE
  5
204C5
330
1F
100
AcDbEntity
  8
D-STR-DIM
  6
Continuous
100
AcDbLine
 10
6488.603728447042
 20
7954.471295495931
 30
0.0
 11
6838.603727054016
 21
7954.471295495931
 31
0.0
  0
CIRCLE
  5
204C6
330
1F
100
AcDbEntity
  8
D-STR-DIM
  6
Continuous
100
AcDbCircle
 10
6488.603728447042
 20
7954.471295495931
 30
0.0
 40
5.999997976119627
  0
CIRCLE
  5
204C7
330
1F
100
AcDbEntity
  8
D-STR-STR2
  6
Continuous
100
AcDbCircle
 10
6488.603728447042
 20
8604.470692908892
 30
0.0
 40
9.999997960199371
  0
LINE
  5
204C8
330
1F
100
AcDbEntity
  8
D-BMK
  6
CENTER2
100
AcDbLine
 10
6528.603928287833
 20
8604.470692908892
 30
0.0
 11
6448.603928606239
 21
8604.470692908892
 31
0.0
  0
LINE
  5
204C9
330
1F
100
AcDbEntity
  8
D-STR-DIM
  6
Continuous
100
AcDbLine
 10
7438.603784665999
 20
6674.471100670013
 30
0.0
 11
7438.603784665999
 21
7384.471097764566
 31
0.0
  0
LINE
  5
204CA
330
1F
100
AcDbEntity
  8
D-STR-DIM
  6
Continuous
100
AcDbLine
 10
7638.603723869969
 20
8324.471494023306
 30
0.0
 11
7638.603723869969
 21
6684.470900550611
 31
0.0
  0
TEXT
  5
204CB
330
1F
100
AcDbEntity
  8
D-STR-DIM
100
AcDbText
 10
7664.356583767463
 20
5895.471503690879
 30
0.0
 40
70.0
  1
75
100
AcDbText
  0
LINE
  5
204CC
330
1F
100
AcDbEntity
  8
D-STR-DIM
  6
Continuous
100
AcDbLine
 10
7658.603723869969
 20
6354.470701864034
 30
0.0
 11
8168.603761760548
 21
6354.470701864034
 31
0.0
  0
LINE
  5
204CD
330
1F
100
AcDbEntity
  8
D-BMK
  6
CENTER2
100
AcDbLine
 10
7408.603764785396
 20
6154.470902660046
 30
0.0
 11
7552.603964212273
 21
6154.470902660046
 31
0.0
  0
LINE
  5
204CE
330
1F
100
AcDbEntity
  8
D-STR
  6
Continuous
100
AcDbLine
 10
7338.604305064035
 20
6454.471301466026
 30
0.0
 11
7438.603784665999
 21
6354.470701864034
 31
0.0
  0
LINE
  5
204CF
330
1F
100
AcDbEntity
  8
D-STR
  6
Continuous
100
AcDbLine
 10
7463.604404566488
 20
6454.471301466026
 30
0.0
 11
7338.603205064029
 21
6454.471301466026
 31
0.0
  0
TEXT
  5
204D0
330
1F
100
AcDbEntity
  8
D-STR-DIM
100
AcDbText
 10
7304.66594519908
 20
5895.471503690879
 30
0.0
 40
70.0
  1
75
100
AcDbText
  0
LINE
  5
204D1
330
1F
100
AcDbEntity
  8
D-STR
  6
Continuous
100
AcDbLine
 10
7563.603744168481
 20
6029.471103157552
 30
0.0
 11
7563.603744168481
 21
6279.470702162539
 31
0.0
  0
LINE
  5
204D2
330
1F
100
AcDbEntity
  8
D-STR
  6
Continuous
100
AcDbLine
 10
7513.60376436749
 20
6029.471103157552
 30
0.0
 11
7513.60376436749
 21
6279.470702162539
 31
0.0
  0
LINE
  5
204D3
330
1F
100
AcDbEntity
  8
D-STR
  6
Continuous
100
AcDbLine
 10
7563.603744168481
 20
6029.471103157552
 30
0.0
 11
7638.603103869979
 21
6019.471503197352
 31
0.0
  0
TEXT
  5
204D4
330
1F
100
AcDbEntity
  8
D-STR-DIM
100
AcDbText
 10
7483.743724486349
 20
5895.471503690879
 30
0.0
 40
70.0
  1
50
100
AcDbText
  0
LINE
  5
204D5
330
1F
100
AcDbEntity
  8
D-STR-STR2
  6
Continuous
100
AcDbLine
 10
7522.603944331669
 20
6204.471502461039
 30
0.0
 11
7522.603944331669
 21
6104.471102859047
 31
0.0
  0
LINE
  5
204D6
330
1F
100
AcDbEntity
  8
D-STR-STR2
  6
Continuous
100
AcDbLine
 10
7438.603784665999
 20
6204.471502461039
 30
0.0
 11
7522.603944331669
 21
6204.471502461039
 31
0.0
  0
LINE
  5
204D7
330
1F
100
AcDbEntity
  8
D-STR-STR2
  6
Continuous
100
AcDbLine
 10
7522.603944331669
 20
6104.471102859047
 30
0.0
 11
7438.603784665999
 21
6104.471102859047
 31
0.0
  0
LINE
  5
204D8
330
1F
100
AcDbEntity
  8
D-STR
  6
Continuous
100
AcDbLine
 10
7438.603164666012
 20
6019.471503197352
 30
0.0
 11
7513.603144367498
 21
6029.47210315755
 31
0.0
  0
LINE
  5
204D9
330
1F
100
AcDbEntity
  8
D-STR
  6
Continuous
100
AcDbLine
 10
7638.604343869956
 20
6289.471302122736
 30
0.0
 11
7563.603124168489
 21
6279.470702162539
 31
0.0
  0
LINE
  5
204DA
330
1F
100
AcDbEntity
  8
D-STR-STR2
  6
Continuous
100
AcDbLine
 10
7543.590404248127
 20
6368.477701808284
 30
0.0
 11
7463.590404566533
 21
6368.477701808284
 31
0.0
  0
LINE
  5
204DB
330
1F
100
AcDbEntity
  8
D-STR-STR2
  6
Continuous
100
AcDbLine
 10
7543.590404248127
 20
6368.477701808284
 30
0.0
 11
7543.590404248127
 21
6388.477701728684
 31
0.0
  0
LINE
  5
204DC
330
1F
100
AcDbEntity
  8
D-STR-STR2
  6
Continuous
100
AcDbLine
 10
7543.590404248127
 20
6388.477701728684
 30
0.0
 11
7463.590404566533
 21
6388.477701728684
 31
0.0
  0
LINE
  5
204DD
330
1F
100
AcDbEntity
  8
D-STR
  6
Continuous
100
AcDbLine
 10
7513.60376436749
 20
6279.470702162539
 30
0.0
 11
7438.603784665999
 21
6289.471302122736
 31
0.0
  0
TEXT
  5
204DE
330
1F
100
AcDbEntity
  8
D-STR-DIM
100
AcDbText
 10
7287.05562526915
 20
7070.470699014308
 30
0.0
 40
70.0
  1
100
100
AcDbText
  0
LINE
  5
204DF
330
1F
100
AcDbEntity
  8
D-STR-DIM
  6
Continuous
100
AcDbLine
 10
7438.603164666012
 20
7054.471099077987
 30
0.0
 11
7388.603184865022
 21
7054.471099077987
 31
0.0
  0
LINE
  5
204E0
330
1F
100
AcDbEntity
  8
D-STR-DIM
  6
Continuous
100
AcDbLine
 10
7338.603205064029
 20
6674.471100670013
 30
0.0
 11
7338.603205064029
 21
7084.470698958589
 31
0.0
  0
CIRCLE
  5
204E1
330
1F
100
AcDbEntity
  8
D-STR-DIM
  6
Continuous
100
AcDbCircle
 10
7338.603205064029
 20
7054.471099077987
 30
0.0
 40
5.999997976119627
  0
LINE
  5
204E2
330
1F
100
AcDbEntity
  8
D-STR-DIM
  6
Continuous
100
AcDbLine
 10
7338.603205064029
 20
7054.471099077987
 30
0.0
 11
7388.603184865022
 21
7054.471099077987
 31
0.0
  0
CIRCLE
  5
204E3
330
1F
100
AcDbEntity
  8
D-STR-DIM
  6
Continuous
100
AcDbCircle
 10
7438.603164666012
 20
7054.471099077987
 30
0.0
 40
5.999997976119627
  0
TEXT
  5
204E4
330
1F
100
AcDbEntity
  8
D-STR-DIM
100
AcDbText
 10
8122.603761943645
 20
6299.553102082608
 30
0.0
 40
70.0
  1
100
 50
90.0
100
AcDbText
  0
CIRCLE
  5
204E5
330
1F
100
AcDbEntity
  8
D-STR-DIM
  6
Continuous
100
AcDbCircle
 10
8138.603741879943
 20
6454.471301466026
 30
0.0
 40
5.999997976119627
  0
CIRCLE
  5
204E6
330
1F
100
AcDbEntity
  8
D-STR-DIM
  6
Continuous
100
AcDbCircle
 10
8138.603741879943
 20
6354.470701864034
 30
0.0
 40
5.999997976119627
  0
LINE
  5
204E7
330
1F
100
AcDbEntity
  8
D-STR-DIM
  6
Continuous
100
AcDbLine
 10
8138.603741879943
 20
6454.471301466026
 30
0.0
 11
8138.603741879943
 21
6404.471501665028
 31
0.0
  0
LINE
  5
204E8
330
1F
100
AcDbEntity
  8
D-STR-DIM
  6
Continuous
100
AcDbLine
 10
8138.603741879943
 20
6354.470701864034
 30
0.0
 11
8138.603741879943
 21
6404.471501665028
 31
0.0
  0
LINE
  5
204E9
330
1F
100
AcDbEntity
  8
D-STR-DIM
  6
Continuous
100
AcDbLine
 10
7658.603723869969
 20
8354.471093903905
 30
0.0
 11
8368.603760964532
 21
8354.471093903905
 31
0.0
  0
LINE
  5
204EA
330
1F
100
AcDbEntity
  8
D-STR-DIM
  6
Continuous
100
AcDbLine
 10
7658.603723869969
 20
8604.470692908892
 30
0.0
 11
8068.603722158538
 21
8604.470692908892
 31
0.0
  0
LINE
  5
204EB
330
1F
100
AcDbEntity
  8
D-STR-DIM
  6
Continuous
100
AcDbLine
 10
7638.603723869969
 20
8334.471093903905
 30
0.0
 11
7638.603723869969
 21
7924.470695615333
 31
0.0
  0
LINE
  5
204EC
330
1F
100
AcDbEntity
  8
D-STR-DIM
  6
Continuous
100
AcDbLine
 10
7188.603745661002
 20
8334.471093903905
 30
0.0
 11
7188.603745661002
 21
7924.470695615333
 31
0.0
  0
TEXT
  5
204ED
330
1F
100
AcDbEntity
  8
D-STR-DIM
100
AcDbText
 10
7451.743744613669
 20
7370.471097820288
 30
0.0
 40
70.0
  1
200
100
AcDbText
  0
LINE
  5
204EE
330
1F
100
AcDbEntity
  8
D-STR-DIM
  6
Continuous
100
AcDbLine
 10
7638.603723869969
 20
7354.471497883968
 30
0.0
 11
7538.60374426798
 21
7354.471497883968
 31
0.0
  0
CIRCLE
  5
204EF
330
1F
100
AcDbEntity
  8
D-STR-DIM
  6
Continuous
100
AcDbCircle
 10
7438.603784665999
 20
7354.471497883968
 30
0.0
 40
5.999997976119627
  0
LINE
  5
204F0
330
1F
100
AcDbEntity
  8
D-STR-DIM
  6
Continuous
100
AcDbLine
 10
7438.603784665999
 20
7354.471497883968
 30
0.0
 11
7538.60374426798
 21
7354.471497883968
 31
0.0
  0
CIRCLE
  5
204F1
330
1F
100
AcDbEntity
  8
D-STR-DIM
  6
Continuous
100
AcDbCircle
 10
7638.603723869969
 20
7354.471497883968
 30
0.0
 40
5.999997976119627
  0
TEXT
  5
204F2
330
1F
100
AcDbEntity
  8
D-STR-DIM
100
AcDbText
 10
7326.743785111195
 20
7970.470895432251
 30
0.0
 40
70.0
  1
450
100
AcDbText
  0
LINE
  5
204F3
330
1F
100
AcDbEntity
  8
D-STR-DIM
  6
Continuous
100
AcDbLine
 10
7638.603723869969
 20
7954.471295495931
 30
0.0
 11
7413.6037847655
 21
7954.471295495931
 31
0.0
  0
LINE
  5
204F4
330
1F
100
AcDbEntity
  8
D-STR-DIM
  6
Continuous
100
AcDbLine
 10
7188.603745661002
 20
7954.471295495931
 30
0.0
 11
7413.6037847655
 21
7954.471295495931
 31
0.0
  0
CIRCLE
  5
204F5
330
1F
100
AcDbEntity
  8
D-STR-DIM
  6
Continuous
100
AcDbCircle
 10
7188.603745661002
 20
7954.471295495931
 30
0.0
 40
5.999997976119627
  0
CIRCLE
  5
204F6
330
1F
100
AcDbEntity
  8
D-STR-STR2
  6
Continuous
100
AcDbCircle
 10
7188.603745661002
 20
8604.470692908892
 30
0.0
 40
9.999997960199371
  0
LINE
  5
204F7
330
1F
100
AcDbEntity
  8
D-BMK
  6
CENTER2
100
AcDbLine
 10
7228.603805501819
 20
8604.470692908892
 30
0.0
 11
7148.603805820226
 21
8604.470692908892
 31
0.0
  0
CIRCLE
  5
204F8
330
1F
100
AcDbEntity
  8
D-STR-DIM
  6
Continuous
100
AcDbCircle
 10
7638.603723869969
 20
7954.471295495931
 30
0.0
 40
5.999997976119627
  0
TEXT
  5
204F9
330
1F
100
AcDbEntity
  8
D-STR-DIM
100
AcDbText
 10
8022.603722341635
 20
8392.611293752107
 30
0.0
 40
70.0
  1
250
 50
90.0
100
AcDbText
  0
CIRCLE
  5
204FA
330
1F
100
AcDbEntity
  8
D-STR-DIM
  6
Continuous
100
AcDbCircle
 10
8038.603782277961
 20
8604.470692908892
 30
0.0
 40
5.999997976119627
  0
CIRCLE
  5
204FB
330
1F
100
AcDbEntity
  8
D-STR-DIM
  6
Continuous
100
AcDbCircle
 10
8038.603782277961
 20
8354.471093903905
 30
0.0
 40
5.999997976119627
  0
LINE
  5
204FC
330
1F
100
AcDbEntity
  8
D-STR-DIM
  6
Continuous
100
AcDbLine
 10
8038.603782277961
 20
8604.470692908892
 30
0.0
 11
8038.603782277961
 21
8479.470893406398
 31
0.0
  0
LINE
  5
204FD
330
1F
100
AcDbEntity
  8
D-STR-DIM
  6
Continuous
100
AcDbLine
 10
8038.603782277961
 20
8354.471093903905
 30
0.0
 11
8038.603782277961
 21
8479.470893406398
 31
0.0
  0
CIRCLE
  5
204FE
330
1F
100
AcDbEntity
  8
D-STR-DIM
  6
Continuous
100
AcDbCircle
 10
8338.603741083931
 20
8354.471093903905
 30
0.0
 40
5.999997976119627
  0
TEXT
  5
20504
330
1F
100
AcDbEntity
  8
D-STR-HTXT
100
AcDbText
 10
7039.743746253487
 20
8874.470491834275
 30
0.0
 40
70.0
  1
Ｍ20
100
AcDbText
  0
TEXT
  5
20505
330
1F
100
AcDbEntity
  8
D-STR-HTXT
100
AcDbText
 10
6815.74378714502
 20
8970.47069145219
 30
0.0
 40
70.0
  1
　吊り用インサート
100
AcDbText
  0
LINE
  5
20506
330
1F
100
AcDbEntity
  8
D-STR-HTXT
  6
Continuous
100
AcDbLine
 10
6838.603727054016
 20
8954.470891515867
 30
0.0
 11
7557.773294342799
 21
8954.470891515867
 31
0.0
  0
LINE
  5
20507
330
1F
100
AcDbEntity
  8
D-STR
  6
Continuous
100
AcDbLine
 10
6038.603930238061
 20
9854.471087933809
 30
0.0
 11
7638.603723869969
 21
9854.471087933809
 31
0.0
  0
LINE
  5
20508
330
1F
100
AcDbEntity
  8
D-BMK
  6
CENTER2
100
AcDbLine
 10
6488.603728447042
 20
9644.470688769622
 30
0.0
 11
6488.603728447042
 21
9564.471289088031
 31
0.0
  0
CIRCLE
  5
20509
330
1F
100
AcDbEntity
  8
D-STR-STR2
  6
Continuous
100
AcDbCircle
 10
6488.603728447042
 20
9604.471488928826
 30
0.0
 40
9.999997960199371
  0
LINE
  5
2050A
330
1F
100
AcDbEntity
  8
D-BMK
  6
CENTER2
100
AcDbLine
 10
6528.603928287833
 20
9604.471488928826
 30
0.0
 11
6448.603928606239
 21
9604.471488928826
 31
0.0
  0
LINE
  5
2050B
330
1F
100
AcDbEntity
  8
D-STR-DIM
  6
Continuous
100
AcDbLine
 10
7658.603723869969
 20
9854.471087933809
 30
0.0
 11
8368.603760964532
 21
9854.471087933809
 31
0.0
  0
LINE
  5
2050C
330
1F
100
AcDbEntity
  8
D-STR-DIM
  6
Continuous
100
AcDbLine
 10
7658.603723869969
 20
9604.471488928826
 30
0.0
 11
8068.603722158538
 21
9604.471488928826
 31
0.0
  0
LINE
  5
2050D
330
1F
100
AcDbEntity
  8
D-BMK
  6
CENTER2
100
AcDbLine
 10
7188.603745661002
 20
9644.470688769622
 30
0.0
 11
7188.603745661002
 21
9564.471289088031
 31
0.0
  0
CIRCLE
  5
2050E
330
1F
100
AcDbEntity
  8
D-STR-STR2
  6
Continuous
100
AcDbCircle
 10
7188.603745661002
 20
9604.471488928826
 30
0.0
 40
9.999997960199371
  0
LINE
  5
2050F
330
1F
100
AcDbEntity
  8
D-BMK
  6
CENTER2
100
AcDbLine
 10
7228.603805501819
 20
9604.471488928826
 30
0.0
 11
7148.603805820226
 21
9604.471488928826
 31
0.0
  0
LINE
  5
20510
330
1F
100
AcDbEntity
  8
D-STR-DIM
  6
Continuous
100
AcDbLine
 10
8338.603741083931
 20
9854.471087933809
 30
0.0
 11
8338.603741083931
 21
9104.471090918856
 31
0.0
  0
LINE
  5
20511
330
1F
100
AcDbEntity
  8
D-STR-DIM
  6
Continuous
100
AcDbLine
 10
8038.603782277961
 20
9604.471488928826
 30
0.0
 11
8038.603782277961
 21
9104.471090918856
 31
0.0
  0
TEXT
  5
20512
330
1F
100
AcDbEntity
  8
D-STR-DIM
100
AcDbText
 10
8022.603722341635
 20
8985.611091391929
 30
0.0
 40
70.0
  1
1000
 50
90.0
100
AcDbText
  0
TEXT
  5
20513
330
1F
100
AcDbEntity
  8
D-STR-DIM
100
AcDbText
 10
8322.603741147622
 20
8985.611091391929
 30
0.0
 40
70.0
  1
1500
 50
90.0
100
AcDbText
  0
LINE
  5
20514
330
1F
100
AcDbEntity
  8
D-STR-DIM
  6
Continuous
100
AcDbLine
 10
8038.603782277961
 20
9604.471488928826
 30
0.0
 11
8038.603782277961
 21
9729.471288431319
 31
0.0
  0
CIRCLE
  5
20515
330
1F
100
AcDbEntity
  8
D-STR-DIM
  6
Continuous
100
AcDbCircle
 10
8038.603782277961
 20
9604.471488928826
 30
0.0
 40
5.999997976119627
  0
TEXT
  5
20516
330
1F
100
AcDbEntity
  8
D-STR-DIM
100
AcDbText
 10
8022.603722341635
 20
9642.610688777025
 30
0.0
 40
70.0
  1
250
 50
90.0
100
AcDbText
  0
CIRCLE
  5
20517
330
1F
100
AcDbEntity
  8
D-STR-DIM
  6
Continuous
100
AcDbCircle
 10
8038.603782277961
 20
9854.471087933809
 30
0.0
 40
5.999997976119627
  0
LINE
  5
20518
330
1F
100
AcDbEntity
  8
D-STR-DIM
  6
Continuous
100
AcDbLine
 10
8038.603782277961
 20
9854.471087933809
 30
0.0
 11
8038.603782277961
 21
9729.471288431319
 31
0.0
  0
CIRCLE
  5
20519
330
1F
100
AcDbEntity
  8
D-STR-DIM
  6
Continuous
100
AcDbCircle
 10
8338.603741083931
 20
9854.471087933809
 30
0.0
 40
5.999997976119627
  0
TEXT
  5
2051F
330
1F
100
AcDbEntity
  8
D-MTR-TXT
100
AcDbText
 10
13525.43240962763
 20
7974.67644267914
 30
0.0
 40
70.0
  1
支持受金物用インサート　Ｍ16（セラミック）
100
AcDbText
  0
TEXT
  5
20521
330
1F
100
AcDbEntity
  8
D-MTR-TXT
100
AcDbText
 10
13525.43240962763
 20
8104.008421787614
 30
0.0
 40
70.0
  1
吊り用インサート　Ｍ20（Ｙ－Ｄ32×150）
100
AcDbText
  0
TEXT
  5
20522
330
1F
100
AcDbEntity
  8
D-MTR-TXT
100
AcDbText
 10
13525.43240962763
 20
8233.342640896074
 30
0.0
 40
70.0
  1
ピットバルブ　φ75　Ｌ＝130
100
AcDbText
  0
TEXT
  5
20523
330
1F
100
AcDbEntity
  8
D-MTR-TXT
100
AcDbText
 10
13525.43240962763
 20
8362.675260004541
 30
0.0
 40
70.0
  1
連結金具
100
AcDbText
  0
LINE
  5
20524
330
1F
100
AcDbEntity
  8
D-MTR-FRAM
  6
Continuous
100
AcDbLine
 10
13445.43640994603
 20
9102.471382721827
 30
0.0
 11
16153.43577714609
 21
9102.471382721827
 31
0.0
  0
LINE
  5
2052E
330
1F
100
AcDbEntity
  8
D-MTR-FRAM
  6
Continuous
100
AcDbLine
 10
13445.43640994603
 20
8343.804980272002
 30
0.0
 11
16153.43577714609
 21
8343.804980272002
 31
0.0
  0
LINE
  5
2052F
330
1F
100
AcDbEntity
  8
D-MTR-FRAM
  6
Continuous
100
AcDbLine
 10
13445.43640994603
 20
8214.472641163535
 30
0.0
 11
16153.43577714609
 21
8214.472641163535
 31
0.0
  0
LINE
  5
20530
330
1F
100
AcDbEntity
  8
D-MTR-FRAM
  6
Continuous
100
AcDbLine
 10
13445.43640994603
 20
8085.138422055074
 30
0.0
 11
16153.43577714609
 21
8085.138422055074
 31
0.0
  0
LINE
  5
20531
330
1F
100
AcDbEntity
  8
D-MTR-FRAM
  6
Continuous
100
AcDbLine
 10
13445.43640994603
 20
7955.8061629466
 30
0.0
 11
16153.43577714609
 21
7955.8061629466
 31
0.0
  0
LINE
  5
20532
330
1F
100
AcDbEntity
  8
D-MTR-FRAM
  6
Continuous
100
AcDbLine
 10
13445.43640994603
 20
8602.470618488935
 30
0.0
 11
16153.43577714609
 21
8602.470618488935
 31
0.0
  0
LINE
  5
20534
330
1F
100
AcDbEntity
  8
D-MTR-FRAM
  6
Continuous
100
AcDbLine
 10
13445.43640994603
 20
8473.137799380467
 30
0.0
 11
16153.43577714609
 21
8473.137799380467
 31
0.0
  0
TEXT
  5
20535
330
1F
100
AcDbEntity
  8
D-STR-HTXT
100
AcDbText
 10
10690.562391723
 20
6774.470700192407
 30
0.0
 40
70.0
  1
　　（セラミック）
100
AcDbText
  0
TEXT
  5
20536
330
1F
100
AcDbEntity
  8
D-STR-HTXT
100
AcDbText
 10
10690.562391723
 20
6870.47069981032
 30
0.0
 40
70.0
  1
　インサート Ｍ16
100
AcDbText
  0
CIRCLE
  5
20537
330
1F
100
AcDbEntity
  8
D-STR-DIM
  6
Continuous
100
AcDbCircle
 10
11038.60351033775
 20
5904.47110365506
 30
0.0
 40
5.999997976119627
  0
LINE
  5
20538
330
1F
100
AcDbEntity
  8
D-STR-DIM
  6
Continuous
100
AcDbLine
 10
11138.60350993975
 20
7354.471497883968
 30
0.0
 11
10763.60351143227
 21
7354.471497883968
 31
0.0
  0
LINE
  5
20539
330
1F
100
AcDbEntity
  8
D-STR-DIM
  6
Continuous
100
AcDbLine
 10
11138.60350993975
 20
7054.471099077987
 30
0.0
 11
10951.10351068601
 21
7054.471099077987
 31
0.0
  0
LINE
  5
2053A
330
1F
100
AcDbEntity
  8
D-STR-DIM
  6
Continuous
100
AcDbLine
 10
11038.60351033775
 20
5904.47110365506
 30
0.0
 11
11033.60351035766
 21
5904.47110365506
 31
0.0
  0
LINE
  5
2053B
330
1F
100
AcDbEntity
  8
D-STR-DIM
  6
Continuous
100
AcDbLine
 10
10918.60351089497
 20
5789.470904112768
 30
0.0
 11
11368.60370902433
 21
5789.470904112768
 31
0.0
  0
LINE
  5
2053C
330
1F
100
AcDbEntity
  8
D-STR-DIM
  6
Continuous
100
AcDbLine
 10
10918.60351089497
 20
5779.471304152568
 30
0.0
 11
11368.60370902433
 21
5779.471304152568
 31
0.0
  0
LINE
  5
2053D
330
1F
100
AcDbEntity
  8
D-STR-DIM
  6
Continuous
100
AcDbLine
 10
10918.60351089497
 20
5529.470705147586
 30
0.0
 11
11368.60370902433
 21
5529.470705147586
 31
0.0
  0
LINE
  5
2053E
330
1F
100
AcDbEntity
  8
D-STR-DIM
  6
Continuous
100
AcDbLine
 10
10918.60351089497
 20
5519.471105187385
 30
0.0
 11
11368.60370902433
 21
5519.471105187385
 31
0.0
  0
LINE
  5
2053F
330
1F
100
AcDbEntity
  8
D-STR-DIM
  6
Continuous
100
AcDbLine
 10
11138.60350993975
 20
4054.471111018178
 30
0.0
 11
10388.60365292484
 21
4054.471111018178
 31
0.0
  0
LINE
  5
20540
330
1F
100
AcDbEntity
  8
D-STR-DIM
  6
Continuous
100
AcDbLine
 10
11073.60351019845
 20
4354.471509824157
 30
0.0
 11
10756.10351146212
 21
4354.471509824157
 31
0.0
  0
LINE
  5
20541
330
1F
100
AcDbEntity
  8
D-STR-HTXT
  6
Continuous
100
AcDbLine
 10
11451.25247196585
 20
6854.471099874
 30
0.0
 11
10713.42247163204
 21
6854.471099874
 31
0.0
  0
LINE
  5
20542
330
1F
100
AcDbEntity
  8
D-STR
  6
Continuous
100
AcDbLine
 10
11138.60350993975
 20
4954.47130743612
 30
0.0
 11
9638.603655909889
 21
4954.47130743612
 31
0.0
  0
LINE
  5
20543
330
1F
100
AcDbEntity
  8
D-STR
  6
Continuous
100
AcDbLine
 10
11138.60350993975
 20
6454.471301466026
 30
0.0
 11
9638.603655909889
 21
6454.471301466026
 31
0.0
  0
LINE
  5
20544
330
1F
100
AcDbEntity
  8
D-BMK
  6
CENTER2
100
AcDbLine
 10
11168.60350982035
 20
6154.470902660046
 30
0.0
 11
11024.60331039347
 21
6154.470902660046
 31
0.0
  0
LINE
  5
20545
330
1F
100
AcDbEntity
  8
D-STR
  6
Continuous
100
AcDbLine
 10
11138.60350993975
 20
4954.47130743612
 30
0.0
 11
11028.60351037756
 21
4954.47130743612
 31
0.0
  0
LINE
  5
20546
330
1F
100
AcDbEntity
  8
D-STR
  6
Continuous
100
AcDbLine
 10
11028.60351037756
 20
6454.471301466026
 30
0.0
 11
11038.60351033775
 21
6444.470701505828
 31
0.0
  0
LINE
  5
20547
330
1F
100
AcDbEntity
  8
D-STR
  6
Continuous
100
AcDbLine
 10
11138.60350993975
 20
6454.471301466026
 30
0.0
 11
11028.60351037756
 21
6454.471301466026
 31
0.0
  0
LINE
  5
20548
330
1F
100
AcDbEntity
  8
D-STR
  6
Continuous
100
AcDbLine
 10
11038.60291033777
 20
4964.470707396322
 30
0.0
 11
11028.60311037757
 21
4954.47130743612
 31
0.0
  0
LINE
  5
20549
330
1F
100
AcDbEntity
  8
D-BMK
  6
CENTER2
100
AcDbLine
 10
11033.60351035766
 20
6378.471301768512
 30
0.0
 11
11113.60351003925
 21
6378.471301768512
 31
0.0
  0
LINE
  5
2054A
330
1F
100
AcDbEntity
  8
D-BMK
  6
CENTER2
100
AcDbLine
 10
11033.60351035766
 20
5037.471107105775
 30
0.0
 11
11113.60351003925
 21
5037.471107105775
 31
0.0
  0
LINE
  5
2054B
330
1F
100
AcDbEntity
  8
D-STR
  6
Continuous
100
AcDbLine
 10
11138.60350993975
 20
4754.471308232132
 30
0.0
 11
9638.603655909889
 21
4754.471308232132
 31
0.0
  0
LINE
  5
2054C
330
1F
100
AcDbEntity
  8
D-STR
  6
Continuous
100
AcDbLine
 10
11138.60350993975
 20
6654.471100670012
 30
0.0
 11
9638.603655909889
 21
6654.471100670012
 31
0.0
  0
TEXT
  5
2054D
330
1F
100
AcDbEntity
  8
D-STR-DIM
100
AcDbText
 10
9222.603677565547
 20
5817.611504000766
 30
0.0
 40
70.0
  1
500
 50
90.0
100
AcDbText
  0
LINE
  5
2054E
330
1F
100
AcDbEntity
  8
D-STR-DIM
  6
Continuous
100
AcDbLine
 10
9238.60369750186
 20
5654.471504650075
 30
0.0
 11
9238.60369750186
 21
5904.47110365506
 31
0.0
  0
LINE
  5
2054F
330
1F
100
AcDbEntity
  8
D-STR-DIM
  6
Continuous
100
AcDbLine
 10
8438.60374068592
 20
6454.471301466026
 30
0.0
 11
8438.60374068592
 21
5704.471304451073
 31
0.0
  0
LINE
  5
20550
330
1F
100
AcDbEntity
  8
D-STR
  6
Continuous
100
AcDbLine
 10
11028.60351037756
 20
6454.471301466026
 30
0.0
 11
11028.60351037756
 21
4954.47130743612
 31
0.0
  0
LINE
  5
20551
330
1F
100
AcDbEntity
  8
D-STR
  6
Continuous
100
AcDbLine
 10
9738.603695511827
 20
6444.470701505828
 30
0.0
 11
9738.603695511827
 21
4964.470707396322
 31
0.0
  0
LINE
  5
20552
330
1F
100
AcDbEntity
  8
D-STR
  6
Continuous
100
AcDbLine
 10
10488.60363252683
 20
6444.470701505828
 30
0.0
 11
10488.60363252683
 21
4964.470707396322
 31
0.0
  0
LINE
  5
20553
330
1F
100
AcDbEntity
  8
D-STR
  6
Continuous
100
AcDbLine
 10
10288.60369332279
 20
6444.470701505828
 30
0.0
 11
10288.60369332279
 21
4964.470707396322
 31
0.0
  0
LINE
  5
20554
330
1F
100
AcDbEntity
  8
D-STR
  6
Continuous
100
AcDbLine
 10
9638.603655909889
 20
6654.471100670012
 30
0.0
 11
9638.603655909889
 21
4754.471308232132
 31
0.0
  0
LINE
  5
20555
330
1F
100
AcDbEntity
  8
D-STR
  6
Continuous
100
AcDbLine
 10
10278.60365336265
 20
6454.471301466026
 30
0.0
 11
10278.60365336265
 21
4954.47130743612
 31
0.0
  0
LINE
  5
20556
330
1F
100
AcDbEntity
  8
D-STR
  6
Continuous
100
AcDbLine
 10
10498.60367248697
 20
6454.471301466026
 30
0.0
 11
10498.60367248697
 21
4954.47130743612
 31
0.0
  0
LINE
  5
20557
330
1F
100
AcDbEntity
  8
D-STR
  6
Continuous
100
AcDbLine
 10
9748.603675472018
 20
6454.471301466026
 30
0.0
 11
9748.603675472018
 21
4954.47130743612
 31
0.0
  0
LINE
  5
20558
330
1F
100
AcDbEntity
  8
D-STR-DIM
  6
Continuous
100
AcDbLine
 10
9638.603655909889
 20
4054.471111018178
 30
0.0
 11
10388.60365292484
 21
4054.471111018178
 31
0.0
  0
LINE
  5
20559
330
1F
100
AcDbEntity
  8
D-STR-DIM
  6
Continuous
100
AcDbLine
 10
9703.603655651189
 20
4354.471509824157
 30
0.0
 11
10021.10369438746
 21
4354.471509824157
 31
0.0
  0
LINE
  5
2055A
330
1F
100
AcDbEntity
  8
D-STR
  6
Continuous
100
AcDbLine
 10
9638.603655909889
 20
4964.470707396322
 30
0.0
 11
9738.603695511827
 21
4964.470707396322
 31
0.0
  0
LINE
  5
2055B
330
1F
100
AcDbEntity
  8
D-STR
  6
Continuous
100
AcDbLine
 10
9638.603655909889
 20
4954.47130743612
 30
0.0
 11
9748.603675472018
 21
4954.47130743612
 31
0.0
  0
LINE
  5
2055C
330
1F
100
AcDbEntity
  8
D-BMK
  6
CENTER2
100
AcDbLine
 10
9663.603655810391
 20
5037.471107105775
 30
0.0
 11
9743.603655491986
 21
5037.471107105775
 31
0.0
  0
LINE
  5
2055D
330
1F
100
AcDbEntity
  8
D-STR-DIM
  6
Continuous
100
AcDbLine
 10
9638.603655909889
 20
4734.471308232133
 30
0.0
 11
9638.603655909889
 21
4024.471311137579
 31
0.0
  0
LINE
  5
2055E
330
1F
100
AcDbEntity
  8
D-STR-DIM
  6
Continuous
100
AcDbLine
 10
9703.603655651189
 20
4734.471308232133
 30
0.0
 11
9703.603655651189
 21
4324.470709943562
 31
0.0
  0
CIRCLE
  5
2055F
330
1F
100
AcDbEntity
  8
D-STR-DIM
  6
Continuous
100
AcDbCircle
 10
9638.603655909889
 20
4054.471111018178
 30
0.0
 40
5.999997976119627
  0
TEXT
  5
20560
330
1F
100
AcDbEntity
  8
D-STR-DIM
100
AcDbText
 10
9583.743696128207
 20
4258.151310207519
 30
0.0
 40
70.0
  1
65
100
AcDbText
  0
CIRCLE
  5
20561
330
1F
100
AcDbEntity
  8
D-STR-DIM
  6
Continuous
100
AcDbCircle
 10
9638.603655909889
 20
4354.471509824157
 30
0.0
 40
5.999997976119627
  0
CIRCLE
  5
20562
330
1F
100
AcDbEntity
  8
D-STR-DIM
  6
Continuous
100
AcDbCircle
 10
9703.603655651189
 20
4354.471509824157
 30
0.0
 40
5.999997976119627
  0
LINE
  5
20563
330
1F
100
AcDbEntity
  8
D-STR-DIM
  6
Continuous
100
AcDbLine
 10
9638.603655909889
 20
4354.471509824157
 30
0.0
 11
9671.10369578048
 21
4354.471509824157
 31
0.0
  0
LINE
  5
20564
330
1F
100
AcDbEntity
  8
D-STR-DIM
  6
Continuous
100
AcDbLine
 10
9703.603655651189
 20
4354.471509824157
 30
0.0
 11
9671.10369578048
 21
4354.471509824157
 31
0.0
  0
LINE
  5
20565
330
1F
100
AcDbEntity
  8
D-STR-DIM
  6
Continuous
100
AcDbLine
 10
8438.60374068592
 20
4954.47130743612
 30
0.0
 11
8438.60374068592
 21
5704.471304451073
 31
0.0
  0
LINE
  5
20566
330
1F
100
AcDbEntity
  8
D-STR-DIM
  6
Continuous
100
AcDbLine
 10
8438.60374068592
 20
4954.47130743612
 30
0.0
 11
8438.60374068592
 21
4854.470707834128
 31
0.0
  0
CIRCLE
  5
20567
330
1F
100
AcDbEntity
  8
D-STR-DIM
  6
Continuous
100
AcDbCircle
 10
8438.60374068592
 20
4754.471308232132
 30
0.0
 40
5.999997976119627
  0
LINE
  5
20568
330
1F
100
AcDbEntity
  8
D-STR-DIM
  6
Continuous
100
AcDbLine
 10
8438.60374068592
 20
4754.471308232132
 30
0.0
 11
8438.60374068592
 21
4854.470707834128
 31
0.0
  0
CIRCLE
  5
20569
330
1F
100
AcDbEntity
  8
D-STR-DIM
  6
Continuous
100
AcDbCircle
 10
8438.60374068592
 20
4954.47130743612
 30
0.0
 40
5.999997976119627
  0
LINE
  5
2056A
330
1F
100
AcDbEntity
  8
D-STR-DIM
  6
Continuous
100
AcDbLine
 10
9238.60369750186
 20
4954.47130743612
 30
0.0
 11
9238.60369750186
 21
5304.471306043098
 31
0.0
  0
LINE
  5
2056B
330
1F
100
AcDbEntity
  8
D-STR-DIM
  6
Continuous
100
AcDbLine
 10
9618.603655909891
 20
4954.47130743612
 30
0.0
 11
9208.603677621251
 21
4954.47130743612
 31
0.0
  0
CIRCLE
  5
2056C
330
1F
100
AcDbEntity
  8
D-STR-DIM
  6
Continuous
100
AcDbCircle
 10
9238.60369750186
 20
4954.47130743612
 30
0.0
 40
5.999997976119627
  0
CIRCLE
  5
2056D
330
1F
100
AcDbEntity
  8
D-STR-STR2
  6
Continuous
100
AcDbCircle
 10
9703.603655651189
 20
5037.471107105775
 30
0.0
 40
9.999997960199371
  0
LINE
  5
2056E
330
1F
100
AcDbEntity
  8
D-BMK
  6
CENTER2
100
AcDbLine
 10
9703.603655651189
 20
5077.471306946573
 30
0.0
 11
9703.603655651189
 21
4997.47090726498
 31
0.0
  0
LINE
  5
2056F
330
1F
100
AcDbEntity
  8
D-STR-DIM
  6
Continuous
100
AcDbLine
 10
9618.603655909891
 20
5654.471504650075
 30
0.0
 11
9208.603677621251
 21
5654.471504650075
 31
0.0
  0
LINE
  5
20570
330
1F
100
AcDbEntity
  8
D-STR-DIM
  6
Continuous
100
AcDbLine
 10
9238.60369750186
 20
5654.471504650075
 30
0.0
 11
9238.60369750186
 21
5304.471306043098
 31
0.0
  0
TEXT
  5
20571
330
1F
100
AcDbEntity
  8
D-STR-DIM
100
AcDbText
 10
9222.603677565547
 20
5217.610706388807
 30
0.0
 40
70.0
  1
700
 50
90.0
100
AcDbText
  0
CIRCLE
  5
20572
330
1F
100
AcDbEntity
  8
D-STR-DIM
  6
Continuous
100
AcDbCircle
 10
9238.60369750186
 20
5654.471504650075
 30
0.0
 40
5.999997976119627
  0
LINE
  5
20573
330
1F
100
AcDbEntity
  8
D-STR-DIM
  6
Continuous
100
AcDbLine
 10
10338.60367312378
 20
4734.471308232133
 30
0.0
 11
10338.60367312378
 21
4324.470709943562
 31
0.0
  0
LINE
  5
20574
330
1F
100
AcDbEntity
  8
D-STR-DIM
  6
Continuous
100
AcDbLine
 10
10438.60365272584
 20
4734.471308232133
 30
0.0
 11
10438.60365272584
 21
4324.470709943562
 31
0.0
  0
TEXT
  5
20575
330
1F
100
AcDbEntity
  8
D-STR-DIM
100
AcDbText
 10
10269.74367339786
 20
4070.470710954498
 30
0.0
 40
70.0
  1
1500
100
AcDbText
  0
TEXT
  5
20576
330
1F
100
AcDbEntity
  8
D-STR-DIM
100
AcDbText
 10
10301.74365327053
 20
4258.151310207519
 30
0.0
 40
70.0
  1
100
100
AcDbText
  0
LINE
  5
20577
330
1F
100
AcDbEntity
  8
D-STR-DIM
  6
Continuous
100
AcDbLine
 10
10338.60367312378
 20
4354.471509824157
 30
0.0
 11
10388.60365292484
 21
4354.471509824157
 31
0.0
  0
TEXT
  5
20578
330
1F
100
AcDbEntity
  8
D-STR-DIM
100
AcDbText
 10
9934.243694733229
 20
4370.471109760479
 30
0.0
 40
70.0
  1
635
100
AcDbText
  0
LINE
  5
20579
330
1F
100
AcDbEntity
  8
D-STR-DIM
  6
Continuous
100
AcDbLine
 10
10338.60367312378
 20
4354.471509824157
 30
0.0
 11
10021.10369438746
 21
4354.471509824157
 31
0.0
  0
CIRCLE
  5
2057A
330
1F
100
AcDbEntity
  8
D-STR-DIM
  6
Continuous
100
AcDbCircle
 10
10338.60367312378
 20
4354.471509824157
 30
0.0
 40
5.999997976119627
  0
TEXT
  5
2057B
330
1F
100
AcDbEntity
  8
D-STR-DIM
100
AcDbText
 10
10669.24361180785
 20
4370.471109760479
 30
0.0
 40
70.0
  1
635
100
AcDbText
  0
LINE
  5
2057C
330
1F
100
AcDbEntity
  8
D-STR-DIM
  6
Continuous
100
AcDbLine
 10
10438.60365272584
 20
4354.471509824157
 30
0.0
 11
10756.10351146212
 21
4354.471509824157
 31
0.0
  0
CIRCLE
  5
2057D
330
1F
100
AcDbEntity
  8
D-STR-DIM
  6
Continuous
100
AcDbCircle
 10
10438.60365272584
 20
4354.471509824157
 30
0.0
 40
5.999997976119627
  0
LINE
  5
2057E
330
1F
100
AcDbEntity
  8
D-STR-DIM
  6
Continuous
100
AcDbLine
 10
10438.60365272584
 20
4354.471509824157
 30
0.0
 11
10388.60365292484
 21
4354.471509824157
 31
0.0
  0
LINE
  5
2057F
330
1F
100
AcDbEntity
  8
D-STR
  6
Continuous
100
AcDbLine
 10
10488.60363252683
 20
4964.470707396322
 30
0.0
 11
10288.60369332279
 21
4964.470707396322
 31
0.0
  0
LINE
  5
20580
330
1F
100
AcDbEntity
  8
D-STR
  6
Continuous
100
AcDbLine
 10
10498.60367248697
 20
4954.47130743612
 30
0.0
 11
10278.60365336265
 21
4954.47130743612
 31
0.0
  0
LINE
  5
20581
330
1F
100
AcDbEntity
  8
D-STR
  6
Continuous
100
AcDbLine
 10
10278.60365336265
 20
5054.470707038117
 30
0.0
 11
9748.603675472018
 21
5054.470707038117
 31
0.0
  0
LINE
  5
20582
330
1F
100
AcDbEntity
  8
D-STR
  6
Continuous
100
AcDbLine
 10
9738.603075511836
 20
4964.470707396322
 30
0.0
 11
9748.603675472018
 21
4954.470307436125
 31
0.0
  0
CIRCLE
  5
20583
330
1F
100
AcDbEntity
  8
D-STR-STR2
  6
Continuous
100
AcDbCircle
 10
10338.60367312378
 20
5037.471107105775
 30
0.0
 40
9.999997960199371
  0
LINE
  5
20584
330
1F
100
AcDbEntity
  8
D-STR
  6
Continuous
100
AcDbLine
 10
10288.60369332279
 20
4964.470707396322
 30
0.0
 11
10278.60365336265
 21
4954.470307436125
 31
0.0
  0
LINE
  5
20585
330
1F
100
AcDbEntity
  8
D-BMK
  6
CENTER2
100
AcDbLine
 10
10338.60367312378
 20
5077.471306946573
 30
0.0
 11
10338.60367312378
 21
4997.47090726498
 31
0.0
  0
LINE
  5
20586
330
1F
100
AcDbEntity
  8
D-BMK
  6
CENTER2
100
AcDbLine
 10
10298.60361328304
 20
5037.471107105775
 30
0.0
 11
10378.60361296463
 21
5037.471107105775
 31
0.0
  0
LINE
  5
20587
330
1F
100
AcDbEntity
  8
D-STR-STR2
  6
Continuous
100
AcDbLine
 10
10138.60361391984
 20
5779.471304152568
 30
0.0
 11
9888.603694914817
 21
5779.471304152568
 31
0.0
  0
LINE
  5
20588
330
1F
100
AcDbEntity
  8
D-STR-STR2
  6
Continuous
100
AcDbLine
 10
10138.60361391984
 20
5529.470705147586
 30
0.0
 11
9888.603694914817
 21
5529.470705147586
 31
0.0
  0
LINE
  5
20589
330
1F
100
AcDbEntity
  8
D-BMK
  6
CENTER2
100
AcDbLine
 10
10178.60367376059
 20
5654.471504650075
 30
0.0
 11
9848.60363507407
 21
5654.471504650075
 31
0.0
  0
LINE
  5
2058A
330
1F
100
AcDbEntity
  8
D-STR-STR2
  6
Continuous
100
AcDbLine
 10
10148.60367387999
 20
5519.471105187385
 30
0.0
 11
9878.60365495468
 21
5519.471105187385
 31
0.0
  0
LINE
  5
2058B
330
1F
100
AcDbEntity
  8
D-STR-STR2
  6
Continuous
100
AcDbLine
 10
10148.60367387999
 20
5789.470904112768
 30
0.0
 11
9878.60365495468
 21
5789.470904112768
 31
0.0
  0
LINE
  5
2058C
330
1F
100
AcDbEntity
  8
D-STR-STR2
  6
Continuous
100
AcDbLine
 10
9888.603694914817
 20
5779.471304152568
 30
0.0
 11
9888.603694914817
 21
5529.470705147586
 31
0.0
  0
LINE
  5
2058D
330
1F
100
AcDbEntity
  8
D-BMK
  6
CENTER2
100
AcDbLine
 10
10013.60365441737
 20
5819.471503993366
 30
0.0
 11
10013.60365441737
 21
5489.471505306787
 31
0.0
  0
LINE
  5
2058E
330
1F
100
AcDbEntity
  8
D-STR-STR2
  6
Continuous
100
AcDbLine
 10
9878.60365495468
 20
5789.470904112768
 30
0.0
 11
9878.60365495468
 21
5519.471105187385
 31
0.0
  0
LINE
  5
2058F
330
1F
100
AcDbEntity
  8
D-STR-STR2
  6
Continuous
100
AcDbLine
 10
10138.60361391984
 20
5779.471304152568
 30
0.0
 11
10138.60361391984
 21
5529.470705147586
 31
0.0
  0
LINE
  5
20590
330
1F
100
AcDbEntity
  8
D-STR-STR2
  6
Continuous
100
AcDbLine
 10
10148.60367387999
 20
5789.470904112768
 30
0.0
 11
10148.60367387999
 21
5519.471105187385
 31
0.0
  0
TEXT
  5
20591
330
1F
100
AcDbEntity
  8
D-STR-DIM
100
AcDbText
 10
10228.74363356104
 20
5808.151104038421
 30
0.0
 40
70.0
  1
10
100
AcDbText
  0
LINE
  5
20592
330
1F
100
AcDbEntity
  8
D-STR
  6
Continuous
100
AcDbLine
 10
11028.60351037756
 20
5054.470707038117
 30
0.0
 11
10498.60367248697
 21
5054.470707038117
 31
0.0
  0
CIRCLE
  5
20593
330
1F
100
AcDbEntity
  8
D-STR-STR2
  6
Continuous
100
AcDbCircle
 10
10438.60365272584
 20
5037.471107105775
 30
0.0
 40
9.999997960199371
  0
LINE
  5
20594
330
1F
100
AcDbEntity
  8
D-BMK
  6
CENTER2
100
AcDbLine
 10
10398.60371288499
 20
5037.471107105775
 30
0.0
 11
10478.60371256658
 21
5037.471107105775
 31
0.0
  0
LINE
  5
20595
330
1F
100
AcDbEntity
  8
D-BMK
  6
CENTER2
100
AcDbLine
 10
10438.60365272584
 20
5077.471306946573
 30
0.0
 11
10438.60365272584
 21
4997.47090726498
 31
0.0
  0
LINE
  5
20596
330
1F
100
AcDbEntity
  8
D-STR
  6
Continuous
100
AcDbLine
 10
10498.60305248698
 20
4954.470307436125
 30
0.0
 11
10488.60301252684
 21
4964.470707396322
 31
0.0
  0
TEXT
  5
20597
330
1F
100
AcDbEntity
  8
D-STR-DIM
100
AcDbText
 10
10676.74365177801
 20
5335.470905919718
 30
0.0
 40
70.0
  1
250
100
AcDbText
  0
LINE
  5
20598
330
1F
100
AcDbEntity
  8
D-STR-DIM
  6
Continuous
100
AcDbLine
 10
10638.60371192977
 20
5319.471105983396
 30
0.0
 11
10763.60351143227
 21
5319.471105983396
 31
0.0
  0
LINE
  5
20599
330
1F
100
AcDbEntity
  8
D-BMK
  6
CENTER2
100
AcDbLine
 10
10928.60351077556
 20
5654.471504650075
 30
0.0
 11
10598.60365208903
 21
5654.471504650075
 31
0.0
  0
LINE
  5
2059A
330
1F
100
AcDbEntity
  8
D-STR-STR2
  6
Continuous
100
AcDbLine
 10
10898.60351089497
 20
5789.470904112768
 30
0.0
 11
10628.60365196963
 21
5789.470904112768
 31
0.0
  0
LINE
  5
2059B
330
1F
100
AcDbEntity
  8
D-STR-STR2
  6
Continuous
100
AcDbLine
 10
10898.60351089497
 20
5519.471105187385
 30
0.0
 11
10628.60365196963
 21
5519.471105187385
 31
0.0
  0
LINE
  5
2059C
330
1F
100
AcDbEntity
  8
D-STR-STR2
  6
Continuous
100
AcDbLine
 10
10888.60371093476
 20
5529.470705147586
 30
0.0
 11
10638.60371192977
 21
5529.470705147586
 31
0.0
  0
LINE
  5
2059D
330
1F
100
AcDbEntity
  8
D-STR-STR2
  6
Continuous
100
AcDbLine
 10
10888.60371093476
 20
5779.471304152568
 30
0.0
 11
10638.60371192977
 21
5779.471304152568
 31
0.0
  0
LINE
  5
2059E
330
1F
100
AcDbEntity
  8
D-STR-STR2
  6
Continuous
100
AcDbLine
 10
10628.60365196963
 20
5789.470904112768
 30
0.0
 11
10628.60365196963
 21
5519.471105187385
 31
0.0
  0
LINE
  5
2059F
330
1F
100
AcDbEntity
  8
D-STR-STR2
  6
Continuous
100
AcDbLine
 10
10638.60371192977
 20
5779.471304152568
 30
0.0
 11
10638.60371192977
 21
5529.470705147586
 31
0.0
  0
TEXT
  5
205A0
330
1F
100
AcDbEntity
  8
D-STR-DIM
100
AcDbText
 10
10578.74365216803
 20
5223.151106366757
 30
0.0
 40
70.0
  1
10
100
AcDbText
  0
CIRCLE
  5
205A1
330
1F
100
AcDbEntity
  8
D-STR-DIM
  6
Continuous
100
AcDbCircle
 10
10628.60365196963
 20
5319.471105983396
 30
0.0
 40
5.999997976119627
  0
CIRCLE
  5
205A2
330
1F
100
AcDbEntity
  8
D-STR-DIM
  6
Continuous
100
AcDbCircle
 10
10638.60371192977
 20
5319.471105983396
 30
0.0
 40
5.999997976119627
  0
LINE
  5
205A3
330
1F
100
AcDbEntity
  8
D-STR-DIM
  6
Continuous
100
AcDbLine
 10
10628.60365196963
 20
5499.471105187385
 30
0.0
 11
10628.60365196963
 21
5289.471506102799
 31
0.0
  0
LINE
  5
205A4
330
1F
100
AcDbEntity
  8
D-STR-DIM
  6
Continuous
100
AcDbLine
 10
10628.60365196963
 20
5319.471105983396
 30
0.0
 11
10633.60367194966
 21
5319.471105983396
 31
0.0
  0
LINE
  5
205A5
330
1F
100
AcDbEntity
  8
D-STR-DIM
  6
Continuous
100
AcDbLine
 10
10638.60371192977
 20
5319.471105983396
 30
0.0
 11
10633.60367194966
 21
5319.471105983396
 31
0.0
  0
LINE
  5
205A6
330
1F
100
AcDbEntity
  8
D-STR-DIM
  6
Continuous
100
AcDbLine
 10
10638.60371192977
 20
5499.471105187385
 30
0.0
 11
10638.60371192977
 21
5289.471506102799
 31
0.0
  0
TEXT
  5
205A7
330
1F
100
AcDbEntity
  8
D-STR-DIM
100
AcDbText
 10
10438.74361272523
 20
5808.151104038421
 30
0.0
 40
70.0
  1
10
100
AcDbText
  0
LINE
  5
205A8
330
1F
100
AcDbEntity
  8
D-BMK
  6
CENTER2
100
AcDbLine
 10
10763.60351143227
 20
5819.471503993366
 30
0.0
 11
10763.60351143227
 21
5489.471505306787
 31
0.0
  0
LINE
  5
205A9
330
1F
100
AcDbEntity
  8
D-STR-STR2
  6
Continuous
100
AcDbLine
 10
10898.60351089497
 20
5789.470904112768
 30
0.0
 11
10898.60351089497
 21
5519.471105187385
 31
0.0
  0
LINE
  5
205AA
330
1F
100
AcDbEntity
  8
D-STR-STR2
  6
Continuous
100
AcDbLine
 10
10888.60371093476
 20
5779.471304152568
 30
0.0
 11
10888.60371093476
 21
5529.470705147586
 31
0.0
  0
TEXT
  5
205AB
330
1F
100
AcDbEntity
  8
D-STR-DIM
100
AcDbText
 10
10838.74371113323
 20
5223.151106366757
 30
0.0
 40
70.0
  1
10
100
AcDbText
  0
LINE
  5
205AC
330
1F
100
AcDbEntity
  8
D-STR-DIM
  6
Continuous
100
AcDbLine
 10
10888.60371093476
 20
5319.471105983396
 30
0.0
 11
10763.60351143227
 21
5319.471105983396
 31
0.0
  0
CIRCLE
  5
205AD
330
1F
100
AcDbEntity
  8
D-STR-DIM
  6
Continuous
100
AcDbCircle
 10
10888.60371093476
 20
5319.471105983396
 30
0.0
 40
5.999997976119627
  0
CIRCLE
  5
205AE
330
1F
100
AcDbEntity
  8
D-STR-DIM
  6
Continuous
100
AcDbCircle
 10
10898.60351089497
 20
5319.471105983396
 30
0.0
 40
5.999997976119627
  0
LINE
  5
205AF
330
1F
100
AcDbEntity
  8
D-STR-DIM
  6
Continuous
100
AcDbLine
 10
10888.60371093476
 20
5499.471105187385
 30
0.0
 11
10888.60371093476
 21
5289.471506102799
 31
0.0
  0
LINE
  5
205B0
330
1F
100
AcDbEntity
  8
D-STR-DIM
  6
Continuous
100
AcDbLine
 10
10898.60351089497
 20
5499.471105187385
 30
0.0
 11
10898.60351089497
 21
5289.471506102799
 31
0.0
  0
LINE
  5
205B1
330
1F
100
AcDbEntity
  8
D-STR-DIM
  6
Continuous
100
AcDbLine
 10
10888.60371093476
 20
5319.471105983396
 30
0.0
 11
10893.60371091486
 21
5319.471105983396
 31
0.0
  0
LINE
  5
205B2
330
1F
100
AcDbEntity
  8
D-STR-DIM
  6
Continuous
100
AcDbLine
 10
10898.60351089497
 20
5319.471105983396
 30
0.0
 11
10893.60371091486
 21
5319.471105983396
 31
0.0
  0
LINE
  5
205B3
330
1F
100
AcDbEntity
  8
D-STR-DIM
  6
Continuous
100
AcDbLine
 10
9638.603655909889
 20
7354.471497883968
 30
0.0
 11
10013.60365441737
 21
7354.471497883968
 31
0.0
  0
LINE
  5
205B4
330
1F
100
AcDbEntity
  8
D-STR-DIM
  6
Continuous
100
AcDbLine
 10
9638.603655909889
 20
7054.471099077987
 30
0.0
 11
9826.103655163629
 21
7054.471099077987
 31
0.0
  0
LINE
  5
205B5
330
1F
100
AcDbEntity
  8
D-STR-DIM
  6
Continuous
100
AcDbLine
 10
9738.603695511827
 20
5904.47110365506
 30
0.0
 11
9688.603715710838
 21
5904.47110365506
 31
0.0
  0
LINE
  5
205B6
330
1F
100
AcDbEntity
  8
D-BMK
  6
CENTER2
100
AcDbLine
 10
9608.603716029243
 20
6154.470902660046
 30
0.0
 11
9752.603895456111
 21
6154.470902660046
 31
0.0
  0
LINE
  5
205B7
330
1F
100
AcDbEntity
  8
D-BMK
  6
CENTER2
100
AcDbLine
 10
9663.603655810391
 20
6378.471301768512
 30
0.0
 11
9743.603655491986
 21
6378.471301768512
 31
0.0
  0
LINE
  5
205B8
330
1F
100
AcDbEntity
  8
D-STR
  6
Continuous
100
AcDbLine
 10
9638.603655909889
 20
6454.471301466026
 30
0.0
 11
9748.603675472018
 21
6454.471301466026
 31
0.0
  0
LINE
  5
205B9
330
1F
100
AcDbEntity
  8
D-STR
  6
Continuous
100
AcDbLine
 10
9638.603655909889
 20
6444.470701505828
 30
0.0
 11
9738.603695511827
 21
6444.470701505828
 31
0.0
  0
LINE
  5
205BA
330
1F
100
AcDbEntity
  8
D-STR-DIM
  6
Continuous
100
AcDbLine
 10
9638.603655909889
 20
6674.471100670013
 30
0.0
 11
9638.603655909889
 21
7384.471097764566
 31
0.0
  0
LINE
  5
205BB
330
1F
100
AcDbEntity
  8
D-STR-DIM
  6
Continuous
100
AcDbLine
 10
8438.60374068592
 20
6654.471100670012
 30
0.0
 11
8438.60374068592
 21
6554.470701068021
 31
0.0
  0
CIRCLE
  5
205BC
330
1F
100
AcDbEntity
  8
D-STR-DIM
  6
Continuous
100
AcDbCircle
 10
8438.60374068592
 20
6454.471301466026
 30
0.0
 40
5.999997976119627
  0
LINE
  5
205BD
330
1F
100
AcDbEntity
  8
D-STR-DIM
  6
Continuous
100
AcDbLine
 10
8438.60374068592
 20
6454.471301466026
 30
0.0
 11
8438.60374068592
 21
6554.470701068021
 31
0.0
  0
CIRCLE
  5
205BE
330
1F
100
AcDbEntity
  8
D-STR-DIM
  6
Continuous
100
AcDbCircle
 10
8438.60374068592
 20
6654.471100670012
 30
0.0
 40
5.999997976119627
  0
LINE
  5
205BF
330
1F
100
AcDbEntity
  8
D-STR-DIM
  6
Continuous
100
AcDbLine
 10
9618.603655909891
 20
6454.471301466026
 30
0.0
 11
9208.603677621251
 21
6454.471301466026
 31
0.0
  0
LINE
  5
205C0
330
1F
100
AcDbEntity
  8
D-STR-DIM
  6
Continuous
100
AcDbLine
 10
9578.603655909891
 20
6154.470902660046
 30
0.0
 11
9208.603677621251
 21
6154.470902660046
 31
0.0
  0
TEXT
  5
205C1
330
1F
100
AcDbEntity
  8
D-STR-DIM
100
AcDbText
 10
9222.603677565547
 20
6217.611502408741
 30
0.0
 40
70.0
  1
300
 50
90.0
100
AcDbText
  0
LINE
  5
205C2
330
1F
100
AcDbEntity
  8
D-STR-DIM
  6
Continuous
100
AcDbLine
 10
9238.60369750186
 20
6154.470902660046
 30
0.0
 11
9238.60369750186
 21
6304.471102063035
 31
0.0
  0
CIRCLE
  5
205C3
330
1F
100
AcDbEntity
  8
D-STR-DIM
  6
Continuous
100
AcDbCircle
 10
9238.60369750186
 20
6154.470902660046
 30
0.0
 40
5.999997976119627
  0
LINE
  5
205C4
330
1F
100
AcDbEntity
  8
D-STR-DIM
  6
Continuous
100
AcDbLine
 10
9238.60369750186
 20
6154.470902660046
 30
0.0
 11
9238.60369750186
 21
5904.47110365506
 31
0.0
  0
CIRCLE
  5
205C5
330
1F
100
AcDbEntity
  8
D-STR-DIM
  6
Continuous
100
AcDbCircle
 10
9238.60369750186
 20
6454.471301466026
 30
0.0
 40
5.999997976119627
  0
LINE
  5
205C6
330
1F
100
AcDbEntity
  8
D-STR-DIM
  6
Continuous
100
AcDbLine
 10
9238.60369750186
 20
6454.471301466026
 30
0.0
 11
9238.60369750186
 21
6304.471102063035
 31
0.0
  0
TEXT
  5
205C7
330
1F
100
AcDbEntity
  8
D-STR-DIM
100
AcDbText
 10
9521.754096374914
 20
5920.470903591382
 30
0.0
 40
70.0
  1
100
100
AcDbText
  0
LINE
  5
205C8
330
1F
100
AcDbEntity
  8
D-STR-DIM
  6
Continuous
100
AcDbLine
 10
9688.603715710838
 20
5904.47110365506
 30
0.0
 11
9521.753676374919
 21
5904.47110365506
 31
0.0
  0
CIRCLE
  5
205C9
330
1F
100
AcDbEntity
  8
D-STR-DIM
  6
Continuous
100
AcDbCircle
 10
9638.603655909889
 20
5904.47110365506
 30
0.0
 40
5.999997976119627
  0
LINE
  5
205CA
330
1F
100
AcDbEntity
  8
D-STR-DIM
  6
Continuous
100
AcDbLine
 10
9638.603655909889
 20
5904.47110365506
 30
0.0
 11
9688.603715710838
 21
5904.47110365506
 31
0.0
  0
LINE
  5
205CB
330
1F
100
AcDbEntity
  8
D-STR-STR2
  6
Continuous
100
AcDbLine
 10
9722.603895575517
 20
6104.471102859047
 30
0.0
 11
9638.603655909889
 21
6104.471102859047
 31
0.0
  0
LINE
  5
205CC
330
1F
100
AcDbEntity
  8
D-STR-STR2
  6
Continuous
100
AcDbLine
 10
9638.603655909889
 20
6204.471502461039
 30
0.0
 11
9722.603895575517
 21
6204.471502461039
 31
0.0
  0
LINE
  5
205CD
330
1F
100
AcDbEntity
  8
D-STR-STR2
  6
Continuous
100
AcDbLine
 10
9722.603895575517
 20
6204.471502461039
 30
0.0
 11
9722.603895575517
 21
6104.471102859047
 31
0.0
  0
CIRCLE
  5
205CE
330
1F
100
AcDbEntity
  8
D-STR-STR2
  6
Continuous
100
AcDbCircle
 10
9703.603655651189
 20
6378.471301768512
 30
0.0
 40
9.999997960199371
  0
LINE
  5
205CF
330
1F
100
AcDbEntity
  8
D-BMK
  6
CENTER2
100
AcDbLine
 10
9703.603655651189
 20
6418.471501609309
 30
0.0
 11
9703.603655651189
 21
6338.471101927712
 31
0.0
  0
CIRCLE
  5
205D1
330
1F
100
AcDbEntity
  8
D-STR-DIM
  6
Continuous
100
AcDbCircle
 10
9638.603655909889
 20
7054.471099077987
 30
0.0
 40
5.999997976119627
  0
CIRCLE
  5
205D2
330
1F
100
AcDbEntity
  8
D-STR-DIM
  6
Continuous
100
AcDbCircle
 10
9638.603655909889
 20
7354.471497883968
 30
0.0
 40
5.999997976119627
  0
LINE
  5
205D3
330
1F
100
AcDbEntity
  8
D-STR-DIM
  6
Continuous
100
AcDbLine
 10
10388.60365292484
 20
7141.191898732833
 30
0.0
 11
10388.60365292484
 21
7384.471097764566
 31
0.0
  0
TEXT
  5
205D4
330
1F
100
AcDbEntity
  8
D-STR-DIM
100
AcDbText
 10
10301.74365327053
 20
7070.470699014308
 30
0.0
 40
70.0
  1
750
100
AcDbText
  0
TEXT
  5
205D5
330
1F
100
AcDbEntity
  8
D-STR-DIM
100
AcDbText
 10
10301.74365327053
 20
5920.470903591382
 30
0.0
 40
70.0
  1
200
100
AcDbText
  0
LINE
  5
205D6
330
1F
100
AcDbEntity
  8
D-STR-DIM
  6
Continuous
100
AcDbLine
 10
10013.60365441737
 20
7054.471099077987
 30
0.0
 11
10388.60365292484
 21
7054.471099077987
 31
0.0
  0
LINE
  5
205D7
330
1F
100
AcDbEntity
  8
D-STR-DIM
  6
Continuous
100
AcDbLine
 10
10288.60369332279
 20
5904.47110365506
 30
0.0
 11
10388.60365292484
 21
5904.47110365506
 31
0.0
  0
LINE
  5
205D8
330
1F
100
AcDbEntity
  8
D-STR-HTXT
  6
Continuous
100
AcDbLine
 10
10344.79023309922
 20
6386.327501737241
 30
0.0
 11
10713.42247163204
 21
6854.471099874
 31
0.0
  0
LINE
  5
205D9
330
1F
100
AcDbEntity
  8
D-STR
  6
Continuous
100
AcDbLine
 10
10498.60367248697
 20
6454.471301466026
 30
0.0
 11
10278.60365336265
 21
6454.471301466026
 31
0.0
  0
LINE
  5
205DA
330
1F
100
AcDbEntity
  8
D-STR
  6
Continuous
100
AcDbLine
 10
10488.60363252683
 20
6444.470701505828
 30
0.0
 11
10288.60369332279
 21
6444.470701505828
 31
0.0
  0
LINE
  5
205DB
330
1F
100
AcDbEntity
  8
D-STR
  6
Continuous
100
AcDbLine
 10
10278.60365336265
 20
6354.470701864034
 30
0.0
 11
9748.603675472018
 21
6354.470701864034
 31
0.0
  0
LINE
  5
205DC
330
1F
100
AcDbEntity
  8
D-STR-STR2
  6
Continuous
100
AcDbLine
 10
10138.60361391984
 20
6279.470702162539
 30
0.0
 11
9888.603694914817
 21
6279.470702162539
 31
0.0
  0
LINE
  5
205DD
330
1F
100
AcDbEntity
  8
D-STR-STR2
  6
Continuous
100
AcDbLine
 10
10138.60361391984
 20
6029.471103157552
 30
0.0
 11
9888.603694914817
 21
6029.471103157552
 31
0.0
  0
LINE
  5
205DE
330
1F
100
AcDbEntity
  8
D-BMK
  6
CENTER2
100
AcDbLine
 10
10178.60367376059
 20
6154.470902660046
 30
0.0
 11
9848.60363507407
 21
6154.470902660046
 31
0.0
  0
LINE
  5
205DF
330
1F
100
AcDbEntity
  8
D-STR-STR2
  6
Continuous
100
AcDbLine
 10
10148.60367387999
 20
6019.471503197352
 30
0.0
 11
9878.60365495468
 21
6019.471503197352
 31
0.0
  0
LINE
  5
205E0
330
1F
100
AcDbEntity
  8
D-STR-STR2
  6
Continuous
100
AcDbLine
 10
10148.60367387999
 20
6289.471302122736
 30
0.0
 11
9878.60365495468
 21
6289.471302122736
 31
0.0
  0
LINE
  5
205E1
330
1F
100
AcDbEntity
  8
D-STR-STR2
  6
Continuous
100
AcDbLine
 10
9888.603694914817
 20
6279.470702162539
 30
0.0
 11
9888.603694914817
 21
6029.471103157552
 31
0.0
  0
LINE
  5
205E2
330
1F
100
AcDbEntity
  8
D-BMK
  6
CENTER2
100
AcDbLine
 10
10013.60365441737
 20
6319.470902003335
 30
0.0
 11
10013.60365441737
 21
5989.470903316756
 31
0.0
  0
LINE
  5
205E3
330
1F
100
AcDbEntity
  8
D-STR-STR2
  6
Continuous
100
AcDbLine
 10
9878.60365495468
 20
6289.471302122736
 30
0.0
 11
9878.60365495468
 21
6019.471503197352
 31
0.0
  0
TEXT
  5
205E4
330
1F
100
AcDbEntity
  8
D-STR-DIM
100
AcDbText
 10
9762.145695418146
 20
5920.470903591382
 30
0.0
 40
70.0
  1
10
100
AcDbText
  0
CIRCLE
  5
205E5
330
1F
100
AcDbEntity
  8
D-STR-DIM
  6
Continuous
100
AcDbCircle
 10
9748.603675472018
 20
5904.47110365506
 30
0.0
 40
5.999997976119627
  0
CIRCLE
  5
205E6
330
1F
100
AcDbEntity
  8
D-STR-DIM
  6
Continuous
100
AcDbCircle
 10
9738.603695511827
 20
5904.47110365506
 30
0.0
 40
5.999997976119627
  0
LINE
  5
205E7
330
1F
100
AcDbEntity
  8
D-STR-DIM
  6
Continuous
100
AcDbLine
 10
9748.603675472018
 20
5904.47110365506
 30
0.0
 11
9743.603655491986
 21
5904.47110365506
 31
0.0
  0
LINE
  5
205E8
330
1F
100
AcDbEntity
  8
D-STR-DIM
  6
Continuous
100
AcDbLine
 10
9743.603655491986
 20
5904.47110365506
 30
0.0
 11
9871.866014981428
 21
5904.47110365506
 31
0.0
  0
LINE
  5
205E9
330
1F
100
AcDbEntity
  8
D-STR-DIM
  6
Continuous
100
AcDbLine
 10
9738.603695511827
 20
5904.47110365506
 30
0.0
 11
9743.603655491986
 21
5904.47110365506
 31
0.0
  0
LINE
  5
205EA
330
1F
100
AcDbEntity
  8
D-STR
  6
Continuous
100
AcDbLine
 10
9748.603675472018
 20
6454.471301466026
 30
0.0
 11
9738.603695511827
 21
6444.471701505825
 31
0.0
  0
LINE
  5
205EB
330
1F
100
AcDbEntity
  8
D-STR-STR2
  6
Continuous
100
AcDbLine
 10
10138.60361391984
 20
6279.470702162539
 30
0.0
 11
10138.60361391984
 21
6029.471103157552
 31
0.0
  0
LINE
  5
205EC
330
1F
100
AcDbEntity
  8
D-STR-STR2
  6
Continuous
100
AcDbLine
 10
10148.60367387999
 20
6289.471302122736
 30
0.0
 11
10148.60367387999
 21
6019.471503197352
 31
0.0
  0
CIRCLE
  5
205ED
330
1F
100
AcDbEntity
  8
D-STR-DIM
  6
Continuous
100
AcDbCircle
 10
10278.60365336265
 20
5904.47110365506
 30
0.0
 40
5.999997976119627
  0
CIRCLE
  5
205EE
330
1F
100
AcDbEntity
  8
D-STR-DIM
  6
Continuous
100
AcDbCircle
 10
10288.60369332279
 20
5904.47110365506
 30
0.0
 40
5.999997976119627
  0
LINE
  5
205EF
330
1F
100
AcDbEntity
  8
D-STR-DIM
  6
Continuous
100
AcDbLine
 10
10278.60365336265
 20
5904.47110365506
 30
0.0
 11
10283.60367334268
 21
5904.47110365506
 31
0.0
  0
LINE
  5
205F0
330
1F
100
AcDbEntity
  8
D-STR-DIM
  6
Continuous
100
AcDbLine
 10
10288.60369332279
 20
5904.47110365506
 30
0.0
 11
10283.60367334268
 21
5904.47110365506
 31
0.0
  0
CIRCLE
  5
205F1
330
1F
100
AcDbEntity
  8
D-STR-STR2
  6
Continuous
100
AcDbCircle
 10
10338.60367312378
 20
6378.471301768512
 30
0.0
 40
9.999997960199371
  0
LINE
  5
205F2
330
1F
100
AcDbEntity
  8
D-STR-HTXT
  6
Continuous
100
AcDbLine
 10
10363.99509302273
 20
6422.118101594794
 30
0.0
 11
10344.79023309922
 21
6386.327501737241
 31
0.0
  0
LINE
  5
205F3
330
1F
100
AcDbEntity
  8
D-BMK
  6
CENTER2
100
AcDbLine
 10
10338.60367312378
 20
6418.471501609309
 30
0.0
 11
10338.60367312378
 21
6338.471101927712
 31
0.0
  0
LINE
  5
205F4
330
1F
100
AcDbEntity
  8
D-BMK
  6
CENTER2
100
AcDbLine
 10
10378.60361296463
 20
6378.471301768512
 30
0.0
 11
10298.60361328304
 21
6378.471301768512
 31
0.0
  0
LINE
  5
205F5
330
1F
100
AcDbEntity
  8
D-STR
  6
Continuous
100
AcDbLine
 10
10278.60365336265
 20
6454.471301466026
 30
0.0
 11
10288.60369332279
 21
6444.471701505825
 31
0.0
  0
LINE
  5
205F6
330
1F
100
AcDbEntity
  8
D-STR-DIM
  6
Continuous
100
AcDbLine
 10
10013.60365441737
 20
6674.471100670013
 30
0.0
 11
10013.60365441737
 21
7084.470698958589
 31
0.0
  0
TEXT
  5
205F7
330
1F
100
AcDbEntity
  8
D-STR-DIM
100
AcDbText
 10
9739.243655509325
 20
7070.470699014308
 30
0.0
 40
70.0
  1
375
100
AcDbText
  0
LINE
  5
205F8
330
1F
100
AcDbEntity
  8
D-STR-DIM
  6
Continuous
100
AcDbLine
 10
10013.60365441737
 20
7054.471099077987
 30
0.0
 11
9826.103655163629
 21
7054.471099077987
 31
0.0
  0
CIRCLE
  5
205F9
330
1F
100
AcDbEntity
  8
D-STR-DIM
  6
Continuous
100
AcDbCircle
 10
10013.60365441737
 20
7054.471099077987
 30
0.0
 40
5.999997976119627
  0
LINE
  5
205FA
330
1F
100
AcDbEntity
  8
D-STR-HTXT
  6
Continuous
100
AcDbLine
 10
10443.60367270587
 20
6387.131101734044
 30
0.0
 11
10713.42247163204
 21
6854.471099874
 31
0.0
  0
LINE
  5
205FB
330
1F
100
AcDbEntity
  8
D-STR
  6
Continuous
100
AcDbLine
 10
11028.60351037756
 20
6354.470701864034
 30
0.0
 11
10498.60367248697
 21
6354.470701864034
 31
0.0
  0
LINE
  5
205FC
330
1F
100
AcDbEntity
  8
D-BMK
  6
CENTER2
100
AcDbLine
 10
10928.60351077556
 20
6154.470902660046
 30
0.0
 11
10598.60365208903
 21
6154.470902660046
 31
0.0
  0
LINE
  5
205FD
330
1F
100
AcDbEntity
  8
D-STR-STR2
  6
Continuous
100
AcDbLine
 10
10898.60351089497
 20
6289.471302122736
 30
0.0
 11
10628.60365196963
 21
6289.471302122736
 31
0.0
  0
LINE
  5
205FE
330
1F
100
AcDbEntity
  8
D-STR-STR2
  6
Continuous
100
AcDbLine
 10
10898.60351089497
 20
6019.471503197352
 30
0.0
 11
10628.60365196963
 21
6019.471503197352
 31
0.0
  0
LINE
  5
205FF
330
1F
100
AcDbEntity
  8
D-STR-STR2
  6
Continuous
100
AcDbLine
 10
10888.60371093476
 20
6029.471103157552
 30
0.0
 11
10638.60371192977
 21
6029.471103157552
 31
0.0
  0
LINE
  5
20600
330
1F
100
AcDbEntity
  8
D-STR-STR2
  6
Continuous
100
AcDbLine
 10
10888.60371093476
 20
6279.470702162539
 30
0.0
 11
10638.60371192977
 21
6279.470702162539
 31
0.0
  0
LINE
  5
20601
330
1F
100
AcDbEntity
  8
D-STR-STR2
  6
Continuous
100
AcDbLine
 10
10628.60365196963
 20
6289.471302122736
 30
0.0
 11
10628.60365196963
 21
6019.471503197352
 31
0.0
  0
LINE
  5
20602
330
1F
100
AcDbEntity
  8
D-STR-STR2
  6
Continuous
100
AcDbLine
 10
10638.60371192977
 20
6279.470702162539
 30
0.0
 11
10638.60371192977
 21
6029.471103157552
 31
0.0
  0
CIRCLE
  5
20603
330
1F
100
AcDbEntity
  8
D-STR-DIM
  6
Continuous
100
AcDbCircle
 10
10488.60363252683
 20
5904.47110365506
 30
0.0
 40
5.999997976119627
  0
CIRCLE
  5
20604
330
1F
100
AcDbEntity
  8
D-STR-DIM
  6
Continuous
100
AcDbCircle
 10
10498.60367248697
 20
5904.47110365506
 30
0.0
 40
5.999997976119627
  0
LINE
  5
20605
330
1F
100
AcDbEntity
  8
D-STR-DIM
  6
Continuous
100
AcDbLine
 10
10488.60363252683
 20
5904.47110365506
 30
0.0
 11
10388.60365292484
 21
5904.47110365506
 31
0.0
  0
LINE
  5
20606
330
1F
100
AcDbEntity
  8
D-STR-DIM
  6
Continuous
100
AcDbLine
 10
10488.60363252683
 20
5904.47110365506
 30
0.0
 11
10493.60365250694
 21
5904.47110365506
 31
0.0
  0
LINE
  5
20607
330
1F
100
AcDbEntity
  8
D-STR-DIM
  6
Continuous
100
AcDbLine
 10
10498.60367248697
 20
5904.47110365506
 30
0.0
 11
10493.60365250694
 21
5904.47110365506
 31
0.0
  0
CIRCLE
  5
20608
330
1F
100
AcDbEntity
  8
D-STR-STR2
  6
Continuous
100
AcDbCircle
 10
10438.60365272584
 20
6378.471301768512
 30
0.0
 40
9.999997960199371
  0
LINE
  5
20609
330
1F
100
AcDbEntity
  8
D-STR-HTXT
  6
Continuous
100
AcDbLine
 10
10457.49549265065
 20
6425.298101582137
 30
0.0
 11
10443.60367270587
 21
6387.131101734044
 31
0.0
  0
LINE
  5
2060A
330
1F
100
AcDbEntity
  8
D-BMK
  6
CENTER2
100
AcDbLine
 10
10438.60365272584
 20
6418.471501609309
 30
0.0
 11
10438.60365272584
 21
6338.471101927712
 31
0.0
  0
LINE
  5
2060B
330
1F
100
AcDbEntity
  8
D-BMK
  6
CENTER2
100
AcDbLine
 10
10478.60371256658
 20
6378.471301768512
 30
0.0
 11
10398.60371288499
 21
6378.471301768512
 31
0.0
  0
LINE
  5
2060C
330
1F
100
AcDbEntity
  8
D-STR
  6
Continuous
100
AcDbLine
 10
10498.60305248698
 20
6454.471301466026
 30
0.0
 11
10488.60363252683
 21
6444.470701505828
 31
0.0
  0
LINE
  5
2060D
330
1F
100
AcDbEntity
  8
D-BMK
  6
CENTER2
100
AcDbLine
 10
10763.60351143227
 20
6319.470902003335
 30
0.0
 11
10763.60351143227
 21
5989.470903316756
 31
0.0
  0
LINE
  5
2060E
330
1F
100
AcDbEntity
  8
D-STR-STR2
  6
Continuous
100
AcDbLine
 10
10898.60351089497
 20
6289.471302122736
 30
0.0
 11
10898.60351089497
 21
6019.471503197352
 31
0.0
  0
LINE
  5
2060F
330
1F
100
AcDbEntity
  8
D-STR-STR2
  6
Continuous
100
AcDbLine
 10
10888.60371093476
 20
6279.470702162539
 30
0.0
 11
10888.60371093476
 21
6029.471103157552
 31
0.0
  0
TEXT
  5
20610
330
1F
100
AcDbEntity
  8
D-STR-DIM
100
AcDbText
 10
10905.34151086819
 20
5920.470903591382
 30
0.0
 40
70.0
  1
10
100
AcDbText
  0
CIRCLE
  5
20611
330
1F
100
AcDbEntity
  8
D-STR-DIM
  6
Continuous
100
AcDbCircle
 10
11028.60351037756
 20
5904.47110365506
 30
0.0
 40
5.999997976119627
  0
LINE
  5
20612
330
1F
100
AcDbEntity
  8
D-STR-DIM
  6
Continuous
100
AcDbLine
 10
11028.60351037756
 20
5904.47110365506
 30
0.0
 11
11033.60351035766
 21
5904.47110365506
 31
0.0
  0
LINE
  5
20613
330
1F
100
AcDbEntity
  8
D-STR-DIM
  6
Continuous
100
AcDbLine
 10
11033.60351035766
 20
5904.47110365506
 30
0.0
 11
10905.34111086813
 21
5904.47110365506
 31
0.0
  0
LINE
  5
20614
330
1F
100
AcDbEntity
  8
D-STR-DIM
  6
Continuous
100
AcDbLine
 10
10763.60351143227
 20
7054.471099077987
 30
0.0
 11
10388.60365292484
 21
7054.471099077987
 31
0.0
  0
LINE
  5
20615
330
1F
100
AcDbEntity
  8
D-STR-DIM
  6
Continuous
100
AcDbLine
 10
10388.60365292484
 20
7024.471499197389
 30
0.0
 11
10388.60365292484
 21
6684.470900550611
 31
0.0
  0
LINE
  5
20616
330
1F
100
AcDbEntity
  8
D-STR-DIM
  6
Continuous
100
AcDbLine
 10
10763.60351143227
 20
6728.471500375488
 30
0.0
 11
10763.60351143227
 21
6684.470900550611
 31
0.0
  0
TEXT
  5
20617
330
1F
100
AcDbEntity
  8
D-STR-DIM
100
AcDbText
 10
10864.24351103171
 20
7070.470699014308
 30
0.0
 40
70.0
  1
375
100
AcDbText
  0
LINE
  5
20618
330
1F
100
AcDbEntity
  8
D-STR-DIM
  6
Continuous
100
AcDbLine
 10
10763.60351143227
 20
7054.471099077987
 30
0.0
 11
10951.10351068601
 21
7054.471099077987
 31
0.0
  0
CIRCLE
  5
20619
330
1F
100
AcDbEntity
  8
D-STR-DIM
  6
Continuous
100
AcDbCircle
 10
10763.60351143227
 20
7054.471099077987
 30
0.0
 40
5.999997976119627
  0
LINE
  5
2061A
330
1F
100
AcDbEntity
  8
D-STR-DIM
  6
Continuous
100
AcDbLine
 10
10763.60351143227
 20
6950.471099491915
 30
0.0
 11
10763.60351143227
 21
7084.470698958589
 31
0.0
  0
LINE
  5
2061C
330
1F
100
AcDbEntity
  8
D-STR-DIM
  6
Continuous
100
AcDbLine
 10
10388.60365292484
 20
7354.471497883968
 30
0.0
 11
10013.60365441737
 21
7354.471497883968
 31
0.0
  0
TEXT
  5
2061F
330
1F
100
AcDbEntity
  8
D-STR-DIM
100
AcDbText
 10
9926.743654763065
 20
7370.471097820288
 30
0.0
 40
70.0
  1
750
100
AcDbText
  0
TEXT
  5
20621
330
1F
100
AcDbEntity
  8
D-STR-DIM
100
AcDbText
 10
10676.74365177801
 20
7370.471097820288
 30
0.0
 40
70.0
  1
750
100
AcDbText
  0
LINE
  5
20622
330
1F
100
AcDbEntity
  8
D-STR-DIM
  6
Continuous
100
AcDbLine
 10
10388.60365292484
 20
7354.471497883968
 30
0.0
 11
10763.60351143227
 21
7354.471497883968
 31
0.0
  0
CIRCLE
  5
20623
330
1F
100
AcDbEntity
  8
D-STR-DIM
  6
Continuous
100
AcDbCircle
 10
10388.60365292484
 20
7354.471497883968
 30
0.0
 40
5.999997976119627
  0
LINE
  5
20625
330
1F
100
AcDbEntity
  8
D-STR
  6
Continuous
100
AcDbLine
 10
11138.60350993975
 20
6654.471100670012
 30
0.0
 11
11138.60350993975
 21
4754.471308232132
 31
0.0
  0
LINE
  5
20626
330
1F
100
AcDbEntity
  8
D-STR
  6
Continuous
100
AcDbLine
 10
11038.60351033775
 20
6444.470701505828
 30
0.0
 11
11038.60351033775
 21
4964.470707396322
 31
0.0
  0
LINE
  5
20627
330
1F
100
AcDbEntity
  8
D-STR-DIM
  6
Continuous
100
AcDbLine
 10
11138.60350993975
 20
4734.471308232133
 30
0.0
 11
11138.60350993975
 21
4024.471311137579
 31
0.0
  0
LINE
  5
20628
330
1F
100
AcDbEntity
  8
D-STR-DIM
  6
Continuous
100
AcDbLine
 10
11073.60351019845
 20
4734.471308232133
 30
0.0
 11
11073.60351019845
 21
4324.470709943562
 31
0.0
  0
CIRCLE
  5
20629
330
1F
100
AcDbEntity
  8
D-STR-DIM
  6
Continuous
100
AcDbCircle
 10
11138.60350993975
 20
4054.471111018178
 30
0.0
 40
5.999997976119627
  0
TEXT
  5
2062A
330
1F
100
AcDbEntity
  8
D-STR-DIM
100
AcDbText
 10
11083.74351015812
 20
4258.151310207519
 30
0.0
 40
70.0
  1
65
100
AcDbText
  0
CIRCLE
  5
2062B
330
1F
100
AcDbEntity
  8
D-STR-DIM
  6
Continuous
100
AcDbCircle
 10
11073.60351019845
 20
4354.471509824157
 30
0.0
 40
5.999997976119627
  0
CIRCLE
  5
2062C
330
1F
100
AcDbEntity
  8
D-STR-DIM
  6
Continuous
100
AcDbCircle
 10
11138.60350993975
 20
4354.471509824157
 30
0.0
 40
5.999997976119627
  0
LINE
  5
2062D
330
1F
100
AcDbEntity
  8
D-STR-DIM
  6
Continuous
100
AcDbLine
 10
11073.60351019845
 20
4354.471509824157
 30
0.0
 11
11106.1035100691
 21
4354.471509824157
 31
0.0
  0
LINE
  5
2062E
330
1F
100
AcDbEntity
  8
D-STR-DIM
  6
Continuous
100
AcDbLine
 10
11138.60350993975
 20
4354.471509824157
 30
0.0
 11
11106.1035100691
 21
4354.471509824157
 31
0.0
  0
CIRCLE
  5
2062F
330
1F
100
AcDbEntity
  8
D-STR-STR2
  6
Continuous
100
AcDbCircle
 10
11073.60351019845
 20
5037.471107105775
 30
0.0
 40
9.999997960199371
  0
LINE
  5
20630
330
1F
100
AcDbEntity
  8
D-STR
  6
Continuous
100
AcDbLine
 10
11138.60350993975
 20
4964.470707396322
 30
0.0
 11
11038.60351033775
 21
4964.470707396322
 31
0.0
  0
LINE
  5
20631
330
1F
100
AcDbEntity
  8
D-BMK
  6
CENTER2
100
AcDbLine
 10
11073.60351019845
 20
5077.471306946573
 30
0.0
 11
11073.60351019845
 21
4997.47090726498
 31
0.0
  0
LINE
  5
20632
330
1F
100
AcDbEntity
  8
D-STR-DIM
  6
Continuous
100
AcDbLine
 10
11338.60350914373
 20
5529.470705147586
 30
0.0
 11
11338.60350914373
 21
5654.471504650075
 31
0.0
  0
CIRCLE
  5
20633
330
1F
100
AcDbEntity
  8
D-STR-DIM
  6
Continuous
100
AcDbCircle
 10
11338.60350914373
 20
5529.470705147586
 30
0.0
 40
5.999997976119627
  0
CIRCLE
  5
20634
330
1F
100
AcDbEntity
  8
D-STR-DIM
  6
Continuous
100
AcDbCircle
 10
11338.60350914373
 20
5519.471105187385
 30
0.0
 40
5.999997976119627
  0
LINE
  5
20635
330
1F
100
AcDbEntity
  8
D-STR-DIM
  6
Continuous
100
AcDbLine
 10
11338.60350914373
 20
5529.470705147586
 30
0.0
 11
11338.60350914373
 21
5524.471305167486
 31
0.0
  0
LINE
  5
20636
330
1F
100
AcDbEntity
  8
D-STR-DIM
  6
Continuous
100
AcDbLine
 10
11338.60350914373
 20
5519.471105187385
 30
0.0
 11
11338.60350914373
 21
5524.471305167486
 31
0.0
  0
TEXT
  5
20637
330
1F
100
AcDbEntity
  8
D-STR-DIM
100
AcDbText
 10
11322.60350920743
 20
5567.610904995786
 30
0.0
 40
70.0
  1
250
 50
90.0
100
AcDbText
  0
CIRCLE
  5
20638
330
1F
100
AcDbEntity
  8
D-STR-DIM
  6
Continuous
100
AcDbCircle
 10
11338.60350914373
 20
5789.470904112768
 30
0.0
 40
5.999997976119627
  0
CIRCLE
  5
20639
330
1F
100
AcDbEntity
  8
D-STR-DIM
  6
Continuous
100
AcDbCircle
 10
11338.60350914373
 20
5779.471304152568
 30
0.0
 40
5.999997976119627
  0
LINE
  5
2063A
330
1F
100
AcDbEntity
  8
D-STR-DIM
  6
Continuous
100
AcDbLine
 10
11338.60350914373
 20
5789.470904112768
 30
0.0
 11
11338.60350914373
 21
5784.471704132666
 31
0.0
  0
LINE
  5
2063B
330
1F
100
AcDbEntity
  8
D-STR-DIM
  6
Continuous
100
AcDbLine
 10
11338.60350914373
 20
5779.471304152568
 30
0.0
 11
11338.60350914373
 21
5784.471704132666
 31
0.0
  0
LINE
  5
2063C
330
1F
100
AcDbEntity
  8
D-STR-DIM
  6
Continuous
100
AcDbLine
 10
11338.60350914373
 20
5779.471304152568
 30
0.0
 11
11338.60350914373
 21
5654.471504650075
 31
0.0
  0
TEXT
  5
2063D
330
1F
100
AcDbEntity
  8
D-STR-DIM
100
AcDbText
 10
11434.92370876042
 20
5469.611105385832
 30
0.0
 40
70.0
  1
10
 50
90.0
100
AcDbText
  0
TEXT
  5
2063E
330
1F
100
AcDbEntity
  8
D-STR-DIM
100
AcDbText
 10
11434.92370876042
 20
5729.611304351016
 30
0.0
 40
70.0
  1
10
 50
90.0
100
AcDbText
  0
LINE
  5
2063F
330
1F
100
AcDbEntity
  8
D-STR-DIM
  6
Continuous
100
AcDbLine
 10
11138.60350993975
 20
6950.471099491915
 30
0.0
 11
11138.60350993975
 21
7384.471097764566
 31
0.0
  0
LINE
  5
20640
330
1F
100
AcDbEntity
  8
D-STR-HTXT
  6
Continuous
100
AcDbLine
 10
11388.60350894473
 20
5904.47110365506
 30
0.0
 11
11733.85870200532
 21
5904.47110365506
 31
0.0
  0
LINE
  5
20641
330
1F
100
AcDbEntity
  8
D-STR-DIM
  6
Continuous
100
AcDbLine
 10
11198.60350993975
 20
6154.470902660046
 30
0.0
 11
11568.60350822832
 21
6154.470902660046
 31
0.0
  0
LINE
  5
20642
330
1F
100
AcDbEntity
  8
D-STR-DIM
  6
Continuous
100
AcDbLine
 10
11158.60350993975
 20
6454.471301466026
 30
0.0
 11
11568.60350822832
 21
6454.471301466026
 31
0.0
  0
LINE
  5
20643
330
1F
100
AcDbEntity
  8
D-STR-HTXT
  6
Continuous
100
AcDbLine
 10
11388.60350894473
 20
5904.47110365506
 30
0.0
 11
11138.60350993975
 21
6154.470902660046
 31
0.0
  0
TEXT
  5
20644
330
1F
100
AcDbEntity
  8
D-STR-DIM
100
AcDbText
 10
11081.73371016611
 20
5920.470903591382
 30
0.0
 40
70.0
  1
100
100
AcDbText
  0
LINE
  5
20645
330
1F
100
AcDbEntity
  8
D-STR-DIM
  6
Continuous
100
AcDbLine
 10
11088.60351013875
 20
5904.47110365506
 30
0.0
 11
11255.45350947472
 21
5904.47110365506
 31
0.0
  0
CIRCLE
  5
20646
330
1F
100
AcDbEntity
  8
D-STR-DIM
  6
Continuous
100
AcDbCircle
 10
11138.60350993975
 20
5904.47110365506
 30
0.0
 40
5.999997976119627
  0
LINE
  5
20647
330
1F
100
AcDbEntity
  8
D-STR-DIM
  6
Continuous
100
AcDbLine
 10
11038.60351033775
 20
5904.47110365506
 30
0.0
 11
11088.60351013875
 21
5904.47110365506
 31
0.0
  0
LINE
  5
20648
330
1F
100
AcDbEntity
  8
D-STR-DIM
  6
Continuous
100
AcDbLine
 10
11138.60350993975
 20
5904.47110365506
 30
0.0
 11
11088.60351013875
 21
5904.47110365506
 31
0.0
  0
LINE
  5
20649
330
1F
100
AcDbEntity
  8
D-STR-HTXT
  6
Continuous
100
AcDbLine
 10
11171.87510980733
 20
6131.173902752771
 30
0.0
 11
11138.60350993975
 21
6154.470902660046
 31
0.0
  0
LINE
  5
2064A
330
1F
100
AcDbEntity
  8
D-STR-STR2
  6
Continuous
100
AcDbLine
 10
11054.60331027406
 20
6204.471502461039
 30
0.0
 11
11054.60331027406
 21
6104.471102859047
 31
0.0
  0
LINE
  5
2064B
330
1F
100
AcDbEntity
  8
D-STR-STR2
  6
Continuous
100
AcDbLine
 10
11138.60350993975
 20
6204.471502461039
 30
0.0
 11
11054.60331027406
 21
6204.471502461039
 31
0.0
  0
LINE
  5
2064C
330
1F
100
AcDbEntity
  8
D-STR-STR2
  6
Continuous
100
AcDbLine
 10
11054.60331027406
 20
6104.471102859047
 30
0.0
 11
11138.60350993975
 21
6104.471102859047
 31
0.0
  0
CIRCLE
  5
2064D
330
1F
100
AcDbEntity
  8
D-STR-STR2
  6
Continuous
100
AcDbCircle
 10
11073.60351019845
 20
6378.471301768512
 30
0.0
 40
9.999997960199371
  0
LINE
  5
2064E
330
1F
100
AcDbEntity
  8
D-STR
  6
Continuous
100
AcDbLine
 10
11138.60350993975
 20
6444.470701505828
 30
0.0
 11
11038.60351033775
 21
6444.470701505828
 31
0.0
  0
LINE
  5
2064F
330
1F
100
AcDbEntity
  8
D-BMK
  6
CENTER2
100
AcDbLine
 10
11073.60351019845
 20
6418.471501609309
 30
0.0
 11
11073.60351019845
 21
6338.471101927712
 31
0.0
  0
TEXT
  5
20650
330
1F
100
AcDbEntity
  8
D-STR-DIM
100
AcDbText
 10
11522.60350841142
 20
6217.611502408741
 30
0.0
 40
70.0
  1
300
 50
90.0
100
AcDbText
  0
LINE
  5
20651
330
1F
100
AcDbEntity
  8
D-STR-DIM
  6
Continuous
100
AcDbLine
 10
11538.60350834772
 20
6154.470902660046
 30
0.0
 11
11538.60350834772
 21
6304.471102063035
 31
0.0
  0
TEXT
  5
20652
330
1F
100
AcDbEntity
  8
D-STR-HTXT
100
AcDbText
 10
11327.73109110184
 20
5920.470903591382
 30
0.0
 40
70.0
  1
　連結金具
100
AcDbText
  0
CIRCLE
  5
20653
330
1F
100
AcDbEntity
  8
D-STR-DIM
  6
Continuous
100
AcDbCircle
 10
11538.60350834772
 20
6154.470902660046
 30
0.0
 40
5.999997976119627
  0
CIRCLE
  5
20654
330
1F
100
AcDbEntity
  8
D-STR-DIM
  6
Continuous
100
AcDbCircle
 10
11538.60350834772
 20
6454.471301466026
 30
0.0
 40
5.999997976119627
  0
LINE
  5
20655
330
1F
100
AcDbEntity
  8
D-STR-DIM
  6
Continuous
100
AcDbLine
 10
11538.60350834772
 20
6454.471301466026
 30
0.0
 11
11538.60350834772
 21
6304.471102063035
 31
0.0
  0
LINE
  5
20656
330
1F
100
AcDbEntity
  8
D-STR-DIM
  6
Continuous
100
AcDbLine
 10
11138.60350993975
 20
6728.471500375488
 30
0.0
 11
11138.60350993975
 21
6684.470900550611
 31
0.0
  0
CIRCLE
  5
20657
330
1F
100
AcDbEntity
  8
D-STR-DIM
  6
Continuous
100
AcDbCircle
 10
11138.60350993975
 20
7054.471099077987
 30
0.0
 40
5.999997976119627
  0
LINE
  5
20658
330
1F
100
AcDbEntity
  8
D-STR-DIM
  6
Continuous
100
AcDbLine
 10
11138.60350993975
 20
6950.471099491915
 30
0.0
 11
11138.60350993975
 21
7084.470698958589
 31
0.0
  0
CIRCLE
  5
20659
330
1F
100
AcDbEntity
  8
D-STR-DIM
  6
Continuous
100
AcDbCircle
 10
11138.60350993975
 20
7354.471497883968
 30
0.0
 40
5.999997976119627
  0
LINE
  5
2065A
330
1F
100
AcDbEntity
  8
D-MTR-FRAM
  6
Continuous
100
AcDbLine
 10
13445.43640994603
 20
8602.470618488935
 30
0.0
 11
13445.43640994603
 21
7955.8061629466
 31
0.0
  0
TEXT
  5
2065F
330
1F
100
AcDbEntity
  8
D-MTR
100
AcDbText
 10
14194.70654736466
 20
8657.332067603379
 30
0.0
 40
140.0
  1
　材　料　表　
100
AcDbText
  0
TEXT
  5
20660
330
1F
100
AcDbEntity
  8
D-MTR-TXT
100
AcDbText
 10
14345.78186930527
 20
8492.007799113009
 30
0.0
 40
70.0
  1
種　　類
100
AcDbText
  0
LINE
  5
20661
330
1F
100
AcDbEntity
  8
D-MTR-FRAM
  6
Continuous
100
AcDbLine
 10
15547.43578015501
 20
8602.470618488935
 30
0.0
 11
15547.43578015501
 21
7955.8061629466
 31
0.0
  0
LINE
  5
20662
330
1F
100
AcDbEntity
  8
D-MTR-FRAM
  6
Continuous
100
AcDbLine
 10
16153.43577714609
 20
8602.470618488935
 30
0.0
 11
16153.43577714609
 21
7955.8061629466
 31
0.0
  0
TEXT
  5
20663
330
1F
100
AcDbEntity
  8
D-MTR-MTXT
100
AcDbText
 10
15552.0584485688
 20
7974.67644267914
 30
0.0
 40
70.0
  1
　　16　本
100
AcDbText
  0
TEXT
  5
20664
330
1F
100
AcDbEntity
  8
D-MTR-MTXT
100
AcDbText
 10
15519.43597966944
 20
8104.008421787614
 30
0.0
 40
70.0
  1
　　　4　本
100
AcDbText
  0
TEXT
  5
20666
330
1F
100
AcDbEntity
  8
D-MTR-MTXT
100
AcDbText
 10
15535.74721411912
 20
8233.342640896074
 30
0.0
 40
70.0
  1
　　　1　個
100
AcDbText
  0
TEXT
  5
20667
330
1F
100
AcDbEntity
  8
D-MTR-MTXT
100
AcDbText
 10
15519.43597966944
 20
8362.675260004541
 30
0.0
 40
70.0
  1
　　　8　個
100
AcDbText
  0
TEXT
  5
20668
330
1F
100
AcDbEntity
  8
D-MTR-TXT
100
AcDbText
 10
15704.49732931691
 20
8492.007799113009
 30
0.0
 40
70.0
  1
個　　数
100
AcDbText
  0
TEXT
  5
20681
330
1F
100
AcDbEntity
  8
D-MTR-TXT
100
AcDbText
 10
13778.20766780957
 20
9122.338609176754
 30
0.0
 40
70.0
  1
製　品　質　量
100
AcDbText
  0
TEXT
  5
20685
330
1F
100
AcDbEntity
  8
D-MTR-MTXT
100
AcDbText
 10
14887.81816041213
 20
9122.338609176754
 30
0.0
 40
70.0
  1
4,410
100
AcDbText
  0
TEXT
  5
20694
330
1F
100
AcDbEntity
  8
D-MTR-MTXT
100
AcDbText
 10
15255.56586397679
 20
9129.877835974737
 30
0.0
 40
70.0
  1
 kg
100
AcDbText
  0
LINE
  5
21BEC
330
1F
100
AcDbEntity
  8
D-TTL-FRAM
 48
20.0
100
AcDbLine
 10
16419.99993371339
 20
1599.999993589328
 30
0.0
 11
14419.99994172685
 21
1599.999993589328
 31
0.0
  0
LINE
  5
21BF3
330
1F
100
AcDbEntity
  8
D-TTL-FRAM
 48
20.0
100
AcDbLine
 10
14419.99994172685
 20
1599.999993589328
 30
0.0
 11
14419.99994172685
 21
399.9999983974072
 31
0.0
  0
TEXT
  5
21CF5
330
1F
100
AcDbEntity
  8
D-TTL-TXT
100
AcDbText
 10
5239.480170321878
 20
7254.630019266169
 30
0.0
 40
140.0
  1
 断面図
100
AcDbText
  0
TEXT
  5
2209C
330
1F
100
AcDbEntity
  8
D-TTL-TXT
  6
Continuous
100
AcDbText
 10
16005.63366108791
 20
11361.78187022015
 30
0.0
 40
69.9999997195286
  1
A4A03
 72
     4
 11
16168.96699376682
 21
11396.78187007991
 31
0.0
100
AcDbText
  0
LINE
  5
2209D
330
1F
100
AcDbEntity
  8
D-TTL-TXT
  6
Continuous
100
AcDbLine
 10
15679.99993667822
 20
11479.99995400271
 30
0.0
 11
16419.99993371327
 21
11479.99995400271
 31
0.0
  0
LINE
  5
2209E
330
1F
100
AcDbEntity
  8
D-TTL-TXT
  6
Continuous
100
AcDbLine
 10
15679.99993667822
 20
11319.9999546438
 30
0.0
 11
16419.99993371327
 21
11319.9999546438
 31
0.0
  0
TEXT
  5
220B9
330
1F
100
AcDbEntity
  8
D-TTL-TXT
  6
Continuous
100
AcDbText
 10
15731.42849647237
 20
11359.99995448351
 30
0.0
 40
69.9999997195286
  1
図番
100
AcDbText
  0
LINE
  5
220BA
330
1F
100
AcDbEntity
  8
D-TTL-TXT
  6
Continuous
100
AcDbLine
 10
15679.99993667822
 20
11479.99995400271
 30
0.0
 11
15679.99993667822
 21
11319.9999546438
 31
0.0
  0
LINE
  5
220BB
330
1F
100
AcDbEntity
  8
D-TTL-TXT
  6
Continuous
100
AcDbLine
 10
15919.99993571663
 20
11479.99995400271
 30
0.0
 11
15919.99993571663
 21
11319.9999546438
 31
0.0
  0
LINE
  5
220BC
330
1F
100
AcDbEntity
  8
D-TTL-TXT
  6
Continuous
100
AcDbLine
 10
16419.99993371327
 20
11479.99995400271
 30
0.0
 11
16419.99993371327
 21
11319.9999546438
 31
0.0
  0
TEXT
  5
220BD
330
1F
100
AcDbEntity
  8
D-TTL-TXT
100
AcDbText
 10
11340.30370494729
 20
11027.68936812968
 30
0.0
 40
99.99999000000102
  1
S = 1/20
100
AcDbText
  0
TEXT
  5
220BE
330
1F
100
AcDbEntity
  8
D-TTL-TXT
100
AcDbText
 10
4113.020614971814
 20
11035.6901673296
 30
0.0
 40
200.0
  1
Ｃ．Ｃ．ＢＯＸ　1,200×1,500×1,500　Ａタイプ　構造図
100
AcDbText
  0
TEXT
  5
220BF
330
1F
100
AcDbEntity
  8
D-TTL-TXT
100
AcDbText
 10
5128.802971514101
 20
7023.221450584
 30
0.0
 40
100.0
  1
　車　道　側　
100
AcDbText
  0
TEXT
  5
220C0
330
1F
100
AcDbEntity
  8
D-TTL-TXT
100
AcDbText
 10
7736.967615306079
 20
7023.221450584
 30
0.0
 40
100.0
  1
　民　地　側　
100
AcDbText
  0
TEXT
  5
230EB
330
1F
100
AcDbEntity
  8
D-TTL-TXT
100
AcDbText
 10
5239.480170321878
 20
10080.65772501439
 30
0.0
 40
140.0
  1
 頂　版　
100
AcDbText
  0
TEXT
  5
23516
330
1F
100
AcDbEntity
  8
D-TTL-TXT
100
AcDbText
 10
5239.480170321877
 20
3090.491932995608
 30
0.0
 40
140.0
  1
 底　版　
100
AcDbText
  0
TEXT
  5
23AE7
330
1F
100
AcDbEntity
  8
D-TTL-TXT
100
AcDbText
 10
2807.249681919168
 20
7605.156970373773
 30
0.0
 40
140.0
  1
側壁（車道側）
100
AcDbText
  0
TEXT
  5
23AE8
330
1F
100
AcDbEntity
  8
D-TTL-TXT
100
AcDbText
 10
9858.379498402817
 20
7605.156970373773
 30
0.0
 40
140.0
  1
側壁（民地側）
100
AcDbText
  0
LEADER
  5
23AFC
330
1F
100
AcDbEntity
  8
D-STR-HTXT
100
AcDbLeader
  3
20
 73
     0
 74
     0
 40
70.00000000000001
 41
219.3333333333334
 76
     3
 10
7563.062946431848
 20
2754.470916192262
 30
0.0
 10
7713.062946431849
 20
3014.278537327593
 30
0.0
 10
7767.465449351141
 20
3014.278537327593
 30
0.0
340
23AFD
213
34.40250291929169
223
0.0
233
0.0
  0
MTEXT
  5
23AFD
102
{ACAD_REACTORS
330
23AFC
102
}
330
1F
100
AcDbEntity
  8
D-STR-HTXT
100
AcDbMText
 10
7753.06294643185
 20
3034.278537327594
 30
0.0
 40
70.0
 41
0.0
 71
     7
 72
     1
  1
\A1;目地側
 73
     1
 44
1.0
1001
ACAD
1000
MTEXTBEGIN
1070
    73
1070
     1
1070
    44
1040
1.0
1070
    74
1070
     0
1000
MTEXTEND
  0
TEXT
  5
23B62
330
1F
100
AcDbEntity
  8
D-MTR
100
AcDbText
 10
13922.50269595346
 20
10738.47047794181
 30
0.0
 40
139.9999999999999
  1
　設　計　条　件　
100
AcDbText
  0
TEXT
  5
23B63
330
1F
100
AcDbEntity
  8
D-MTR-TXT
100
AcDbText
 10
14399.5653331998
 20
10027.67125902172
 30
0.0
 40
69.99999999999999
  1
長）
100
AcDbText
  0
TEXT
  5
23B64
330
1F
100
AcDbEntity
  8
D-MTR-TXT
100
AcDbText
 10
14158.23259066641
 20
10545.00535395496
 30
0.0
 40
69.99999999999999
  1
活　荷　重
100
AcDbText
  0
TEXT
  5
23B65
330
1F
100
AcDbEntity
  8
D-MTR-TXT
100
AcDbText
 10
14158.23259066641
 20
10415.67092022176
 30
0.0
 40
69.99999999999999
  1
衝　　　撃
100
AcDbText
  0
TEXT
  5
23B66
330
1F
100
AcDbEntity
  8
D-MTR-TXT
100
AcDbText
 10
14113.43203514646
 20
9769.004071555125
 30
0.0
 40
69.99999999999999
  1
地下水位以上
100
AcDbText
  0
TEXT
  5
23B67
330
1F
100
AcDbEntity
  8
D-MTR-TXT
100
AcDbText
 10
14113.43203514646
 20
9639.67131782172
 30
0.0
 40
69.99999999999999
  1
地下水位以下
100
AcDbText
  0
TEXT
  5
23B68
330
1F
100
AcDbEntity
  8
D-MTR-TXT
100
AcDbText
 10
14113.43203514646
 20
9381.004130355119
 30
0.0
 40
69.99999999999999
  1
コンクリ－ト
100
AcDbText
  0
TEXT
  5
23B69
330
1F
100
AcDbEntity
  8
D-MTR-TXT
100
AcDbText
 10
14203.03230618644
 20
9251.671376621713
 30
0.0
 40
69.99999999999999
  1
鉄　　筋
100
AcDbText
  0
LINE
  5
23B6A
330
1F
100
AcDbEntity
  8
D-MTR-FRAM
  6
Continuous
100
AcDbLine
 10
13445.43640994603
 20
9231.804155275074
 30
0.0
 11
16153.43577714609
 21
9231.804155275074
 31
0.0
  0
LINE
  5
23B6B
330
1F
100
AcDbEntity
  8
D-MTR-FRAM
  6
Continuous
100
AcDbLine
 10
14085.43604594607
 20
9361.138309008357
 30
0.0
 11
16153.43577714609
 21
9361.138309008357
 31
0.0
  0
LINE
  5
23B6C
330
1F
100
AcDbEntity
  8
D-MTR-FRAM
  6
Continuous
100
AcDbLine
 10
13445.43640994603
 20
9490.471062741761
 30
0.0
 11
16153.43577714609
 21
9490.471062741761
 31
0.0
  0
LINE
  5
23B6D
330
1F
100
AcDbEntity
  8
D-MTR-FRAM
  6
Continuous
100
AcDbLine
 10
13445.43640994603
 20
9619.803816475117
 30
0.0
 11
16153.43577714609
 21
9619.803816475117
 31
0.0
  0
LINE
  5
23B6E
330
1F
100
AcDbEntity
  8
D-MTR-FRAM
  6
Continuous
100
AcDbLine
 10
14085.43604594607
 20
9749.138250208362
 30
0.0
 11
16153.43577714609
 21
9749.138250208362
 31
0.0
  0
LINE
  5
23B6F
330
1F
100
AcDbEntity
  8
D-MTR-FRAM
  6
Continuous
100
AcDbLine
 10
13445.43640994603
 20
9878.471003941768
 30
0.0
 11
16153.43577714609
 21
9878.471003941768
 31
0.0
  0
LINE
  5
23B70
330
1F
100
AcDbEntity
  8
D-MTR-FRAM
  6
Continuous
100
AcDbLine
 10
13445.43640994603
 20
10007.80375767512
 30
0.0
 11
16153.43577714609
 21
10007.80375767512
 31
0.0
  0
LINE
  5
23B71
330
1F
100
AcDbEntity
  8
D-MTR-FRAM
  6
Continuous
100
AcDbLine
 10
13445.43640994603
 20
10137.1379114084
 30
0.0
 11
16153.43577714609
 21
10137.1379114084
 31
0.0
  0
LINE
  5
23B72
330
1F
100
AcDbEntity
  8
D-MTR-FRAM
  6
Continuous
100
AcDbLine
 10
13445.43640994603
 20
10266.47094514177
 30
0.0
 11
16153.43577714609
 21
10266.47094514177
 31
0.0
  0
LINE
  5
23B73
330
1F
100
AcDbEntity
  8
D-MTR-FRAM
  6
Continuous
100
AcDbLine
 10
13445.43640994603
 20
10395.805098875
 30
0.0
 11
16153.43577714609
 21
10395.805098875
 31
0.0
  0
LINE
  5
23B74
330
1F
100
AcDbEntity
  8
D-MTR-FRAM
  6
Continuous
100
AcDbLine
 10
14085.43604594607
 20
10525.13785260841
 30
0.0
 11
16153.43577714609
 21
10525.13785260841
 31
0.0
  0
LINE
  5
23B75
330
1F
100
AcDbEntity
  8
D-MTR-FRAM
  6
Continuous
100
AcDbLine
 10
13445.43640994603
 20
10654.47088634178
 30
0.0
 11
16153.43577714609
 21
10654.47088634178
 31
0.0
  0
LINE
  5
23B76
330
1F
100
AcDbEntity
  8
D-MTR-FRAM
  6
Continuous
100
AcDbLine
 10
13445.43640994603
 20
10654.47088634178
 30
0.0
 11
13445.43640994603
 21
9102.471382721828
 31
0.0
  0
TEXT
  5
23B77
330
1F
100
AcDbEntity
  8
D-MTR-TXT
100
AcDbText
 10
13475.07544876402
 20
9316.337753488417
 30
0.0
 40
69.99999999999999
  1
使　用　材　料
100
AcDbText
  0
LINE
  5
23B78
330
1F
100
AcDbEntity
  8
D-MTR-FRAM
  6
Continuous
100
AcDbLine
 10
14085.43604594607
 20
9490.471062741761
 30
0.0
 11
14085.43604594607
 21
9231.804155275074
 31
0.0
  0
LINE
  5
23B79
330
1F
100
AcDbEntity
  8
D-MTR-FRAM
  6
Continuous
100
AcDbLine
 10
14085.43604594607
 20
10654.47088634178
 30
0.0
 11
14085.43604594607
 21
10395.805098875
 31
0.0
  0
TEXT
  5
23B7A
330
1F
100
AcDbEntity
  8
D-MTR-TXT
100
AcDbText
 10
13519.7957938491
 20
10027.67125902172
 30
0.0
 40
69.99999999999999
  1
内空寸法
100
AcDbText
  0
TEXT
  5
23B7B
330
1F
100
AcDbEntity
  8
D-MTR-TXT
100
AcDbText
 10
13509.4326735464
 20
9704.337694688422
 30
0.0
 40
69.99999999999999
  1
土の単位重量
100
AcDbText
  0
TEXT
  5
23B7C
330
1F
100
AcDbEntity
  8
D-MTR-TXT
100
AcDbText
 10
13526.23239186643
 20
10157.00401275513
 30
0.0
 40
69.99999999999999
  1
構造形式　　　
100
AcDbText
  0
TEXT
  5
23B7D
330
1F
100
AcDbEntity
  8
D-MTR-TXT
100
AcDbText
 10
13803.50026121505
 20
9510.338284088348
 30
0.0
 40
69.99999999999999
  1
土　圧　係　数
100
AcDbText
  0
TEXT
  5
23B7E
330
1F
100
AcDbEntity
  8
D-MTR-TXT
100
AcDbText
 10
13773.34164986349
 20
9898.338225288355
 30
0.0
 40
69.99999999999999
  1
地　下　水　位
100
AcDbText
  0
TEXT
  5
23B7F
330
1F
100
AcDbEntity
  8
D-MTR-TXT
100
AcDbText
 10
13708.87352971151
 20
10286.33816648836
 30
0.0
 40
69.99999999999999
  1
許　容　土　被　り
100
AcDbText
  0
LINE
  5
23B80
330
1F
100
AcDbEntity
  8
D-MTR-FRAM
  6
Continuous
100
AcDbLine
 10
14085.43604594607
 20
9878.471003941768
 30
0.0
 11
14085.43604594607
 21
9619.803816475117
 31
0.0
  0
TEXT
  5
23B81
330
1F
100
AcDbEntity
  8
D-MTR-TXT
100
AcDbText
 10
14109.6989868531
 20
10027.67125902172
 30
0.0
 40
69.99999999999999
  1
×
100
AcDbText
  0
TEXT
  5
23B82
330
1F
100
AcDbEntity
  8
D-MTR-TXT
100
AcDbText
 10
13924.36318757917
 20
10157.00401275513
 30
0.0
 40
69.99999999999999
  1
　（工場製品）
100
AcDbText
  0
TEXT
  5
23B83
330
1F
100
AcDbEntity
  8
D-MTR-TXT
100
AcDbText
 10
13857.20421460802
 20
10027.67125902172
 30
0.0
 40
69.99999999999999
  1
　（幅
100
AcDbText
  0
TEXT
  5
23B84
330
1F
100
AcDbEntity
  8
D-MTR-TXT
100
AcDbText
 10
14298.49923997307
 20
10027.67125902172
 30
0.0
 40
69.99999999999999
  1
×
100
AcDbText
  0
TEXT
  5
23B85
330
1F
100
AcDbEntity
  8
D-MTR-TXT
100
AcDbText
 10
14197.43258674641
 20
10027.67125902172
 30
0.0
 40
69.99999999999999
  1
高
100
AcDbText
  0
TEXT
  5
23B86
330
1F
100
AcDbEntity
  8
D-MTR-TXT
100
AcDbText
 10
13472.46462869937
 20
10480.33757708843
 30
0.0
 40
69.99999999999999
  1
設　計　荷　重
100
AcDbText
  0
LINE
  5
23B87
330
1F
100
AcDbEntity
  8
D-MTR-FRAM
  6
Continuous
100
AcDbLine
 10
16153.43577714609
 20
10654.47088634178
 30
0.0
 11
16153.43577714609
 21
9102.471382721828
 31
0.0
  0
LINE
  5
23B88
330
1F
100
AcDbEntity
  8
D-MTR-FRAM
  6
Continuous
100
AcDbLine
 10
14626.7693064794
 20
10654.47088634178
 30
0.0
 11
14626.7693064794
 21
9102.471382721828
 31
0.0
  0
TEXT
  5
23B89
330
1F
100
AcDbEntity
  8
D-MTR-MTXT
100
AcDbText
 10
15184.58537561337
 20
9379.542298514317
 30
0.0
 40
69.99999999999999
  1
σｃｋ＝　35Ｎ／ｍｍ
100
AcDbText
  0
TEXT
  5
23B8A
330
1F
100
AcDbEntity
  8
D-MTR-MTXT
100
AcDbText
 10
15184.58537561337
 20
9250.209544780913
 30
0.0
 40
69.99999999999999
  1
σｓａ＝160Ｎ／ｍｍ
100
AcDbText
  0
TEXT
  5
23B8B
330
1F
100
AcDbEntity
  8
D-MTR-MTXT
100
AcDbText
 10
14662.76529287981
 20
9381.004130355119
 30
0.0
 40
69.99999999999999
  1
設計基準強度　　
100
AcDbText
  0
TEXT
  5
23B8C
330
1F
100
AcDbEntity
  8
D-MTR-MTXT
100
AcDbText
 10
14662.76529287981
 20
9251.671376621713
 30
0.0
 40
69.99999999999999
  1
ＳＤ２９５Ａ　　
100
AcDbText
  0
TEXT
  5
23B8D
330
1F
100
AcDbEntity
  8
D-MTR-MTXT
100
AcDbText
 10
16059.81620209657
 20
9420.320365441954
 30
0.0
 40
49.99999999999999
  1
2
100
AcDbText
  0
TEXT
  5
23B8E
330
1F
100
AcDbEntity
  8
D-MTR-MTXT
100
AcDbText
 10
16029.7313340053
 20
9290.987611708548
 30
0.0
 40
49.99999999999999
  1
2
100
AcDbText
  0
TEXT
  5
23B8F
330
1F
100
AcDbEntity
  8
D-MTR-MTXT
100
AcDbText
 10
14662.76529287981
 20
10545.00535395496
 30
0.0
 40
69.99999999999999
  1
Ｔ－25　（後輪１輪　100ｋＮ）
100
AcDbText
  0
TEXT
  5
23B90
330
1F
100
AcDbEntity
  8
D-MTR-MTXT
100
AcDbText
 10
15475.70439325673
 20
10286.33816648836
 30
0.0
 40
69.99999999999999
  1
1.000　ｍ
100
AcDbText
  0
TEXT
  5
23B92
330
1F
100
AcDbEntity
  8
D-MTR-MTXT
100
AcDbText
 10
14662.76529287981
 20
10415.67092022176
 30
0.0
 40
69.99999999999999
  1
ｉ＝0.3
100
AcDbText
  0
TEXT
  5
23B93
330
1F
100
AcDbEntity
  8
D-MTR-MTXT
100
AcDbText
 10
14662.76529287981
 20
9769.004071555125
 30
0.0
 40
69.99999999999999
  1
γ＝19.0ｋＮ／ｍ
100
AcDbText
  0
LINE
  5
23B94
330
1F
100
AcDbEntity
  8
D-MTR-MTXT
  6
Continuous
100
AcDbLine
 10
14694.76928967941
 20
9943.137380808419
 30
0.0
 11
15534.76976567935
 21
9943.137380808419
 31
0.0
  0
TEXT
  5
23B95
330
1F
100
AcDbEntity
  8
D-MTR-MTXT
100
AcDbText
 10
14662.76529287981
 20
10157.00401275513
 30
0.0
 40
69.99999999999999
  1
鉄筋コンクリ－ト箱形
100
AcDbText
  0
TEXT
  5
23B96
330
1F
100
AcDbEntity
  8
D-MTR-MTXT
100
AcDbText
 10
14976.3652615198
 20
10286.33816648836
 30
0.0
 40
69.99999999999999
  1
0.200
100
AcDbText
  0
TEXT
  5
23B97
330
1F
100
AcDbEntity
  8
D-MTR-MTXT
100
AcDbText
 10
14662.76529287981
 20
9510.338284088348
 30
0.0
 40
69.99999999999999
  1
ｋａ＝0.5　（静止土圧係数）
100
AcDbText
  0
TEXT
  5
23B98
330
1F
100
AcDbEntity
  8
D-MTR-MTXT
100
AcDbText
 10
14730.45631061583
 20
10027.67125902172
 30
0.0
 40
69.99999999999999
  1
1,200
100
AcDbText
  0
TEXT
  5
23B99
330
1F
100
AcDbEntity
  8
D-MTR-MTXT
100
AcDbText
 10
14662.76529287981
 20
10286.33816648836
 30
0.0
 40
69.99999999999999
  1
Ｈ′＝
100
AcDbText
  0
TEXT
  5
23B9A
330
1F
100
AcDbEntity
  8
D-MTR-MTXT
100
AcDbText
 10
15088.89857693314
 20
10027.67125902172
 30
0.0
 40
69.99999999999999
  1
×
100
AcDbText
  0
TEXT
  5
23B9B
330
1F
100
AcDbEntity
  8
D-MTR-MTXT
100
AcDbText
 10
15381.49913121536
 20
9816.346430596539
 30
0.0
 40
49.99999999999999
  1
3
100
AcDbText
  0
TEXT
  5
23B9C
330
1F
100
AcDbEntity
  8
D-MTR-MTXT
100
AcDbText
 10
15239.3653744204
 20
10027.67125902172
 30
0.0
 40
69.99999999999999
  1
1,500
100
AcDbText
  0
TEXT
  5
23B9D
330
1F
100
AcDbEntity
  8
D-MTR-MTXT
100
AcDbText
 10
15341.30496669667
 20
10286.33816648836
 30
0.0
 40
69.99999999999999
  1
～
100
AcDbText
  0
TEXT
  5
23BBA
330
1F
100
AcDbEntity
  8
D-MTR-MTXT
100
AcDbText
 10
15742.24419952443
 20
10027.67125902172
 30
0.0
 40
69.99999999999999
  1
1,500
100
AcDbText
  0
TEXT
  5
23BBB
330
1F
100
AcDbEntity
  8
D-MTR-MTXT
100
AcDbText
 10
15591.77740203716
 20
10027.67125902172
 30
0.0
 40
69.99999999999999
  1
×
100
AcDbText
  0
VIEWPORT
  5
2E
102
{ACAD_XDICTIONARY
360
23BCF
102
}
330
1B
100
AcDbEntity
 67
     1
  8
0
100
AcDbViewport
 10
473.1810839499198
 20
473.2126938647103
 30
0.0
 40
2443.154659054329
 41
1598.230339464706
 68
     1
 69
     1
 12
473.1810839499198
 22
473.2126938647103
 13
0.0
 23
0.0
 14
10.0
 24
10.0
 15
10.0
 25
10.0
 16
0.0
 26
0.0
 36
1.0
 17
0.0
 27
0.0
 37
0.0
 42
50.0
 43
0.0
 44
0.0
 45
1598.230339464706
 50
0.0
 51
0.0
 72
   100
 90
    32800
  1

281
     0
 71
     1
 74
     0
110
0.0
120
0.0
130
0.0
111
1.0
121
0.0
131
0.0
112
0.0
122
1.0
132
0.0
 79
     0
146
0.0
  0
ENDSEC
  0
SECTION
  2
OBJECTS
  0
DICTIONARY
  5
C
330
0
100
AcDbDictionary
281
     1
  3
ACAD_COLOR
350
23BC5
  3
ACAD_GROUP
350
D
  3
ACAD_LAYOUT
350
1A
  3
ACAD_MATERIAL
350
23BC4
  3
ACAD_MLINESTYLE
350
17
  3
ACAD_PLOTSETTINGS
350
19
  3
ACAD_PLOTSTYLENAME
350
7E80
  3
ACAD_TABLESTYLE
350
23BC6
  3
AcadDim
350
23AFB
  3
ACDBHEADERROUNDTRIPXREC
350
23BCE
  3
AcDbVariableDictionary
350
7E86
1001
ACAD
1000
TREAT_AS_HARD
1070
     0
  0
DICTIONARY
  5
7BCB
330
1F
100
AcDbDictionary
280
     1
281
     1
  3
ACAD_LAYOUTSELFREF
360
7DA3
1001
ACAD
1000
TREAT_AS_HARD
1070
     1
  0
DICTIONARY
  5
7BCD
330
1B
100
AcDbDictionary
280
     1
281
     1
  3
ACAD_LAYOUTSELFREF
360
7DA2
1001
ACAD
1000
TREAT_AS_HARD
1070
     1
  0
DICTIONARY
  5
23BCF
330
2E
100
AcDbDictionary
280
     1
281
     1
  3
ACAD_XREC_ROUNDTRIP
360
23BD0
  0
DICTIONARY
  5
23BC5
102
{ACAD_REACTORS
330
C
102
}
330
C
100
AcDbDictionary
281
     1
  0
DICTIONARY
  5
D
102
{ACAD_REACTORS
330
C
102
}
330
C
100
AcDbDictionary
281
     1
1001
ACAD
1000
TREAT_AS_HARD
1070
     0
  0
DICTIONARY
  5
1A
102
{ACAD_REACTORS
330
C
102
}
330
C
100
AcDbDictionary
281
     1
  3
Model
350
7E82
  3
ﾚｲｱｳﾄ1
350
7E83
1001
ACAD
1000
TREAT_AS_HARD
1070
     0
  0
DICTIONARY
  5
23BC4
102
{ACAD_REACTORS
330
C
102
}
330
C
100
AcDbDictionary
281
     1
  0
DICTIONARY
  5
17
102
{ACAD_REACTORS
330
C
102
}
330
C
100
AcDbDictionary
281
     1
  3
STANDARD
350
18
1001
ACAD
1000
TREAT_AS_HARD
1070
     0
  0
DICTIONARY
  5
19
102
{ACAD_REACTORS
330
C
102
}
330
C
100
AcDbDictionary
281
     1
1001
ACAD
1000
TREAT_AS_HARD
1070
     0
  0
ACDBDICTIONARYWDFLT
  5
7E80
102
{ACAD_REACTORS
330
C
102
}
330
C
100
AcDbDictionary
281
     1
  3
Normal
350
7E81
100
AcDbDictionaryWithDefault
340
7E81
  0
DICTIONARY
  5
23BC6
102
{ACAD_REACTORS
330
C
102
}
330
C
100
AcDbDictionary
281
     1
  3
Standard
350
23BC7
  0
XRECORD
  5
23AFB
102
{ACAD_REACTORS
330
C
102
}
330
C
100
AcDbXrecord
280
     1
 90
   990106
  3

 60
     0
 61
     0
 62
     4
 63
     4
 64
     1
 65
     0
 66
     0
 67
     3
 68
     1
 69
     0
 70
     0
 71
     0
 72
     0
 40
0.0
170
     2
340
23AFD
  0
DICTIONARY
  5
23BCE
102
{ACAD_REACTORS
330
C
102
}
330
C
100
AcDbDictionary
281
     1
  0
DICTIONARY
  5
7E86
102
{ACAD_REACTORS
330
C
102
}
330
C
100
AcDbDictionary
281
     1
  3
CTABLESTYLE
350
23BCB
  3
DIMASSOC
350
7E87
  3
PROJECTNAME
350
23BCC
  3
SORTENTS
350
B6AF
  0
XRECORD
  5
7DA3
102
{ACAD_REACTORS
330
7BCB
102
}
330
7BCB
100
AcDbXrecord
280
     1
340
1F
  0
XRECORD
  5
7DA2
102
{ACAD_REACTORS
330
7BCD
102
}
330
7BCD
100
AcDbXrecord
280
     1
340
1B
  0
XRECORD
  5
23BD0
102
{ACAD_REACTORS
330
23BCF
102
}
330
23BCF
100
AcDbXrecord
280
     1
102
SHADEPLOT
 70
     0
  0
LAYOUT
  5
7E82
102
{ACAD_XDICTIONARY
360
23BD1
102
}
102
{ACAD_REACTORS
330
1A
102
}
330
1A
100
AcDbPlotSettings
  1

  2
RICOH IPSiO NX730N RPCS
  4
A3
  6

 40
5.873749732971191
 41
5.873747825622558
 42
5.873748779296875
 43
5.873748779296875
 44
296.9259948730469
 45
419.9466552734374
 46
-5.91
 47
-6.15
 48
0.0
 49
0.0
140
16819.99993279995
141
11879.99995240002
142
1.0
143
40.0
 70
 11948
 72
     1
 73
     1
 74
     4
  7
canon国土交通省.ctb
 75
     0
147
0.025
148
0.0
149
0.0
100
AcDbLayout
  1
Model
 70
     1
 71
     0
 10
0.0
 20
0.0
 11
12.0
 21
9.0
 12
0.0
 22
0.0
 32
0.0
 14
0.0
 24
0.0
 34
0.0
 15
0.0
 25
0.0
 35
0.0
146
0.0
 13
0.0
 23
0.0
 33
0.0
 16
1.0
 26
0.0
 36
0.0
 17
0.0
 27
1.0
 37
0.0
 76
     0
330
1F
  0
LAYOUT
  5
7E83
102
{ACAD_XDICTIONARY
360
23BD3
102
}
102
{ACAD_REACTORS
330
1A
102
}
330
1A
100
AcDbPlotSettings
  1

  2
Canon LASER SHOT LBP-740
  4

  6

 40
0.0
 41
0.0
 42
0.0
 43
0.0
 44
0.0
 45
0.0
 46
0.0
 47
0.0
 48
0.0
 49
0.0
140
0.0
141
0.0
142
1.0
143
0.000000000000000E+99
 70
   688
 72
     0
 73
     1
 74
     1
  7
canon国土交通省.ctb
 75
     0
147
0.0
148
182.4834335403793
149
501.366229236586
100
AcDbLayout
  1
ﾚｲｱｳﾄ1
 70
     1
 71
     1
 10
-7.184387147259029
 20
-19.73882792270024
 11
-7.184387147259029
 21
-19.73882792270024
 12
0.0
 22
0.0
 32
0.0
 14
-7.18438714725903
 24
-19.73882792270024
 34
-0.0015258207003583
 15
833.8481947040165
 25
574.2966304217307
 35
0.0000000349246037
146
0.0
 13
0.0
 23
0.0
 33
0.0
 16
1.0
 26
0.0
 36
0.0
 17
0.0
 27
1.0
 37
0.0
 76
     0
330
1B
331
2E
  0
MLINESTYLE
  5
18
102
{ACAD_REACTORS
330
17
102
}
330
17
100
AcDbMlineStyle
  2
STANDARD
 70
     0
  3

 62
   256
 51
90.0
 52
90.0
 71
     2
 49
0.5
 62
   256
  6
BYLAYER
 49
-0.5
 62
   256
  6
BYLAYER
  0
ACDBPLACEHOLDER
  5
7E81
102
{ACAD_REACTORS
330
7E80
102
}
330
7E80
  0
TABLESTYLE
  5
23BC7
102
{ACAD_REACTORS
330
23BC6
102
}
330
23BC6
100
AcDbTableStyle
  3
Standard
 70
     0
 71
     0
 40
0.06
 41
0.06
280
     0
281
     0
  7
STANDARD
140
0.18
170
     2
 62
     0
 63
     7
283
     0
274
    -2
284
     1
 64
     0
275
    -2
285
     1
 65
     0
276
    -2
286
     1
 66
     0
277
    -2
287
     1
 67
     0
278
    -2
288
     1
 68
     0
279
    -2
289
     1
 69
     0
  7
STANDARD
140
0.25
170
     5
 62
     0
 63
     7
283
     0
274
    -2
284
     1
 64
     0
275
    -2
285
     1
 65
     0
276
    -2
286
     1
 66
     0
277
    -2
287
     1
 67
     0
278
    -2
288
     1
 68
     0
279
    -2
289
     1
 69
     0
  7
STANDARD
140
0.18
170
     5
 62
     0
 63
     7
283
     0
274
    -2
284
     1
 64
     0
275
    -2
285
     1
 65
     0
276
    -2
286
     1
 66
     0
277
    -2
287
     1
 67
     0
278
    -2
288
     1
 68
     0
279
    -2
289
     1
 69
     0
  0
DICTIONARYVAR
  5
23BCB
102
{ACAD_REACTORS
330
7E86
102
}
330
7E86
100
DictionaryVariables
280
     0
  1
STANDARD
  0
DICTIONARYVAR
  5
7E87
102
{ACAD_REACTORS
330
7E86
102
}
330
7E86
100
DictionaryVariables
280
     0
  1
1
  0
DICTIONARYVAR
  5
23BCC
102
{ACAD_REACTORS
330
7E86
102
}
330
7E86
100
DictionaryVariables
280
     0
  1

  0
DICTIONARYVAR
  5
B6AF
102
{ACAD_REACTORS
330
7E86
102
}
330
7E86
100
DictionaryVariables
280
     0
  1
112
  0
DICTIONARY
  5
23BD1
330
7E82
100
AcDbDictionary
280
     1
281
     1
  3
ACAD_XREC_ROUNDTRIP
360
23BD2
  0
DICTIONARY
  5
23BD3
330
7E83
100
AcDbDictionary
280
     1
281
     1
  3
ACAD_XREC_ROUNDTRIP
360
23BD4
  0
XRECORD
  5
23BD2
102
{ACAD_REACTORS
330
23BD1
102
}
330
23BD1
100
AcDbXrecord
280
     1
102
SHADEPLOT
 70
     2
102
SHADEPLOTRESLEVEL
 70
     2
102
SHADEPLOTCUSTOMDPI
 70
   300
  0
XRECORD
  5
23BD4
102
{ACAD_REACTORS
330
23BD3
102
}
330
23BD3
100
AcDbXrecord
280
     1
102
SHADEPLOT
 70
     0
102
SHADEPLOTRESLEVEL
 70
     2
102
SHADEPLOTCUSTOMDPI
 70
   300
  0
ENDSEC
  0
EOF
