  0
SECTION
  2
HEADER
  9
$ACADVER
  1
AC1015
  9
$ACADMAINTVER
 70
    20
  9
$DWGCODEPAGE
  3
ANSI_932
  9
$INSBASE
 10
0.0
 20
0.0
 30
0.0
  9
$EXTMIN
 10
0.0
 20
0.0
 30
0.0
  9
$EXTMAX
 10
16819.99993279995
 20
11879.99995240002
 30
0.0
  9
$LIMMIN
 10
0.0
 20
0.0
  9
$LIMMAX
 10
420.0
 20
297.0
  9
$ORTHOMODE
 70
     0
  9
$REGENMODE
 70
     1
  9
$FILLMODE
 70
     1
  9
$QTEXTMODE
 70
     0
  9
$MIRRTEXT
 70
     0
  9
$LTSCALE
 40
20.0
  9
$ATTMODE
 70
     1
  9
$TEXTSIZE
 40
2.5
  9
$TRACEWID
 40
1.0
  9
$TEXTSTYLE
  7
STANDARD
  9
$CLAYER
  8
0
  9
$CELTYPE
  6
BYLAYER
  9
$CECOLOR
 62
   256
  9
$CELTSCALE
 40
1.0
  9
$DISPSILH
 70
     0
  9
$DIMSCALE
 40
1.0
  9
$DIMASZ
 40
20.0
  9
$DIMEXO
 40
20.0
  9
$DIMDLI
 40
0.0
  9
$DIMRND
 40
0.0
  9
$DIMDLE
 40
0.0
  9
$DIMEXE
 40
20.0
  9
$DIMTP
 40
0.0
  9
$DIMTM
 40
0.0
  9
$DIMTXT
 40
70.0
  9
$DIMCEN
 40
20.0
  9
$DIMTSZ
 40
0.0
  9
$DIMTOL
 70
     0
  9
$DIMLIM
 70
     0
  9
$DIMTIH
 70
     0
  9
$DIMTOH
 70
     0
  9
$DIMSE1
 70
     0
  9
$DIMSE2
 70
     0
  9
$DIMTAD
 70
     1
  9
$DIMZIN
 70
     8
  9
$DIMBLK
  1
OPEN
  9
$DIMASO
 70
     1
  9
$DIMSHO
 70
     1
  9
$DIMPOST
  1

  9
$DIMAPOST
  1

  9
$DIMALT
 70
     0
  9
$DIMALTD
 70
     3
  9
$DIMALTF
 40
0.03937007874016
  9
$DIMLFAC
 40
1.0
  9
$DIMTOFL
 70
     1
  9
$DIMTVP
 40
0.0
  9
$DIMTIX
 70
     1
  9
$DIMSOXD
 70
     0
  9
$DIMSAH
 70
     0
  9
$DIMBLK1
  1

  9
$DIMBLK2
  1

  9
$DIMSTYLE
  2
20
  9
$DIMCLRD
 70
   256
  9
$DIMCLRE
 70
   256
  9
$DIMCLRT
 70
   256
  9
$DIMTFAC
 40
1.0
  9
$DIMGAP
 40
20.0
  9
$DIMJUST
 70
     0
  9
$DIMSD1
 70
     0
  9
$DIMSD2
 70
     0
  9
$DIMTOLJ
 70
     1
  9
$DIMTZIN
 70
     8
  9
$DIMALTZ
 70
     0
  9
$DIMALTTZ
 70
     0
  9
$DIMUPT
 70
     0
  9
$DIMDEC
 70
     0
  9
$DIMTDEC
 70
     0
  9
$DIMALTU
 70
     2
  9
$DIMALTTD
 70
     3
  9
$DIMTXSTY
  7
STANDARD
  9
$DIMAUNIT
 70
     1
  9
$DIMADEC
 70
     4
  9
$DIMALTRND
 40
0.0
  9
$DIMAZIN
 70
     0
  9
$DIMDSEP
 70
    46
  9
$DIMATFIT
 70
     3
  9
$DIMFRAC
 70
     0
  9
$DIMLDRBLK
  1
OPEN
  9
$DIMLUNIT
 70
     2
  9
$DIMLWD
 70
    -2
  9
$DIMLWE
 70
    -2
  9
$DIMTMOVE
 70
     1
  9
$LUNITS
 70
     2
  9
$LUPREC
 70
     4
  9
$SKETCHINC
 40
1.0
  9
$FILLETRAD
 40
10.0
  9
$AUNITS
 70
     0
  9
$AUPREC
 70
     0
  9
$MENU
  1
.
  9
$ELEVATION
 40
0.0
  9
$PELEVATION
 40
0.0
  9
$THICKNESS
 40
0.0
  9
$LIMCHECK
 70
     0
  9
$CHAMFERA
 40
150.0
  9
$CHAMFERB
 40
150.0
  9
$CHAMFERC
 40
20.0
  9
$CHAMFERD
 40
0.0
  9
$SKPOLY
 70
     0
  9
$TDCREATE
 40
2452404.412662234
  9
$TDUCREATE
 40
2452404.037662234
  9
$TDUPDATE
 40
2454744.611836655
  9
$TDUUPDATE
 40
2454744.236836655
  9
$TDINDWG
 40
1.7244306481
  9
$TDUSRTIMER
 40
1.7244299537
  9
$USRTIMER
 70
     1
  9
$ANGBASE
 50
0.0
  9
$ANGDIR
 70
     0
  9
$PDMODE
 70
     0
  9
$PDSIZE
 40
0.0
  9
$PLINEWID
 40
0.0
  9
$SPLFRAME
 70
     0
  9
$SPLINETYPE
 70
     6
  9
$SPLINESEGS
 70
     8
  9
$HANDSEED
  5
2692C
  9
$SURFTAB1
 70
     6
  9
$SURFTAB2
 70
     6
  9
$SURFTYPE
 70
     6
  9
$SURFU
 70
     6
  9
$SURFV
 70
     6
  9
$UCSBASE
  2

  9
$UCSNAME
  2

  9
$UCSORG
 10
0.0
 20
0.0
 30
0.0
  9
$UCSXDIR
 10
1.0
 20
0.0
 30
0.0
  9
$UCSYDIR
 10
0.0
 20
1.0
 30
0.0
  9
$UCSORTHOREF
  2

  9
$UCSORTHOVIEW
 70
     0
  9
$UCSORGTOP
 10
0.0
 20
0.0
 30
0.0
  9
$UCSORGBOTTOM
 10
0.0
 20
0.0
 30
0.0
  9
$UCSORGLEFT
 10
0.0
 20
0.0
 30
0.0
  9
$UCSORGRIGHT
 10
0.0
 20
0.0
 30
0.0
  9
$UCSORGFRONT
 10
0.0
 20
0.0
 30
0.0
  9
$UCSORGBACK
 10
0.0
 20
0.0
 30
0.0
  9
$PUCSBASE
  2

  9
$PUCSNAME
  2

  9
$PUCSORG
 10
0.0
 20
0.0
 30
0.0
  9
$PUCSXDIR
 10
1.0
 20
0.0
 30
0.0
  9
$PUCSYDIR
 10
0.0
 20
1.0
 30
0.0
  9
$PUCSORTHOREF
  2

  9
$PUCSORTHOVIEW
 70
     0
  9
$PUCSORGTOP
 10
0.0
 20
0.0
 30
0.0
  9
$PUCSORGBOTTOM
 10
0.0
 20
0.0
 30
0.0
  9
$PUCSORGLEFT
 10
0.0
 20
0.0
 30
0.0
  9
$PUCSORGRIGHT
 10
0.0
 20
0.0
 30
0.0
  9
$PUCSORGFRONT
 10
0.0
 20
0.0
 30
0.0
  9
$PUCSORGBACK
 10
0.0
 20
0.0
 30
0.0
  9
$USERI1
 70
     0
  9
$USERI2
 70
     0
  9
$USERI3
 70
     0
  9
$USERI4
 70
     0
  9
$USERI5
 70
     0
  9
$USERR1
 40
0.0
  9
$USERR2
 40
0.0
  9
$USERR3
 40
0.0
  9
$USERR4
 40
0.0
  9
$USERR5
 40
0.0
  9
$WORLDVIEW
 70
     1
  9
$SHADEDGE
 70
     3
  9
$SHADEDIF
 70
    70
  9
$TILEMODE
 70
     1
  9
$MAXACTVP
 70
    48
  9
$PINSBASE
 10
0.0
 20
0.0
 30
0.0
  9
$PLIMCHECK
 70
     0
  9
$PEXTMIN
 10
-7.18438714725903
 20
-19.73882792270024
 30
-0.0015258207003583
  9
$PEXTMAX
 10
833.8481947040165
 20
574.2966304217307
 30
0.0000000349246037
  9
$PLIMMIN
 10
-7.184387147259029
 20
-19.73882792270024
  9
$PLIMMAX
 10
-7.184387147259029
 20
-19.73882792270024
  9
$UNITMODE
 70
     0
  9
$VISRETAIN
 70
     1
  9
$PLINEGEN
 70
     0
  9
$PSLTSCALE
 70
     1
  9
$TREEDEPTH
 70
  3020
  9
$CMLSTYLE
  2
STANDARD
  9
$CMLJUST
 70
     0
  9
$CMLSCALE
 40
20.0
  9
$PROXYGRAPHICS
 70
     1
  9
$MEASUREMENT
 70
     0
  9
$CELWEIGHT
370
    -1
  9
$ENDCAPS
280
     0
  9
$JOINSTYLE
280
     0
  9
$LWDISPLAY
290
     0
  9
$INSUNITS
 70
     0
  9
$HYPERLINKBASE
  1

  9
$STYLESHEET
  1
canon国土交通省.ctb
  9
$XEDIT
290
     1
  9
$CEPSNTYPE
380
     0
  9
$PSTYLEMODE
290
     1
  9
$FINGERPRINTGUID
  2
{2179596F-6415-11D6-8A52-000255ECC0C6}
  9
$VERSIONGUID
  2
{1F6376D9-9D01-11D6-9C0E-000629A6C5B5}
  9
$EXTNAMES
290
     1
  9
$PSVPSCALE
 40
0.0
  9
$OLESTARTUP
290
     0
  0
ENDSEC
  0
SECTION
  2
CLASSES
  0
CLASS
  1
ACDBDICTIONARYWDFLT
  2
AcDbDictionaryWithDefault
  3
ObjectDBX Classes
 90
        0
280
     0
281
     0
  0
CLASS
  1
ACDBPLACEHOLDER
  2
AcDbPlaceHolder
  3
ObjectDBX Classes
 90
        0
280
     0
281
     0
  0
CLASS
  1
LAYOUT
  2
AcDbLayout
  3
ObjectDBX Classes
 90
        0
280
     0
281
     0
  0
CLASS
  1
DICTIONARYVAR
  2
AcDbDictionaryVar
  3
ObjectDBX Classes
 90
        0
280
     0
281
     0
  0
CLASS
  1
PLOTSETTINGS
  2
AcDbPlotSettings
  3
ObjectDBX Classes
 90
    32768
280
     0
281
     0
  0
CLASS
  1
TABLESTYLE
  2
AcDbTableStyle
  3
ObjectDBX Classes
 90
     2047
280
     0
281
     0
  0
ENDSEC
  0
SECTION
  2
TABLES
  0
TABLE
  2
VPORT
  5
8
330
0
100
AcDbSymbolTable
 70
     2
  0
VPORT
  5
26924
330
8
100
AcDbSymbolTableRecord
100
AcDbViewportTableRecord
  2
*Active
 70
     0
 10
0.0
 20
0.0
 11
1.0
 21
1.0
 12
8409.358471404644
 22
6008.425511977432
 13
0.0
 23
0.0
 14
10.0
 24
10.0
 15
10.0
 25
10.0
 16
0.0
 26
0.0
 36
1.0
 17
0.0
 27
0.0
 37
0.0
 40
12138.06958433631
 41
1.786538461538461
 42
50.0
 43
0.0
 44
0.0
 50
0.0
 51
0.0
 71
     0
 72
   100
 73
     1
 74
     3
 75
     0
 76
     0
 77
     0
 78
     0
281
     0
 65
     1
110
0.0
120
0.0
130
0.0
111
1.0
121
0.0
131
0.0
112
0.0
122
1.0
132
0.0
 79
     0
146
0.0
  0
ENDTAB
  0
TABLE
  2
LTYPE
  5
5
330
0
100
AcDbSymbolTable
 70
     3
  0
LTYPE
  5
14
330
5
100
AcDbSymbolTableRecord
100
AcDbLinetypeTableRecord
  2
BYBLOCK
 70
     0
  3

 72
    65
 73
     0
 40
0.0
  0
LTYPE
  5
15
330
5
100
AcDbSymbolTableRecord
100
AcDbLinetypeTableRecord
  2
BYLAYER
 70
     0
  3

 72
    65
 73
     0
 40
0.0
  0
LTYPE
  5
16
330
5
100
AcDbSymbolTableRecord
100
AcDbLinetypeTableRecord
  2
CONTINUOUS
 70
     0
  3
Solid line
 72
    65
 73
     0
 40
0.0
  0
LTYPE
  5
86
330
5
100
AcDbSymbolTableRecord
100
AcDbLinetypeTableRecord
  2
CENTER
 70
     0
  3
____ _ ____ _ ____ _ ____ _ ____ _ ____ _ ____
 72
    65
 73
     4
 40
17.5
 49
13.0
 74
     0
 49
-1.5
 74
     0
 49
1.5
 74
     0
 49
-1.5
 74
     0
  0
LTYPE
  5
1CC8E
330
5
100
AcDbSymbolTableRecord
100
AcDbLinetypeTableRecord
  2
CENTER2
 70
     0
  3
----------  --  ----------  --  
 72
    65
 73
     4
 40
20.0
 49
12.5
 74
     0
 49
-2.5
 74
     0
 49
2.5
 74
     0
 49
-2.5
 74
     0
  0
ENDTAB
  0
TABLE
  2
LAYER
  5
2
330
0
100
AcDbSymbolTable
 70
    15
  0
LAYER
  5
10
330
2
100
AcDbSymbolTableRecord
100
AcDbLayerTableRecord
  2
0
 70
     0
 62
     6
  6
CONTINUOUS
370
    13
390
7E81
  0
LAYER
  5
AC
330
2
100
AcDbSymbolTableRecord
100
AcDbLayerTableRecord
  2
D-STR-DIM
 70
     0
 62
     7
  6
CONTINUOUS
370
    13
390
7E81
  0
LAYER
  5
D6
330
2
100
AcDbSymbolTableRecord
100
AcDbLayerTableRecord
  2
D-TTL-TXT
 70
     0
 62
     7
  6
CONTINUOUS
370
    13
390
7E81
  0
LAYER
  5
3CD
330
2
100
AcDbSymbolTableRecord
100
AcDbLayerTableRecord
  2
DEFPOINTS
 70
     0
 62
     7
  6
CONTINUOUS
290
     0
370
    13
390
7E81
  0
LAYER
  5
3CE
330
2
100
AcDbSymbolTableRecord
100
AcDbLayerTableRecord
  2
D-TTL-LINE
 70
     0
 62
     7
  6
CONTINUOUS
370
    13
390
7E81
  0
LAYER
  5
1408F
330
2
100
AcDbSymbolTableRecord
100
AcDbLayerTableRecord
  2
D-STR
 70
     0
 62
     1
  6
CONTINUOUS
370
    18
390
7E81
  0
LAYER
  5
1620E
330
2
100
AcDbSymbolTableRecord
100
AcDbLayerTableRecord
  2
D-TTL
 70
     0
 62
     2
  6
CONTINUOUS
370
    13
390
7E81
  0
LAYER
  5
1620F
330
2
100
AcDbSymbolTableRecord
100
AcDbLayerTableRecord
  2
D-TTL-FRAM
 70
     0
 62
     2
  6
CONTINUOUS
290
     0
370
    13
390
7E81
  0
LAYER
  5
16212
330
2
100
AcDbSymbolTableRecord
100
AcDbLayerTableRecord
  2
D-BMK
 70
     0
 62
     2
  6
CENTER
370
    13
390
7E81
  0
LAYER
  5
16213
330
2
100
AcDbSymbolTableRecord
100
AcDbLayerTableRecord
  2
D-STR-HTXT
 70
     0
 62
     7
  6
CONTINUOUS
370
    13
390
7E81
  0
LAYER
  5
16216
330
2
100
AcDbSymbolTableRecord
100
AcDbLayerTableRecord
  2
D-MTR-FRAM
 70
     0
 62
     7
  6
CONTINUOUS
370
    13
390
7E81
  0
LAYER
  5
16217
330
2
100
AcDbSymbolTableRecord
100
AcDbLayerTableRecord
  2
D-MTR
 70
     0
 62
     6
  6
CONTINUOUS
370
    13
390
7E81
  0
LAYER
  5
16218
330
2
100
AcDbSymbolTableRecord
100
AcDbLayerTableRecord
  2
D-MTR-TXT
 70
     0
 62
     7
  6
CONTINUOUS
370
    13
390
7E81
  0
LAYER
  5
16219
330
2
100
AcDbSymbolTableRecord
100
AcDbLayerTableRecord
  2
D-MTR-MTXT
 70
     0
 62
     7
  6
CONTINUOUS
370
    13
390
7E81
  0
LAYER
  5
1621C
330
2
100
AcDbSymbolTableRecord
100
AcDbLayerTableRecord
  2
D-STR-STR2
 70
     0
 62
     1
  6
CONTINUOUS
370
    18
390
7E81
  0
ENDTAB
  0
TABLE
  2
STYLE
  5
3
330
0
100
AcDbSymbolTable
 70
     2
  0
STYLE
  5
11
330
3
100
AcDbSymbolTableRecord
100
AcDbTextStyleTableRecord
  2
STANDARD
 70
     0
 40
0.0
 41
1.0
 50
0.0
 71
     0
 42
2.5
  3
simplex.shx
  4
bigfont.shx
  0
STYLE
  5
1F432
330
3
100
AcDbSymbolTableRecord
100
AcDbTextStyleTableRecord
  2
明朝
 70
     0
 40
0.0
 41
1.0
 50
0.0
 71
     0
 42
10.0
  3
MS PMincho.ttf
  4

1001
ACAD
1000
MS PMincho
1071
    32786
  0
ENDTAB
  0
TABLE
  2
VIEW
  5
6
330
0
100
AcDbSymbolTable
 70
     0
  0
ENDTAB
  0
TABLE
  2
UCS
  5
7
330
0
100
AcDbSymbolTable
 70
     0
  0
ENDTAB
  0
TABLE
  2
APPID
  5
9
330
0
100
AcDbSymbolTable
 70
     2
  0
APPID
  5
12
330
9
100
AcDbSymbolTableRecord
100
AcDbRegAppTableRecord
  2
ACAD
 70
     0
  0
APPID
  5
7C1E
330
9
100
AcDbSymbolTableRecord
100
AcDbRegAppTableRecord
  2
CONTENTBLOCKICON
 70
     0
  0
ENDTAB
  0
TABLE
  2
DIMSTYLE
  5
A
330
0
100
AcDbSymbolTable
 70
     2
100
AcDbDimStyleTable
 71
     1
340
1CA9B
  0
DIMSTYLE
105
1CA9B
330
A
100
AcDbSymbolTableRecord
100
AcDbDimStyleTableRecord
  2
20
 70
     0
 41
20.0
 42
20.0
 43
0.0
 44
20.0
 73
     0
 74
     0
 77
     1
 78
     8
140
70.0
141
20.0
143
0.03937007874016
147
20.0
171
     3
172
     1
174
     1
176
   256
177
   256
178
   256
179
     4
271
     0
272
     0
274
     3
275
     1
279
     1
284
     8
340
11
341
31
342
31
  0
DIMSTYLE
105
1CC90
330
A
100
AcDbSymbolTableRecord
100
AcDbDimStyleTableRecord
  2
Standard
 70
     0
340
11
  0
ENDTAB
  0
TABLE
  2
BLOCK_RECORD
  5
1
330
0
100
AcDbSymbolTable
 70
     1
  0
BLOCK_RECORD
  5
1F
102
{ACAD_XDICTIONARY
360
7BCB
102
}
330
1
100
AcDbSymbolTableRecord
100
AcDbBlockTableRecord
  2
*MODEL_SPACE
340
7E82
  0
BLOCK_RECORD
  5
1B
102
{ACAD_XDICTIONARY
360
7BCD
102
}
330
1
100
AcDbSymbolTableRecord
100
AcDbBlockTableRecord
  2
*PAPER_SPACE
340
7E83
  0
BLOCK_RECORD
  5
31
330
1
100
AcDbSymbolTableRecord
100
AcDbBlockTableRecord
  2
_OPEN
340
0
310
2800000020000000200000000100080000000000000400000000000000000000000000000000000000000000000080000080000000808000800000008000800080800000C0C0C000C0DCC000F0CAA6000020400000206000002080000020A0000020C0000020E00000400000004020000040400000406000004080000040A0
310
000040C0000040E00000600000006020000060400000606000006080000060A0000060C0000060E00000800000008020000080400000806000008080000080A0000080C0000080E00000A0000000A0200000A0400000A0600000A0800000A0A00000A0C00000A0E00000C0000000C0200000C0400000C0600000C0800000C0
310
A00000C0C00000C0E00000E0000000E0200000E0400000E0600000E0800000E0A00000E0C00000E0E00040000000400020004000400040006000400080004000A0004000C0004000E00040200000402020004020400040206000402080004020A0004020C0004020E000404000004040200040404000404060004040800040
310
40A0004040C0004040E00040600000406020004060400040606000406080004060A0004060C0004060E00040800000408020004080400040806000408080004080A0004080C0004080E00040A0000040A0200040A0400040A0600040A0800040A0A00040A0C00040A0E00040C0000040C0200040C0400040C0600040C08000
310
40C0A00040C0C00040C0E00040E0000040E0200040E0400040E0600040E0800040E0A00040E0C00040E0E00080000000800020008000400080006000800080008000A0008000C0008000E00080200000802020008020400080206000802080008020A0008020C0008020E00080400000804020008040400080406000804080
310
008040A0008040C0008040E00080600000806020008060400080606000806080008060A0008060C0008060E00080800000808020008080400080806000808080008080A0008080C0008080E00080A0000080A0200080A0400080A0600080A0800080A0A00080A0C00080A0E00080C0000080C0200080C0400080C0600080C0
310
800080C0A00080C0C00080C0E00080E0000080E0200080E0400080E0600080E0800080E0A00080E0C00080E0E000C0000000C0002000C0004000C0006000C0008000C000A000C000C000C000E000C0200000C0202000C0204000C0206000C0208000C020A000C020C000C020E000C0400000C0402000C0404000C0406000C0
310
408000C040A000C040C000C040E000C0600000C0602000C0604000C0606000C0608000C060A000C060C000C060E000C0800000C0802000C0804000C0806000C0808000C080A000C080C000C080E000C0A00000C0A02000C0A04000C0A06000C0A08000C0A0A000C0A0C000C0A0E000C0C00000C0C02000C0C04000C0C06000
310
C0C08000C0C0A000F0FBFF00A4A0A000808080000000FF0000FF000000FFFF00FF000000FF00FF00FFFF0000FFFFFF0000000000000000000000000000000000000000000000000000000000000000000000000000000000000000000000000000000000000000000000000000000000000000000000000000000000000000
310
00000000000000000000000000000000000000000000000000000000000000000000000000000000000000000000000000000000000000000000000000000000000000000000000000000000000000000000000000000000000000000000000000000000000000000000000000000000000000000000000000000000000000
310
00000000000000000000000000000000000000000000000000000000000000000000000000000000000000000000000000000000000000000000000000000000000000000000000000000000000000000000000000000000000000000000000000000000000000000000000000000000000000000000000000000000000000
310
0000000000000000000000000000000000000000FFFFFF0000000000000000000000000000000000000000000000000000000000000000FFFFFFFFFFFF0000000000000000000000000000000000000000000000000000000000000000FFFFFFFFFFFF00000000000000000000000000000000000000000000000000000000
310
00000000FFFFFFFFFFFF0000000000000000000000000000000000000000000000000000000000000000FFFFFFFFFFFF0000000000FFFFFFFFFFFFFFFFFFFFFFFFFFFFFFFFFFFFFFFFFFFFFFFFFFFFFFFFFFFF000000000000000000000000000000000000000000FFFFFFFFFFFFFF00000000000000000000000000000000
310
00FFFFFFFFFFFFFFFF0000000000000000000000000000000000FFFFFFFFFFFFFF000000000000000000000000000000000000000000FFFFFFFF000000000000000000000000000000000000000000000000000000000000000000000000000000000000000000000000000000000000000000000000000000000000000000
310
00000000000000000000000000000000000000000000000000000000000000000000000000000000000000000000000000000000000000000000000000000000000000000000000000000000000000000000000000000000000000000000000000000000000000000000000000000000000000000000000000000000000000
310
00000000000000000000000000000000000000000000000000000000000000000000000000000000000000000000000000000000000000000000000000000000000000000000000000000000000000000000000000000000000000000000000000000000000000000000000000000000000000000000000000000000000000
310
0000000000000000000000000000000000000000000000000000000000000000000000000000000000000000000000000000000000000000
  0
ENDTAB
  0
ENDSEC
  0
SECTION
  2
BLOCKS
  0
BLOCK
  5
20
330
1F
100
AcDbEntity
  8
0
100
AcDbBlockBegin
  2
*MODEL_SPACE
 70
     0
 10
0.0
 20
0.0
 30
0.0
  3
*MODEL_SPACE
  1

  0
ENDBLK
  5
21
330
1F
100
AcDbEntity
  8
0
100
AcDbBlockEnd
  0
BLOCK
  5
1C
330
1B
100
AcDbEntity
 67
     1
  8
0
100
AcDbBlockBegin
  2
*PAPER_SPACE
 70
     0
 10
0.0
 20
0.0
 30
0.0
  3
*PAPER_SPACE
  1

  0
ENDBLK
  5
1D
330
1B
100
AcDbEntity
 67
     1
  8
0
100
AcDbBlockEnd
  0
BLOCK
  5
35
330
31
100
AcDbEntity
  8
0
100
AcDbBlockBegin
  2
_OPEN
 70
     0
 10
0.0
 20
0.0
 30
0.0
  3
_OPEN
  1

  0
LINE
  5
32
330
31
100
AcDbEntity
  8
0
  6
ByBlock
 62
     0
100
AcDbLine
 10
-1.0
 20
0.1666666666666666
 30
0.0
 11
0.0
 21
0.0
 31
0.0
  0
LINE
  5
33
330
31
100
AcDbEntity
  8
0
  6
ByBlock
 62
     0
100
AcDbLine
 10
-1.0
 20
-0.1666666666666666
 30
0.0
 11
0.0
 21
0.0
 31
0.0
  0
LINE
  5
34
330
31
100
AcDbEntity
  8
0
  6
ByBlock
 62
     0
100
AcDbLine
 10
0.0
 20
0.0
 30
0.0
 11
-1.0
 21
0.0
 31
0.0
  0
ENDBLK
  5
36
330
31
100
AcDbEntity
  8
0
100
AcDbBlockEnd
  0
ENDSEC
  0
SECTION
  2
ENTITIES
  0
MTEXT
  5
74C
330
1F
100
AcDbEntity
  8
D-TTL-LINE
 62
     2
100
AcDbMText
 10
21100.96900863203
 20
11716.83874632694
 30
0.0
 40
140.0
 41
0.0
 71
     4
 72
     5
  1
 
 73
     1
 44
1.0
1001
ACAD
1000
MTEXTBEGIN
1070
    73
1070
     1
1070
    44
1040
1.0
1070
    74
1070
     0
1000
MTEXTEND
  0
MTEXT
  5
140A2
330
1F
100
AcDbEntity
  8
D-STR
 62
     2
100
AcDbMText
 10
133389.7438006938
 20
208126.6376526392
 30
0.0
 40
140.0
 41
0.0
 71
     4
 72
     1
  1
 
 73
     1
 44
1.0
1001
ACAD
1000
MTEXTBEGIN
1070
    73
1070
     1
1070
    44
1040
1.0
1070
    74
1070
     0
1000
MTEXTEND
  0
MTEXT
  5
170AD
330
1F
100
AcDbEntity
  8
D-STR
 62
     2
100
AcDbMText
 10
221722.4650715356
 20
207229.3774545898
 30
0.0
 40
140.0
 41
0.0
 71
     4
 72
     1
  1
 
 73
     1
 44
1.0
1001
ACAD
1000
MTEXTBEGIN
1070
    73
1070
     1
1070
    44
1040
1.0
1070
    74
1070
     0
1000
MTEXTEND
  0
LWPOLYLINE
  5
1F458
330
1F
100
AcDbEntity
  8
D-TTL
  6
Continuous
100
AcDbPolyline
 90
        4
 70
     1
 43
0.0
 10
0.0
 20
11879.99995240002
 10
16819.99993279995
 20
11879.99995240002
 10
16819.99993279995
 20
0.0
 10
0.0
 20
0.0
  0
LWPOLYLINE
  5
1F459
330
1F
100
AcDbEntity
  8
D-TTL
  6
Continuous
100
AcDbPolyline
 90
        4
 70
     1
 43
0.0
 10
800.0
 20
11479.99995240003
 10
16419.99993279995
 20
11479.99995240003
 10
16419.99993279995
 20
400.0
 10
800.0
 20
400.0
  0
LINE
  5
21BEC
330
1F
100
AcDbEntity
  8
D-TTL-FRAM
 48
20.0
100
AcDbLine
 10
16419.99993371339
 20
1599.999993589328
 30
0.0
 11
14419.99994172685
 21
1599.999993589328
 31
0.0
  0
LINE
  5
21BF3
330
1F
100
AcDbEntity
  8
D-TTL-FRAM
 48
20.0
100
AcDbLine
 10
14419.99994172685
 20
1599.999993589328
 30
0.0
 11
14419.99994172685
 21
399.9999983974072
 31
0.0
  0
TEXT
  5
2209C
330
1F
100
AcDbEntity
  8
D-TTL-TXT
  6
Continuous
100
AcDbText
 10
16012.30032772787
 20
11361.78187022015
 30
0.0
 40
69.9999997195286
  1
A4A10
 72
     4
 11
16168.96699376682
 21
11396.78187007991
 31
0.0
100
AcDbText
  0
LINE
  5
2209D
330
1F
100
AcDbEntity
  8
D-TTL-TXT
  6
Continuous
100
AcDbLine
 10
15679.99993667822
 20
11479.99995400271
 30
0.0
 11
16419.99993371327
 21
11479.99995400271
 31
0.0
  0
LINE
  5
2209E
330
1F
100
AcDbEntity
  8
D-TTL-TXT
  6
Continuous
100
AcDbLine
 10
15679.99993667822
 20
11319.9999546438
 30
0.0
 11
16419.99993371327
 21
11319.9999546438
 31
0.0
  0
TEXT
  5
220B9
330
1F
100
AcDbEntity
  8
D-TTL-TXT
  6
Continuous
100
AcDbText
 10
15731.42849647237
 20
11359.99995448351
 30
0.0
 40
69.9999997195286
  1
図番
100
AcDbText
  0
LINE
  5
220BA
330
1F
100
AcDbEntity
  8
D-TTL-TXT
  6
Continuous
100
AcDbLine
 10
15679.99993667822
 20
11479.99995400271
 30
0.0
 11
15679.99993667822
 21
11319.9999546438
 31
0.0
  0
LINE
  5
220BB
330
1F
100
AcDbEntity
  8
D-TTL-TXT
  6
Continuous
100
AcDbLine
 10
15919.99993571663
 20
11479.99995400271
 30
0.0
 11
15919.99993571663
 21
11319.9999546438
 31
0.0
  0
LINE
  5
220BC
330
1F
100
AcDbEntity
  8
D-TTL-TXT
  6
Continuous
100
AcDbLine
 10
16419.99993371327
 20
11479.99995400271
 30
0.0
 11
16419.99993371327
 21
11319.9999546438
 31
0.0
  0
TEXT
  5
220BD
330
1F
100
AcDbEntity
  8
D-TTL-TXT
100
AcDbText
 10
11748.45694671459
 20
11027.68936812968
 30
0.0
 40
99.99999000000102
  1
S = 1/20
100
AcDbText
  0
TEXT
  5
220BE
330
1F
100
AcDbEntity
  8
D-TTL-TXT
100
AcDbText
 10
4195.800114320402
 20
11035.6901673296
 30
0.0
 40
200.0
  1
Ｃ．Ｃ．ＢＯＸ　1,200×1,900×1,500　Ｂタイプ　構造図　
100
AcDbText
  0
LINE
  5
25A0D
330
1F
100
AcDbEntity
  8
D-STR-DIM
  6
Continuous
100
AcDbLine
 10
7567.920403429984
 20
6795.52890698516
 30
0.0
 11
9507.920375229714
 21
6795.52890698516
 31
0.0
  0
LINE
  5
25A0E
330
1F
100
AcDbEntity
  8
D-STR-DIM
  6
Continuous
100
AcDbLine
 10
7567.920403429984
 20
4495.529116707121
 30
0.0
 11
9507.920375229714
 21
4495.529116707121
 31
0.0
  0
LINE
  5
25A0F
330
1F
100
AcDbEntity
  8
D-STR-DIM
  6
Continuous
100
AcDbLine
 10
7017.920445754743
 20
3001.275723023241
 30
0.0
 11
7017.920445754743
 21
3225.528722075337
 31
0.0
  0
LINE
  5
25A10
330
1F
100
AcDbEntity
  8
D-STR-DIM
  6
Continuous
100
AcDbLine
 10
6417.920588290951
 20
3001.275723023241
 30
0.0
 11
6417.920588290951
 21
3225.528722075337
 31
0.0
  0
LINE
  5
25A11
330
1F
100
AcDbEntity
  8
D-STR-DIM
  6
Continuous
100
AcDbLine
 10
7537.920383556786
 20
4465.528516833932
 30
0.0
 11
7537.920383556786
 21
2525.52952503419
 31
0.0
  0
LINE
  5
25A12
330
1F
100
AcDbEntity
  8
D-STR-DIM
  6
Continuous
100
AcDbLine
 10
5897.920390488966
 20
4465.528516833932
 30
0.0
 11
5897.920390488966
 21
2525.52952503419
 31
0.0
  0
TEXT
  5
25A2E
330
1F
100
AcDbEntity
  8
D-STR-DIM
100
AcDbText
 10
7031.060405699246
 20
2911.529323402593
 30
0.0
 40
70.0
  1
820
100
AcDbText
  0
LINE
  5
25A30
330
1F
100
AcDbEntity
  8
D-STR-DIM
  6
Continuous
100
AcDbLine
 10
6717.920427022891
 20
2895.528723470226
 30
0.0
 11
7127.920465289786
 21
2895.528723470226
 31
0.0
  0
LINE
  5
25A33
330
1F
100
AcDbEntity
  8
D-STR-HTXT
  6
Continuous
100
AcDbLine
 10
6417.919388290918
 20
995.529331501409
 30
0.0
 11
7133.390445266716
 21
795.5293323467969
 31
0.0
  0
LINE
  5
25A34
330
1F
100
AcDbEntity
  8
D-STR-HTXT
  6
Continuous
100
AcDbLine
 10
7017.920445754743
 20
995.5289315014105
 30
0.0
 11
7133.390445266716
 21
795.5293323467969
 31
0.0
  0
LINE
  5
25A35
330
1F
100
AcDbEntity
  8
D-STR
  6
Continuous
100
AcDbLine
 10
7537.920383556786
 20
2495.528925161001
 30
0.0
 11
5897.920390488966
 21
2495.528925161001
 31
0.0
  0
LINE
  5
25A36
330
1F
100
AcDbEntity
  8
D-STR
  6
Continuous
100
AcDbLine
 10
7537.920383556786
 20
995.5289315014105
 30
0.0
 11
5897.920390488966
 21
995.5289315014105
 31
0.0
  0
LINE
  5
25A37
330
1F
100
AcDbEntity
  8
D-STR
  6
Continuous
100
AcDbLine
 10
6092.920589664707
 20
1845.528727908513
 30
0.0
 11
6092.920589664707
 21
1645.5289287539
 31
0.0
  0
LINE
  5
25A38
330
1F
100
AcDbEntity
  8
D-STR
  6
Continuous
100
AcDbLine
 10
5897.920390488966
 20
2495.528925161001
 30
0.0
 11
5897.920390488966
 21
995.5289315014105
 31
0.0
  0
LINE
  5
25A3B
330
1F
100
AcDbEntity
  8
D-STR-HTXT
  6
Continuous
100
AcDbLine
 10
6458.342388120057
 20
991.5531315182153
 30
0.0
 11
6417.920588290951
 21
995.529331501409
 31
0.0
  0
LINE
  5
25A3C
330
1F
100
AcDbEntity
  8
D-STR-STR2
  6
Continuous
100
AcDbLine
 10
6367.9205885023
 20
1095.528731078718
 30
0.0
 11
6467.920588079607
 21
1095.528731078718
 31
0.0
  0
LINE
  5
25A3E
330
1F
100
AcDbEntity
  8
D-STR
  6
Continuous
100
AcDbLine
 10
6117.920389559039
 20
1635.528928796169
 30
0.0
 11
6117.920389559039
 21
1105.528931036447
 31
0.0
  0
LINE
  5
25A3F
330
1F
100
AcDbEntity
  8
D-STR
  6
Continuous
100
AcDbLine
 10
6217.920389136347
 20
1145.529130867368
 30
0.0
 11
6092.920589664707
 21
1095.529331078715
 31
0.0
  0
LINE
  5
25A45
330
1F
100
AcDbEntity
  8
D-STR
  6
Continuous
100
AcDbLine
 10
6092.920589664707
 20
1095.528731078718
 30
0.0
 11
6092.920589664707
 21
995.5289315014105
 31
0.0
  0
LINE
  5
25A48
330
1F
100
AcDbEntity
  8
D-BMK
  6
CENTER2
100
AcDbLine
 10
6417.920588290951
 20
965.5291316282173
 30
0.0
 11
6417.920588290951
 21
1125.528930951908
 31
0.0
  0
LINE
  5
25A49
330
1F
100
AcDbEntity
  8
D-STR-STR2
  6
Continuous
100
AcDbLine
 10
6367.9205885023
 20
995.5289315014105
 30
0.0
 11
6367.9205885023
 21
1095.528731078718
 31
0.0
  0
LINE
  5
25A4A
330
1F
100
AcDbEntity
  8
D-STR
  6
Continuous
100
AcDbLine
 10
6217.920389136347
 20
1595.529128965245
 30
0.0
 11
6092.920589664707
 21
1645.5289287539
 31
0.0
  0
LINE
  5
25A4B
330
1F
100
AcDbEntity
  8
D-STR
  6
Continuous
100
AcDbLine
 10
6217.920389136347
 20
1595.529128965245
 30
0.0
 11
6217.920389136347
 21
1145.529130867368
 31
0.0
  0
LINE
  5
25A52
330
1F
100
AcDbEntity
  8
D-STR-STR2
  6
Continuous
100
AcDbLine
 10
6467.920588079607
 20
1095.528731078718
 30
0.0
 11
6467.920588079607
 21
995.5289315014105
 31
0.0
  0
LINE
  5
25A54
330
1F
100
AcDbEntity
  8
D-STR-HTXT
  6
Continuous
100
AcDbLine
 10
7044.028685644414
 20
964.4149316329276
 30
0.0
 11
7017.920445754743
 21
995.529331501409
 31
0.0
  0
LINE
  5
25A55
330
1F
100
AcDbEntity
  8
D-BMK
  6
CENTER2
100
AcDbLine
 10
7017.920445754743
 20
965.5291316282173
 30
0.0
 11
7017.920445754743
 21
1125.528930951908
 31
0.0
  0
LINE
  5
25A56
330
1F
100
AcDbEntity
  8
D-STR-STR2
  6
Continuous
100
AcDbLine
 10
6967.920465966097
 20
995.5289315014105
 30
0.0
 11
6967.920465966097
 21
1095.528731078718
 31
0.0
  0
LINE
  5
25A57
330
1F
100
AcDbEntity
  8
D-STR-STR2
  6
Continuous
100
AcDbLine
 10
7067.92042554346
 20
1095.528731078718
 30
0.0
 11
7067.92042554346
 21
995.5289315014105
 31
0.0
  0
LINE
  5
25A58
330
1F
100
AcDbEntity
  8
D-STR-STR2
  6
Continuous
100
AcDbLine
 10
6967.920465966097
 20
1095.528731078718
 30
0.0
 11
7067.92042554346
 21
1095.528731078718
 31
0.0
  0
LINE
  5
25A5C
330
1F
100
AcDbEntity
  8
D-STR-DIM
  6
Continuous
100
AcDbLine
 10
6717.920427022891
 20
2895.528723470226
 30
0.0
 11
6307.920588755915
 21
2895.528723470226
 31
0.0
  0
LINE
  5
25A5D
330
1F
100
AcDbEntity
  8
D-STR-STR2
  6
Continuous
100
AcDbLine
 10
6367.9205885023
 20
2395.529325583694
 30
0.0
 11
6467.920588079607
 21
2395.529325583694
 31
0.0
  0
LINE
  5
25A5E
330
1F
100
AcDbEntity
  8
D-STR
  6
Continuous
100
AcDbLine
 10
6092.920589664707
 20
2495.528925161001
 30
0.0
 11
6092.920589664707
 21
2395.529325583694
 31
0.0
  0
LINE
  5
25A5F
330
1F
100
AcDbEntity
  8
D-BMK
  6
CENTER2
100
AcDbLine
 10
6417.920588290951
 20
2525.52952503419
 30
0.0
 11
6417.920588290951
 21
2365.528725710505
 31
0.0
  0
LINE
  5
25A60
330
1F
100
AcDbEntity
  8
D-STR-STR2
  6
Continuous
100
AcDbLine
 10
6367.9205885023
 20
2495.528925161001
 30
0.0
 11
6367.9205885023
 21
2395.529325583694
 31
0.0
  0
LINE
  5
25A61
330
1F
100
AcDbEntity
  8
D-STR
  6
Continuous
100
AcDbLine
 10
6217.920389136347
 20
1895.529127697163
 30
0.0
 11
6092.920589664707
 21
1845.528727908513
 31
0.0
  0
LINE
  5
25A62
330
1F
100
AcDbEntity
  8
D-STR
  6
Continuous
100
AcDbLine
 10
6217.920389136347
 20
2345.528725795043
 30
0.0
 11
6092.920589664707
 21
2395.528325583698
 31
0.0
  0
LINE
  5
25A63
330
1F
100
AcDbEntity
  8
D-STR
  6
Continuous
100
AcDbLine
 10
6217.920389136347
 20
2345.528725795043
 30
0.0
 11
6217.920389136347
 21
1895.529127697163
 31
0.0
  0
LINE
  5
25A64
330
1F
100
AcDbEntity
  8
D-STR
  6
Continuous
100
AcDbLine
 10
6117.920389559039
 20
2385.528925625965
 30
0.0
 11
6117.920389559039
 21
1855.528927866242
 31
0.0
  0
LINE
  5
25A68
330
1F
100
AcDbEntity
  8
D-STR-DIM
  6
Continuous
100
AcDbLine
 10
5897.920390488966
 20
2895.528723470226
 30
0.0
 11
6307.920588755915
 21
2895.528723470226
 31
0.0
  0
CIRCLE
  5
25A69
330
1F
100
AcDbEntity
  8
D-STR-DIM
  6
Continuous
100
AcDbCircle
 10
5897.920390488966
 20
2895.528723470226
 30
0.0
 40
5.999997974638371
  0
LINE
  5
25A6A
330
1F
100
AcDbEntity
  8
D-STR-DIM
  6
Continuous
100
AcDbLine
 10
6417.920588290951
 20
2865.529123597033
 30
0.0
 11
6417.920588290951
 21
2545.52952503419
 31
0.0
  0
TEXT
  5
25A6B
330
1F
100
AcDbEntity
  8
D-STR-DIM
100
AcDbText
 10
6231.060589080786
 20
2911.529323402593
 30
0.0
 40
70.0
  1
820
100
AcDbText
  0
LINE
  5
25A6C
330
1F
100
AcDbEntity
  8
D-BMK
  6
CENTER2
100
AcDbLine
 10
7017.920445754743
 20
2525.52952503419
 30
0.0
 11
7017.920445754743
 21
2365.528725710505
 31
0.0
  0
LINE
  5
25A6D
330
1F
100
AcDbEntity
  8
D-STR-STR2
  6
Continuous
100
AcDbLine
 10
6967.920465966097
 20
2495.528925161001
 30
0.0
 11
6967.920465966097
 21
2395.529325583694
 31
0.0
  0
LINE
  5
25A6E
330
1F
100
AcDbEntity
  8
D-STR-STR2
  6
Continuous
100
AcDbLine
 10
7067.92042554346
 20
2395.529325583694
 30
0.0
 11
7067.92042554346
 21
2495.528925161001
 31
0.0
  0
LINE
  5
25A6F
330
1F
100
AcDbEntity
  8
D-STR-STR2
  6
Continuous
100
AcDbLine
 10
6467.920588079607
 20
2395.529325583694
 30
0.0
 11
6467.920588079607
 21
2495.528925161001
 31
0.0
  0
CIRCLE
  5
25A70
330
1F
100
AcDbEntity
  8
D-STR-STR2
  6
Continuous
100
AcDbCircle
 10
6717.920427022891
 20
2045.529327063122
 30
0.0
 40
169.9999952814203
  0
CIRCLE
  5
25A71
330
1F
100
AcDbEntity
  8
D-STR-STR2
  6
Continuous
100
AcDbCircle
 10
6717.920427022891
 20
2045.529327063122
 30
0.0
 40
149.999995365959
  0
LINE
  5
25A72
330
1F
100
AcDbEntity
  8
D-BMK
  6
CENTER2
100
AcDbLine
 10
6917.920486177449
 20
2045.529327063122
 30
0.0
 11
6517.92058786826
 21
2045.529327063122
 31
0.0
  0
LINE
  5
25A73
330
1F
100
AcDbEntity
  8
D-BMK
  6
CENTER2
100
AcDbLine
 10
6717.920427022891
 20
1845.528727908513
 30
0.0
 11
6717.920427022891
 21
2245.529126217735
 31
0.0
  0
CIRCLE
  5
25A74
330
1F
100
AcDbEntity
  8
D-STR-STR2
  6
Continuous
100
AcDbCircle
 10
6717.920427022891
 20
2045.529327063122
 30
0.0
 40
37.49999784148978
  0
LINE
  5
25A75
330
1F
100
AcDbEntity
  8
D-STR-STR2
  6
Continuous
100
AcDbLine
 10
6967.920465966097
 20
2395.529325583694
 30
0.0
 11
7067.92042554346
 21
2395.529325583694
 31
0.0
  0
LINE
  5
25A76
330
1F
100
AcDbEntity
  8
D-STR-DIM
  6
Continuous
100
AcDbLine
 10
6717.920427022891
 20
2515.528925161001
 30
0.0
 11
6717.920427022891
 21
2925.529323343416
 31
0.0
  0
CIRCLE
  5
25A77
330
1F
100
AcDbEntity
  8
D-STR-DIM
  6
Continuous
100
AcDbCircle
 10
6717.920427022891
 20
2895.528723470226
 30
0.0
 40
5.999997974638371
  0
LINE
  5
25A78
330
1F
100
AcDbEntity
  8
D-STR-DIM
  6
Continuous
100
AcDbLine
 10
7017.920445754743
 20
2865.529123597033
 30
0.0
 11
7017.920445754743
 21
2545.52952503419
 31
0.0
  0
TEXT
  5
25A79
330
1F
100
AcDbEntity
  8
D-STR-DIM
100
AcDbText
 10
8221.920400665506
 20
1626.668928833619
 30
0.0
 40
70.0
  1
1500
 50
90.0
100
AcDbText
  0
LINE
  5
25A7A
330
1F
100
AcDbEntity
  8
D-STR-DIM
  6
Continuous
100
AcDbLine
 10
7937.920441865957
 20
2045.529327063122
 30
0.0
 11
7937.920441865957
 21
1520.529129282266
 31
0.0
  0
LINE
  5
25A7B
330
1F
100
AcDbEntity
  8
D-STR-DIM
  6
Continuous
100
AcDbLine
 10
8237.920400597934
 20
2495.528925161001
 30
0.0
 11
8237.920400597934
 21
1745.528928331206
 31
0.0
  0
LINE
  5
25A7C
330
1F
100
AcDbEntity
  8
D-STR
  6
Continuous
100
AcDbLine
 10
7342.920464380994
 20
1845.528727908513
 30
0.0
 11
7342.920464380994
 21
1645.5289287539
 31
0.0
  0
LINE
  5
25A7D
330
1F
100
AcDbEntity
  8
D-STR
  6
Continuous
100
AcDbLine
 10
7537.920383556786
 20
2495.528925161001
 30
0.0
 11
7537.920383556786
 21
995.5289315014105
 31
0.0
  0
LINE
  5
25A7E
330
1F
100
AcDbEntity
  8
D-STR-DIM
  6
Continuous
100
AcDbLine
 10
7557.920383556787
 20
995.5289315014105
 30
0.0
 11
8267.920420471135
 21
995.5289315014105
 31
0.0
  0
LINE
  5
25A80
330
1F
100
AcDbEntity
  8
D-STR
  6
Continuous
100
AcDbLine
 10
7317.920484486673
 20
1635.528928796169
 30
0.0
 11
7317.920484486673
 21
1105.528931036447
 31
0.0
  0
LINE
  5
25A81
330
1F
100
AcDbEntity
  8
D-STR
  6
Continuous
100
AcDbLine
 10
7217.919884909385
 20
1145.529130867368
 30
0.0
 11
7342.919844381005
 21
1095.529331078715
 31
0.0
  0
LINE
  5
25A83
330
1F
100
AcDbEntity
  8
D-STR-HTXT
  6
Continuous
100
AcDbLine
 10
7517.613733383012
 20
795.5289323467986
 30
0.0
 11
7133.390445266716
 21
795.5289323467986
 31
0.0
  0
TEXT
  5
25A88
330
1F
100
AcDbEntity
  8
D-STR-HTXT
100
AcDbText
 10
7110.530385363323
 20
811.5291322791664
 30
0.0
 40
70.0
  1
　連結金具
100
AcDbText
  0
LINE
  5
25A89
330
1F
100
AcDbEntity
  8
D-STR
  6
Continuous
100
AcDbLine
 10
7342.920464380994
 20
1095.528731078718
 30
0.0
 11
7342.920464380994
 21
995.5289315014105
 31
0.0
  0
LINE
  5
25A8C
330
1F
100
AcDbEntity
  8
D-STR
  6
Continuous
100
AcDbLine
 10
7217.920384909405
 20
1595.529128965245
 30
0.0
 11
7217.920384909405
 21
1145.529130867368
 31
0.0
  0
LINE
  5
25A8E
330
1F
100
AcDbEntity
  8
D-STR
  6
Continuous
100
AcDbLine
 10
7217.919884909385
 20
1595.529128965245
 30
0.0
 11
7342.920464380994
 21
1645.529328753898
 31
0.0
  0
LINE
  5
25A8F
330
1F
100
AcDbEntity
  8
D-STR-DIM
  6
Continuous
100
AcDbLine
 10
7937.920441865957
 20
995.5289315014105
 30
0.0
 11
7937.920441865957
 21
1520.529129282266
 31
0.0
  0
LINE
  5
25A90
330
1F
100
AcDbEntity
  8
D-STR-DIM
  6
Continuous
100
AcDbLine
 10
8237.920400597934
 20
995.5289315014105
 30
0.0
 11
8237.920400597934
 21
1745.528928331206
 31
0.0
  0
CIRCLE
  5
25A91
330
1F
100
AcDbEntity
  8
D-STR-DIM
  6
Continuous
100
AcDbCircle
 10
7937.920441865957
 20
995.5289315014105
 30
0.0
 40
5.999997974638371
  0
CIRCLE
  5
25A92
330
1F
100
AcDbEntity
  8
D-STR-DIM
  6
Continuous
100
AcDbCircle
 10
8237.920400597934
 20
995.5289315014105
 30
0.0
 40
5.999997974638371
  0
TEXT
  5
25A93
330
1F
100
AcDbEntity
  8
D-STR-DIM
100
AcDbText
 10
7921.920381933654
 20
1401.66912978468
 30
0.0
 40
70.0
  1
1050
 50
90.0
100
AcDbText
  0
LINE
  5
25A95
330
1F
100
AcDbEntity
  8
D-STR-DIM
  6
Continuous
100
AcDbLine
 10
7557.920383556787
 20
2045.529327063122
 30
0.0
 11
7967.920381739201
 21
2045.529327063122
 31
0.0
  0
LINE
  5
25A96
330
1F
100
AcDbEntity
  8
D-STR-DIM
  6
Continuous
100
AcDbLine
 10
7557.920383556787
 20
2495.528925161001
 30
0.0
 11
8267.920420471135
 21
2495.528925161001
 31
0.0
  0
LINE
  5
25A99
330
1F
100
AcDbEntity
  8
D-STR
  6
Continuous
100
AcDbLine
 10
7342.920464380994
 20
2495.528925161001
 30
0.0
 11
7342.920464380994
 21
2395.529325583694
 31
0.0
  0
LINE
  5
25A9A
330
1F
100
AcDbEntity
  8
D-STR
  6
Continuous
100
AcDbLine
 10
7217.920384909405
 20
2345.528725795043
 30
0.0
 11
7217.920384909405
 21
1895.529127697163
 31
0.0
  0
LINE
  5
25A9B
330
1F
100
AcDbEntity
  8
D-STR
  6
Continuous
100
AcDbLine
 10
7317.920484486673
 20
2385.528925625965
 30
0.0
 11
7317.920484486673
 21
1855.528927866242
 31
0.0
  0
LINE
  5
25A9C
330
1F
100
AcDbEntity
  8
D-STR
  6
Continuous
100
AcDbLine
 10
7217.920384909405
 20
1895.529127697163
 30
0.0
 11
7342.920464380994
 21
1845.528727908513
 31
0.0
  0
LINE
  5
25A9D
330
1F
100
AcDbEntity
  8
D-STR
  6
Continuous
100
AcDbLine
 10
7217.920384909405
 20
2345.528725795043
 30
0.0
 11
7342.920464380994
 21
2395.529325583694
 31
0.0
  0
LINE
  5
25AA1
330
1F
100
AcDbEntity
  8
D-STR-DIM
  6
Continuous
100
AcDbLine
 10
7537.920383556786
 20
2895.528723470226
 30
0.0
 11
7127.920465289786
 21
2895.528723470226
 31
0.0
  0
CIRCLE
  5
25AA2
330
1F
100
AcDbEntity
  8
D-STR-DIM
  6
Continuous
100
AcDbCircle
 10
7537.920383556786
 20
2895.528723470226
 30
0.0
 40
5.999997974638371
  0
CIRCLE
  5
25AA3
330
1F
100
AcDbEntity
  8
D-STR-DIM
  6
Continuous
100
AcDbCircle
 10
7937.920441865957
 20
2495.528925161001
 30
0.0
 40
5.999997974638371
  0
CIRCLE
  5
25AA4
330
1F
100
AcDbEntity
  8
D-STR-DIM
  6
Continuous
100
AcDbCircle
 10
8237.920400597934
 20
2495.528925161001
 30
0.0
 40
5.999997974638371
  0
LINE
  5
25AA5
330
1F
100
AcDbEntity
  8
D-STR-DIM
  6
Continuous
100
AcDbLine
 10
7937.920441865957
 20
2495.528925161001
 30
0.0
 11
7937.920441865957
 21
2270.529126112061
 31
0.0
  0
LINE
  5
25AA6
330
1F
100
AcDbEntity
  8
D-STR-DIM
  6
Continuous
100
AcDbLine
 10
7937.920441865957
 20
2045.529327063122
 30
0.0
 11
7937.920441865957
 21
2270.529126112061
 31
0.0
  0
CIRCLE
  5
25AA7
330
1F
100
AcDbEntity
  8
D-STR-DIM
  6
Continuous
100
AcDbCircle
 10
7937.920441865957
 20
2045.529327063122
 30
0.0
 40
5.999997974638371
  0
TEXT
  5
25AA8
330
1F
100
AcDbEntity
  8
D-STR-DIM
100
AcDbText
 10
7921.920381933654
 20
2183.668926479214
 30
0.0
 40
70.0
  1
450
 50
90.0
100
AcDbText
  0
TEXT
  5
25AAA
330
1F
100
AcDbEntity
  8
D-STR-DIM
100
AcDbText
 10
3061.060802480177
 20
5111.528714103329
 30
0.0
 40
70.0
  1
200
100
AcDbText
  0
TEXT
  5
25AAB
330
1F
100
AcDbEntity
  8
D-STR-DIM
100
AcDbText
 10
3029.060802615466
 20
3811.52851959835
 30
0.0
 40
70.0
  1
1500
100
AcDbText
  0
TEXT
  5
25AAC
330
1F
100
AcDbEntity
  8
D-STR-DIM
100
AcDbText
 10
3061.060802480177
 20
3999.209118805037
 30
0.0
 40
70.0
  1
130
100
AcDbText
  0
CIRCLE
  5
25AAE
330
1F
100
AcDbEntity
  8
D-STR-DIM
  6
Continuous
100
AcDbCircle
 10
3147.92080211304
 20
7195.528705294385
 30
0.0
 40
5.999997974638371
  0
LINE
  5
25AAF
330
1F
100
AcDbEntity
  8
D-STR-DIM
  6
Continuous
100
AcDbLine
 10
3147.92080211304
 20
7195.528705294385
 30
0.0
 11
3522.920800527936
 21
7195.528705294385
 31
0.0
  0
LINE
  5
25AB0
330
1F
100
AcDbEntity
  8
D-STR-DIM
  6
Continuous
100
AcDbLine
 10
3247.920801690347
 20
5095.528914170956
 30
0.0
 11
3147.92080211304
 21
5095.528914170956
 31
0.0
  0
LINE
  5
25AB1
330
1F
100
AcDbEntity
  8
D-STR-DIM
  6
Continuous
100
AcDbLine
 10
3897.920798942836
 20
3795.52891966598
 30
0.0
 11
3147.92080211304
 21
3795.52891966598
 31
0.0
  0
LINE
  5
25AB2
330
1F
100
AcDbEntity
  8
D-STR-DIM
  6
Continuous
100
AcDbLine
 10
3212.920401838299
 20
4095.529318397896
 30
0.0
 11
3147.92080211304
 21
4095.529318397896
 31
0.0
  0
LINE
  5
25AB5
330
1F
100
AcDbEntity
  8
D-STR
  6
Continuous
100
AcDbLine
 10
3037.920802578003
 20
6595.528907830547
 30
0.0
 11
3257.920801648077
 21
6595.528907830547
 31
0.0
  0
LINE
  5
25AB6
330
1F
100
AcDbEntity
  8
D-STR
  6
Continuous
100
AcDbLine
 10
3047.920802535733
 20
6585.52850787282
 30
0.0
 11
3247.920801690347
 21
6585.52850787282
 31
0.0
  0
LINE
  5
25AB7
330
1F
100
AcDbEntity
  8
D-STR
  6
Continuous
100
AcDbLine
 10
2397.920805283244
 20
4695.529115861734
 30
0.0
 11
3897.920798942836
 21
4695.529115861734
 31
0.0
  0
LINE
  5
25AB8
330
1F
100
AcDbEntity
  8
D-STR
  6
Continuous
100
AcDbLine
 10
2397.920805283244
 20
6595.528907830547
 30
0.0
 11
3897.920798942836
 21
6595.528907830547
 31
0.0
  0
LINE
  5
25AB9
330
1F
100
AcDbEntity
  8
D-STR
  6
Continuous
100
AcDbLine
 10
3047.920802535733
 20
4705.528715819464
 30
0.0
 11
3247.920801690347
 21
4705.528715819464
 31
0.0
  0
LINE
  5
25ABA
330
1F
100
AcDbEntity
  8
D-STR
  6
Continuous
100
AcDbLine
 10
3037.920802578003
 20
6595.528907830547
 30
0.0
 11
3257.920801648077
 21
6595.528907830547
 31
0.0
  0
LINE
  5
25ABB
330
1F
100
AcDbEntity
  8
D-STR
  6
Continuous
100
AcDbLine
 10
3037.920802578003
 20
4695.529115861734
 30
0.0
 11
3257.920801648077
 21
4695.529115861734
 31
0.0
  0
LINE
  5
25ABC
330
1F
100
AcDbEntity
  8
D-STR
  6
Continuous
100
AcDbLine
 10
2397.920805283244
 20
4495.529116707121
 30
0.0
 11
3897.920798942836
 21
4495.529116707121
 31
0.0
  0
LINE
  5
25ABD
330
1F
100
AcDbEntity
  8
D-STR
  6
Continuous
100
AcDbLine
 10
2397.920805283244
 20
6795.52890698516
 30
0.0
 11
3897.920798942836
 21
6795.52890698516
 31
0.0
  0
LINE
  5
25ABE
330
1F
100
AcDbEntity
  8
D-STR
  6
Continuous
100
AcDbLine
 10
2507.920804818281
 20
6595.528907830547
 30
0.0
 11
2507.920804818281
 21
4695.529115861734
 31
0.0
  0
LINE
  5
25ABF
330
1F
100
AcDbEntity
  8
D-STR
  6
Continuous
100
AcDbLine
 10
3047.920802535733
 20
6585.52850787282
 30
0.0
 11
3047.920802535733
 21
4705.528715819464
 31
0.0
  0
LINE
  5
25AC0
330
1F
100
AcDbEntity
  8
D-STR
  6
Continuous
100
AcDbLine
 10
2397.920805283244
 20
6795.52890698516
 30
0.0
 11
2397.920805283244
 21
4495.529116707121
 31
0.0
  0
LINE
  5
25AC1
330
1F
100
AcDbEntity
  8
D-STR
  6
Continuous
100
AcDbLine
 10
3037.920802578003
 20
6595.528907830547
 30
0.0
 11
3037.920802578003
 21
4695.529115861734
 31
0.0
  0
LINE
  5
25AC2
330
1F
100
AcDbEntity
  8
D-STR
  6
Continuous
100
AcDbLine
 10
2497.920804860551
 20
6585.52850787282
 30
0.0
 11
2497.920804860551
 21
4705.528715819464
 31
0.0
  0
TEXT
  5
25AC3
330
1F
100
AcDbEntity
  8
D-STR-HTXT
100
AcDbText
 10
1365.759608711545
 20
4415.528717045277
 30
0.0
 40
70.0
  1
　　（セラミック）
100
AcDbText
  0
TEXT
  5
25AC4
330
1F
100
AcDbEntity
  8
D-STR-HTXT
100
AcDbText
 10
1358.011141417228
 20
4511.52891663949
 30
0.0
 40
70.0
  1
　インサート　Ｍ16
100
AcDbText
  0
LINE
  5
25AC5
330
1F
100
AcDbEntity
  8
D-STR-HTXT
  6
Continuous
100
AcDbLine
 10
2147.920606339983
 20
4495.529116707121
 30
0.0
 11
1428.507331526794
 21
4495.529116707121
 31
0.0
  0
LINE
  5
25AC6
330
1F
100
AcDbEntity
  8
D-STR-HTXT
  6
Continuous
100
AcDbLine
 10
2147.920606339983
 20
4495.529116707121
 30
0.0
 11
2456.231005036749
 21
4838.096315259109
 31
0.0
  0
LINE
  5
25AC7
330
1F
100
AcDbEntity
  8
D-STR-DIM
  6
Continuous
100
AcDbLine
 10
2397.920805283244
 20
3795.52891966598
 30
0.0
 11
3147.92080211304
 21
3795.52891966598
 31
0.0
  0
LINE
  5
25AC8
330
1F
100
AcDbEntity
  8
D-STR-DIM
  6
Continuous
100
AcDbLine
 10
2462.920805008493
 20
4095.529318397896
 30
0.0
 11
2772.920803698144
 21
4095.529318397896
 31
0.0
  0
LINE
  5
25AC9
330
1F
100
AcDbEntity
  8
D-STR-DIM
  6
Continuous
100
AcDbLine
 10
2397.920805283244
 20
4475.529116707122
 30
0.0
 11
2397.920805283244
 21
3765.529319792786
 31
0.0
  0
CIRCLE
  5
25ACA
330
1F
100
AcDbEntity
  8
D-STR-DIM
  6
Continuous
100
AcDbCircle
 10
2397.920805283244
 20
3795.52891966598
 30
0.0
 40
5.999997974638371
  0
LINE
  5
25ACB
330
1F
100
AcDbEntity
  8
D-STR-DIM
  6
Continuous
100
AcDbLine
 10
2462.920805008493
 20
4475.529116707122
 30
0.0
 11
2462.920805008493
 21
4065.528718524706
 31
0.0
  0
TEXT
  5
25ACC
330
1F
100
AcDbEntity
  8
D-STR-DIM
100
AcDbText
 10
2343.060605515097
 20
3999.209118805037
 30
0.0
 40
70.0
  1
65
100
AcDbText
  0
CIRCLE
  5
25ACD
330
1F
100
AcDbEntity
  8
D-STR-DIM
  6
Continuous
100
AcDbCircle
 10
2462.920805008493
 20
4095.529318397896
 30
0.0
 40
5.999997974638371
  0
CIRCLE
  5
25ACE
330
1F
100
AcDbEntity
  8
D-STR-DIM
  6
Continuous
100
AcDbCircle
 10
2397.920805283244
 20
4095.529318397896
 30
0.0
 40
5.999997974638371
  0
LINE
  5
25ACF
330
1F
100
AcDbEntity
  8
D-STR-DIM
  6
Continuous
100
AcDbLine
 10
2462.920805008493
 20
4095.529318397896
 30
0.0
 11
2430.420605145875
 21
4095.529318397896
 31
0.0
  0
LINE
  5
25AD0
330
1F
100
AcDbEntity
  8
D-STR-DIM
  6
Continuous
100
AcDbLine
 10
2397.920805283244
 20
4095.529318397896
 30
0.0
 11
2430.420605145875
 21
4095.529318397896
 31
0.0
  0
TEXT
  5
25AD1
330
1F
100
AcDbEntity
  8
D-STR-DIM
100
AcDbText
 10
2686.060804065281
 20
4111.528918330266
 30
0.0
 40
70.0
  1
620
100
AcDbText
  0
LINE
  5
25AD2
330
1F
100
AcDbEntity
  8
D-STR-DIM
  6
Continuous
100
AcDbLine
 10
3082.920802387791
 20
4095.529318397896
 30
0.0
 11
2772.920803698144
 21
4095.529318397896
 31
0.0
  0
LINE
  5
25AD3
330
1F
100
AcDbEntity
  8
D-STR-DIM
  6
Continuous
100
AcDbLine
 10
3082.920802387791
 20
4475.529116707122
 30
0.0
 11
3082.920802387791
 21
4065.528718524706
 31
0.0
  0
CIRCLE
  5
25AD4
330
1F
100
AcDbEntity
  8
D-STR-DIM
  6
Continuous
100
AcDbCircle
 10
3082.920802387791
 20
4095.529318397896
 30
0.0
 40
5.999997974638371
  0
LINE
  5
25AD5
330
1F
100
AcDbEntity
  8
D-STR-DIM
  6
Continuous
100
AcDbLine
 10
3082.920802387791
 20
4095.529318397896
 30
0.0
 11
3147.92080211304
 21
4095.529318397896
 31
0.0
  0
CIRCLE
  5
25AD6
330
1F
100
AcDbEntity
  8
D-STR-DIM
  6
Continuous
100
AcDbCircle
 10
2497.920804860551
 20
5095.528914170956
 30
0.0
 40
5.999997974638371
  0
LINE
  5
25AD7
330
1F
100
AcDbEntity
  8
D-STR-DIM
  6
Continuous
100
AcDbLine
 10
2497.920804860551
 20
5095.528914170956
 30
0.0
 11
2447.920605071904
 21
5095.528914170956
 31
0.0
  0
LINE
  5
25AD8
330
1F
100
AcDbEntity
  8
D-BMK
  6
CENTER2
100
AcDbLine
 10
2502.920604839423
 20
4845.529315227691
 30
0.0
 11
2422.920805177572
 21
4845.529315227691
 31
0.0
  0
LINE
  5
25AD9
330
1F
100
AcDbEntity
  8
D-STR
  6
Continuous
100
AcDbLine
 10
2397.920805283244
 20
4695.529115861734
 30
0.0
 11
2507.920804818281
 21
4695.529115861734
 31
0.0
  0
LINE
  5
25ADA
330
1F
100
AcDbEntity
  8
D-STR
  6
Continuous
100
AcDbLine
 10
2397.920805283244
 20
4705.528715819464
 30
0.0
 11
2497.920804860551
 21
4705.528715819464
 31
0.0
  0
LINE
  5
25ADB
330
1F
100
AcDbEntity
  8
D-BMK
  6
CENTER2
100
AcDbLine
 10
2462.920805008493
 20
4885.528515058616
 30
0.0
 11
2462.920805008493
 21
4805.52911539677
 31
0.0
  0
CIRCLE
  5
25ADC
330
1F
100
AcDbEntity
  8
D-STR-STR2
  6
Continuous
100
AcDbCircle
 10
2462.920805008493
 20
4845.529315227691
 30
0.0
 40
9.999997957730611
  0
LINE
  5
25ADD
330
1F
100
AcDbEntity
  8
D-STR-HTXT
  6
Continuous
100
AcDbLine
 10
2424.230205171989
 20
4813.08311536484
 30
0.0
 11
2456.231005036749
 21
4838.096315259109
 31
0.0
  0
TEXT
  5
25ADE
330
1F
100
AcDbEntity
  8
D-STR-DIM
100
AcDbText
 10
2281.070405777125
 20
5111.528714103329
 30
0.0
 40
70.0
  1
100
100
AcDbText
  0
LINE
  5
25ADF
330
1F
100
AcDbEntity
  8
D-STR-DIM
  6
Continuous
100
AcDbLine
 10
2447.920605071904
 20
5095.528914170956
 30
0.0
 11
2281.071405777169
 21
5095.528914170956
 31
0.0
  0
CIRCLE
  5
25AE0
330
1F
100
AcDbEntity
  8
D-STR-DIM
  6
Continuous
100
AcDbCircle
 10
2397.920805283244
 20
5095.528914170956
 30
0.0
 40
5.999997974638371
  0
LINE
  5
25AE1
330
1F
100
AcDbEntity
  8
D-STR-DIM
  6
Continuous
100
AcDbLine
 10
2397.920805283244
 20
5095.528914170956
 30
0.0
 11
2447.920605071904
 21
5095.528914170956
 31
0.0
  0
LINE
  5
25AE2
330
1F
100
AcDbEntity
  8
D-STR
  6
Continuous
100
AcDbLine
 10
2507.920804818281
 20
4795.528515439041
 30
0.0
 11
3037.920802578003
 21
4795.528515439041
 31
0.0
  0
LINE
  5
25AE3
330
1F
100
AcDbEntity
  8
D-STR
  6
Continuous
100
AcDbLine
 10
2497.920804860551
 20
4705.528715819464
 30
0.0
 11
2507.920804818281
 21
4695.529115861734
 31
0.0
  0
TEXT
  5
25AE4
330
1F
100
AcDbEntity
  8
D-STR-DIM
100
AcDbText
 10
2521.462604761062
 20
5111.528714103329
 30
0.0
 40
70.0
  1
10
100
AcDbText
  0
CIRCLE
  5
25AE5
330
1F
100
AcDbEntity
  8
D-STR-DIM
  6
Continuous
100
AcDbCircle
 10
2507.920804818281
 20
5095.528914170956
 30
0.0
 40
5.999997974638371
  0
LINE
  5
25AE6
330
1F
100
AcDbEntity
  8
D-STR-DIM
  6
Continuous
100
AcDbLine
 10
2507.920804818281
 20
5095.528914170956
 30
0.0
 11
2502.920604839423
 21
5095.528914170956
 31
0.0
  0
LINE
  5
25AE7
330
1F
100
AcDbEntity
  8
D-STR-DIM
  6
Continuous
100
AcDbLine
 10
2502.920604839423
 20
5095.528914170956
 30
0.0
 11
2631.182604297225
 21
5095.528914170956
 31
0.0
  0
LINE
  5
25AE8
330
1F
100
AcDbEntity
  8
D-STR-DIM
  6
Continuous
100
AcDbLine
 10
2497.920804860551
 20
5095.528914170956
 30
0.0
 11
2502.920604839423
 21
5095.528914170956
 31
0.0
  0
LINE
  5
25AE9
330
1F
100
AcDbEntity
  8
D-BMK
  6
CENTER2
100
AcDbLine
 10
3082.920802387791
 20
4885.528515058616
 30
0.0
 11
3082.920802387791
 21
4805.52911539677
 31
0.0
  0
CIRCLE
  5
25AEA
330
1F
100
AcDbEntity
  8
D-STR-STR2
  6
Continuous
100
AcDbCircle
 10
3082.920802387791
 20
4845.529315227691
 30
0.0
 40
9.999997957730611
  0
LINE
  5
25AEB
330
1F
100
AcDbEntity
  8
D-BMK
  6
CENTER2
100
AcDbLine
 10
3122.920402218726
 20
4845.529315227691
 30
0.0
 11
3042.920602556875
 21
4845.529315227691
 31
0.0
  0
LINE
  5
25AEC
330
1F
100
AcDbEntity
  8
D-STR
  6
Continuous
100
AcDbLine
 10
3037.920802578003
 20
4695.529115861734
 30
0.0
 11
3047.920802535733
 21
4705.528715819464
 31
0.0
  0
TEXT
  5
25AED
330
1F
100
AcDbEntity
  8
D-STR-DIM
100
AcDbText
 10
2988.060802788787
 20
4999.208914578098
 30
0.0
 40
70.0
  1
10
100
AcDbText
  0
CIRCLE
  5
25AEE
330
1F
100
AcDbEntity
  8
D-STR-DIM
  6
Continuous
100
AcDbCircle
 10
3047.920802535733
 20
5095.528914170956
 30
0.0
 40
5.999997974638371
  0
CIRCLE
  5
25AEF
330
1F
100
AcDbEntity
  8
D-STR-DIM
  6
Continuous
100
AcDbCircle
 10
3037.920802578003
 20
5095.528914170956
 30
0.0
 40
5.999997974638371
  0
LINE
  5
25AF0
330
1F
100
AcDbEntity
  8
D-STR-DIM
  6
Continuous
100
AcDbLine
 10
3047.920802535733
 20
5095.528914170956
 30
0.0
 11
3147.92080211304
 21
5095.528914170956
 31
0.0
  0
LINE
  5
25AF1
330
1F
100
AcDbEntity
  8
D-STR-DIM
  6
Continuous
100
AcDbLine
 10
3047.920802535733
 20
5095.528914170956
 30
0.0
 11
3042.920602556875
 21
5095.528914170956
 31
0.0
  0
LINE
  5
25AF2
330
1F
100
AcDbEntity
  8
D-STR-DIM
  6
Continuous
100
AcDbLine
 10
3037.920802578003
 20
5095.528914170956
 30
0.0
 11
3042.920602556875
 21
5095.528914170956
 31
0.0
  0
LINE
  5
25AF3
330
1F
100
AcDbEntity
  8
D-STR-HTXT
  6
Continuous
100
AcDbLine
 10
2147.920606339983
 20
6045.528910155365
 30
0.0
 11
1797.216145565864
 21
6045.528910155365
 31
0.0
  0
TEXT
  5
25AF4
330
1F
100
AcDbEntity
  8
D-STR-DIM
100
AcDbText
 10
2686.060804065281
 20
7211.528505226755
 30
0.0
 40
70.0
  1
750
100
AcDbText
  0
LINE
  5
25AF5
330
1F
100
AcDbEntity
  8
D-STR-DIM
  6
Continuous
100
AcDbLine
 10
2397.920805283244
 20
7195.528705294385
 30
0.0
 11
2772.920803698144
 21
7195.528705294385
 31
0.0
  0
LINE
  5
25AF6
330
1F
100
AcDbEntity
  8
D-BMK
  6
CENTER2
100
AcDbLine
 10
2422.920805177572
 20
6445.52870846459
 30
0.0
 11
2502.920604839423
 21
6445.52870846459
 31
0.0
  0
LINE
  5
25AF7
330
1F
100
AcDbEntity
  8
D-BMK
  6
CENTER2
100
AcDbLine
 10
2367.920805410053
 20
6295.528509098631
 30
0.0
 11
2511.92080480139
 21
6295.528509098631
 31
0.0
  0
LINE
  5
25AF8
330
1F
100
AcDbEntity
  8
D-STR
  6
Continuous
100
AcDbLine
 10
2397.920805283244
 20
6585.52850787282
 30
0.0
 11
2497.920804860551
 21
6585.52850787282
 31
0.0
  0
LINE
  5
25AF9
330
1F
100
AcDbEntity
  8
D-STR
  6
Continuous
100
AcDbLine
 10
2397.920805283244
 20
6595.528907830547
 30
0.0
 11
2507.920804818281
 21
6595.528907830547
 31
0.0
  0
LINE
  5
25AFA
330
1F
100
AcDbEntity
  8
D-STR-DIM
  6
Continuous
100
AcDbLine
 10
1997.920406974033
 20
6595.528907830547
 30
0.0
 11
1997.920406974033
 21
6445.52870846459
 31
0.0
  0
LINE
  5
25AFB
330
1F
100
AcDbEntity
  8
D-STR-DIM
  6
Continuous
100
AcDbLine
 10
2337.920805283244
 20
6295.528509098631
 30
0.0
 11
1967.920807100829
 21
6295.528509098631
 31
0.0
  0
LINE
  5
25AFC
330
1F
100
AcDbEntity
  8
D-STR-HTXT
  6
Continuous
100
AcDbLine
 10
2147.920606339983
 20
6045.528910155365
 30
0.0
 11
2397.920805283244
 21
6295.528509098631
 31
0.0
  0
TEXT
  5
25AFD
330
1F
100
AcDbEntity
  8
D-STR-HTXT
100
AcDbText
 10
1732.142822505557
 20
6061.528510087734
 30
0.0
 40
70.0
  1
　連結金具
100
AcDbText
  0
CIRCLE
  5
25AFE
330
1F
100
AcDbEntity
  8
D-STR-DIM
  6
Continuous
100
AcDbCircle
 10
1997.920406974033
 20
6295.528509098631
 30
0.0
 40
5.999997974638371
  0
TEXT
  5
25AFF
330
1F
100
AcDbEntity
  8
D-STR-DIM
100
AcDbText
 10
1981.920807041664
 20
6358.669108831742
 30
0.0
 40
70.0
  1
300
 50
90.0
100
AcDbText
  0
LINE
  5
25B00
330
1F
100
AcDbEntity
  8
D-STR-DIM
  6
Continuous
100
AcDbLine
 10
1997.920406974033
 20
6295.528509098631
 30
0.0
 11
1997.920406974033
 21
6445.52870846459
 31
0.0
  0
CIRCLE
  5
25B01
330
1F
100
AcDbEntity
  8
D-STR-STR2
  6
Continuous
100
AcDbCircle
 10
2462.920805008493
 20
6445.52870846459
 30
0.0
 40
9.999997957730611
  0
LINE
  5
25B02
330
1F
100
AcDbEntity
  8
D-STR-HTXT
  6
Continuous
100
AcDbLine
 10
2364.649205423873
 20
6272.231709197108
 30
0.0
 11
2397.920805283244
 21
6295.528509098631
 31
0.0
  0
LINE
  5
25B03
330
1F
100
AcDbEntity
  8
D-BMK
  6
CENTER2
100
AcDbLine
 10
2462.920805008493
 20
6485.528908295511
 30
0.0
 11
2462.920805008493
 21
6405.528508633668
 31
0.0
  0
LINE
  5
25B04
330
1F
100
AcDbEntity
  8
D-STR-STR2
  6
Continuous
100
AcDbLine
 10
2481.9206049282
 20
6345.529308887281
 30
0.0
 11
2481.9206049282
 21
6245.528909309976
 31
0.0
  0
LINE
  5
25B05
330
1F
100
AcDbEntity
  8
D-STR-STR2
  6
Continuous
100
AcDbLine
 10
2397.920805283244
 20
6345.529308887281
 30
0.0
 11
2481.9206049282
 21
6345.529308887281
 31
0.0
  0
LINE
  5
25B06
330
1F
100
AcDbEntity
  8
D-STR-STR2
  6
Continuous
100
AcDbLine
 10
2481.9206049282
 20
6245.528909309976
 30
0.0
 11
2397.920805283244
 21
6245.528909309976
 31
0.0
  0
LINE
  5
25B07
330
1F
100
AcDbEntity
  8
D-STR-DIM
  6
Continuous
100
AcDbLine
 10
2377.920805283244
 20
6595.528907830547
 30
0.0
 11
1967.920807100829
 21
6595.528907830547
 31
0.0
  0
CIRCLE
  5
25B08
330
1F
100
AcDbEntity
  8
D-STR-DIM
  6
Continuous
100
AcDbCircle
 10
1997.920406974033
 20
6595.528907830547
 30
0.0
 40
5.999997974638371
  0
LINE
  5
25B09
330
1F
100
AcDbEntity
  8
D-STR-DIM
  6
Continuous
100
AcDbLine
 10
2397.920805283244
 20
6815.528906985159
 30
0.0
 11
2397.920805283244
 21
7225.528505167578
 31
0.0
  0
CIRCLE
  5
25B0A
330
1F
100
AcDbEntity
  8
D-STR-DIM
  6
Continuous
100
AcDbCircle
 10
2397.920805283244
 20
7195.528705294385
 30
0.0
 40
5.999997974638371
  0
LINE
  5
25B0B
330
1F
100
AcDbEntity
  8
D-STR
  6
Continuous
100
AcDbLine
 10
2507.920804818281
 20
6495.528508253244
 30
0.0
 11
3037.920802578003
 21
6495.528508253244
 31
0.0
  0
CIRCLE
  5
25B0C
330
1F
100
AcDbEntity
  8
D-STR-STR2
  6
Continuous
100
AcDbCircle
 10
3082.920802387791
 20
6445.52870846459
 30
0.0
 40
9.999997957730611
  0
LINE
  5
25B0D
330
1F
100
AcDbEntity
  8
D-BMK
  6
CENTER2
100
AcDbLine
 10
3122.920402218726
 20
6445.52870846459
 30
0.0
 11
3042.920602556875
 21
6445.52870846459
 31
0.0
  0
LINE
  5
25B0E
330
1F
100
AcDbEntity
  8
D-BMK
  6
CENTER2
100
AcDbLine
 10
3082.920802387791
 20
6485.528908295511
 30
0.0
 11
3082.920802387791
 21
6405.528508633668
 31
0.0
  0
LINE
  5
25B0F
330
1F
100
AcDbEntity
  8
D-STR-DIM
  6
Continuous
100
AcDbLine
 10
3147.92080211304
 20
7195.528705294385
 30
0.0
 11
2772.920803698144
 21
7195.528705294385
 31
0.0
  0
LINE
  5
25B10
330
1F
100
AcDbEntity
  8
D-STR
  6
Continuous
100
AcDbLine
 10
2507.920804818281
 20
6595.528907830547
 30
0.0
 11
2497.919404860521
 21
6585.52850787282
 31
0.0
  0
LINE
  5
25B11
330
1F
100
AcDbEntity
  8
D-STR-DIM
  6
Continuous
100
AcDbLine
 10
3147.92080211304
 20
6815.528906985159
 30
0.0
 11
3147.92080211304
 21
7225.528505167578
 31
0.0
  0
LINE
  5
25B12
330
1F
100
AcDbEntity
  8
D-STR
  6
Continuous
100
AcDbLine
 10
3037.919402577973
 20
6595.528907830547
 30
0.0
 11
3047.919402535703
 21
6585.52850787282
 31
0.0
  0
TEXT
  5
25B14
330
1F
100
AcDbEntity
  8
D-STR-DIM
100
AcDbText
 10
5481.920592247385
 20
8233.669099638147
 30
0.0
 40
70.0
  1
250
 50
90.0
100
AcDbText
  0
LINE
  5
25B15
330
1F
100
AcDbEntity
  8
D-STR-DIM
  6
Continuous
100
AcDbLine
 10
5497.920592179736
 20
8195.528899799363
 30
0.0
 11
5497.920592179736
 21
8320.528699270996
 31
0.0
  0
LINE
  5
25B16
330
1F
100
AcDbEntity
  8
D-STR-DIM
  6
Continuous
100
AcDbLine
 10
8237.920400597934
 20
8195.528899799363
 30
0.0
 11
8237.920400597934
 21
8945.528896629156
 31
0.0
  0
LINE
  5
25B17
330
1F
100
AcDbEntity
  8
D-STR
  6
Continuous
100
AcDbLine
 10
7537.920383556786
 20
8195.528899799363
 30
0.0
 11
7537.920383556786
 21
9695.528893458952
 31
0.0
  0
LINE
  5
25B18
330
1F
100
AcDbEntity
  8
D-STR
  6
Continuous
100
AcDbLine
 10
5897.920390488966
 20
8195.528899799363
 30
0.0
 11
5897.920390488966
 21
9695.528893458952
 31
0.0
  0
LINE
  5
25B19
330
1F
100
AcDbEntity
  8
D-STR-DIM
  6
Continuous
100
AcDbLine
 10
5877.920390488966
 20
8195.528899799363
 30
0.0
 11
5467.920592306546
 21
8195.528899799363
 31
0.0
  0
LINE
  5
25B1A
330
1F
100
AcDbEntity
  8
D-STR-DIM
  6
Continuous
100
AcDbLine
 10
5877.920390488966
 20
4845.529315227691
 30
0.0
 11
5617.920591672504
 21
4845.529315227691
 31
0.0
  0
LINE
  5
25B1B
330
1F
100
AcDbEntity
  8
D-STR-DIM
  6
Continuous
100
AcDbLine
 10
5877.920390488966
 20
4695.529115861734
 30
0.0
 11
5617.920591672504
 21
4695.529115861734
 31
0.0
  0
LINE
  5
25B1C
330
1F
100
AcDbEntity
  8
D-STR-DIM
  6
Continuous
100
AcDbLine
 10
5877.920390488966
 20
6595.528907830547
 30
0.0
 11
5617.920591672504
 21
6595.528907830547
 31
0.0
  0
LINE
  5
25B1D
330
1F
100
AcDbEntity
  8
D-STR-DIM
  6
Continuous
100
AcDbLine
 10
5877.920390488966
 20
6445.52870846459
 30
0.0
 11
5617.920591672504
 21
6445.52870846459
 31
0.0
  0
LINE
  5
25B1E
330
1F
100
AcDbEntity
  8
D-STR-DIM
  6
Continuous
100
AcDbLine
 10
5867.92059061577
 20
4495.529116707121
 30
0.0
 11
3927.920398816037
 21
4495.529116707121
 31
0.0
  0
LINE
  5
25B1F
330
1F
100
AcDbEntity
  8
D-STR-DIM
  6
Continuous
100
AcDbLine
 10
5867.92059061577
 20
6795.52890698516
 30
0.0
 11
3927.920398816037
 21
6795.52890698516
 31
0.0
  0
LINE
  5
25B20
330
1F
100
AcDbEntity
  8
D-STR-DIM
  6
Continuous
100
AcDbLine
 10
5647.920591545695
 20
6445.52870846459
 30
0.0
 11
5647.920591545695
 21
5645.529111846141
 31
0.0
  0
LINE
  5
25B21
330
1F
100
AcDbEntity
  8
D-STR-DIM
  6
Continuous
100
AcDbLine
 10
5097.920793870508
 20
6795.52890698516
 30
0.0
 11
5097.920793870508
 21
5645.529111846141
 31
0.0
  0
LINE
  5
25B22
330
1F
100
AcDbEntity
  8
D-STR
  6
Continuous
100
AcDbLine
 10
3797.92039936554
 20
6585.52850787282
 30
0.0
 11
3797.92039936554
 21
4705.528715819464
 31
0.0
  0
LINE
  5
25B23
330
1F
100
AcDbEntity
  8
D-STR
  6
Continuous
100
AcDbLine
 10
3247.920801690347
 20
6585.52850787282
 30
0.0
 11
3247.920801690347
 21
4705.528715819464
 31
0.0
  0
LINE
  5
25B24
330
1F
100
AcDbEntity
  8
D-STR
  6
Continuous
100
AcDbLine
 10
3897.920798942836
 20
6795.52890698516
 30
0.0
 11
3897.920798942836
 21
4495.529116707121
 31
0.0
  0
LINE
  5
25B25
330
1F
100
AcDbEntity
  8
D-STR
  6
Continuous
100
AcDbLine
 10
3257.920801648077
 20
6595.528907830547
 30
0.0
 11
3257.920801648077
 21
4695.529115861734
 31
0.0
  0
LINE
  5
25B26
330
1F
100
AcDbEntity
  8
D-STR
  6
Continuous
100
AcDbLine
 10
3787.920799407799
 20
6595.528907830547
 30
0.0
 11
3787.920799407799
 21
4695.529115861734
 31
0.0
  0
LINE
  5
25B27
330
1F
100
AcDbEntity
  8
D-STR-DIM
  6
Continuous
100
AcDbLine
 10
3832.920799217588
 20
4095.529318397896
 30
0.0
 11
3522.920800527936
 21
4095.529318397896
 31
0.0
  0
TEXT
  5
25B28
330
1F
100
AcDbEntity
  8
D-STR-DIM
100
AcDbText
 10
3436.060800895074
 20
4111.528918330266
 30
0.0
 40
70.0
  1
620
100
AcDbText
  0
LINE
  5
25B29
330
1F
100
AcDbEntity
  8
D-STR-DIM
  6
Continuous
100
AcDbLine
 10
3212.920401838299
 20
4095.529318397896
 30
0.0
 11
3522.920800527936
 21
4095.529318397896
 31
0.0
  0
LINE
  5
25B2A
330
1F
100
AcDbEntity
  8
D-STR-DIM
  6
Continuous
100
AcDbLine
 10
3212.920401838299
 20
4475.529116707122
 30
0.0
 11
3212.920401838299
 21
4065.528718524706
 31
0.0
  0
CIRCLE
  5
25B2B
330
1F
100
AcDbEntity
  8
D-STR-DIM
  6
Continuous
100
AcDbCircle
 10
3212.920401838299
 20
4095.529318397896
 30
0.0
 40
5.999997974638371
  0
LINE
  5
25B2C
330
1F
100
AcDbEntity
  8
D-STR-DIM
  6
Continuous
100
AcDbLine
 10
3897.920798942836
 20
4475.529116707122
 30
0.0
 11
3897.920798942836
 21
3765.529319792786
 31
0.0
  0
CIRCLE
  5
25B2D
330
1F
100
AcDbEntity
  8
D-STR-DIM
  6
Continuous
100
AcDbCircle
 10
3897.920798942836
 20
3795.52891966598
 30
0.0
 40
5.999997974638371
  0
LINE
  5
25B2E
330
1F
100
AcDbEntity
  8
D-STR-DIM
  6
Continuous
100
AcDbLine
 10
3832.920799217588
 20
4475.529116707122
 30
0.0
 11
3832.920799217588
 21
4065.528718524706
 31
0.0
  0
TEXT
  5
25B2F
330
1F
100
AcDbEntity
  8
D-STR-DIM
100
AcDbText
 10
3843.060599174685
 20
3999.209118805037
 30
0.0
 40
70.0
  1
65
100
AcDbText
  0
CIRCLE
  5
25B30
330
1F
100
AcDbEntity
  8
D-STR-DIM
  6
Continuous
100
AcDbCircle
 10
3897.920798942836
 20
4095.529318397896
 30
0.0
 40
5.999997974638371
  0
CIRCLE
  5
25B31
330
1F
100
AcDbEntity
  8
D-STR-DIM
  6
Continuous
100
AcDbCircle
 10
3832.920799217588
 20
4095.529318397896
 30
0.0
 40
5.999997974638371
  0
LINE
  5
25B32
330
1F
100
AcDbEntity
  8
D-STR-DIM
  6
Continuous
100
AcDbLine
 10
3897.920798942836
 20
4095.529318397896
 30
0.0
 11
3865.420599080215
 21
4095.529318397896
 31
0.0
  0
LINE
  5
25B33
330
1F
100
AcDbEntity
  8
D-STR-DIM
  6
Continuous
100
AcDbLine
 10
3832.920799217588
 20
4095.529318397896
 30
0.0
 11
3865.420599080215
 21
4095.529318397896
 31
0.0
  0
LINE
  5
25B34
330
1F
100
AcDbEntity
  8
D-STR-DIM
  6
Continuous
100
AcDbLine
 10
3797.92039936554
 20
5095.528914170956
 30
0.0
 11
3847.920599154189
 21
5095.528914170956
 31
0.0
  0
LINE
  5
25B35
330
1F
100
AcDbEntity
  8
D-BMK
  6
CENTER2
100
AcDbLine
 10
3872.920399048518
 20
4845.529315227691
 30
0.0
 11
3792.920599386671
 21
4845.529315227691
 31
0.0
  0
LINE
  5
25B36
330
1F
100
AcDbEntity
  8
D-STR
  6
Continuous
100
AcDbLine
 10
3897.920798942836
 20
4705.528715819464
 30
0.0
 11
3797.92039936554
 21
4705.528715819464
 31
0.0
  0
LINE
  5
25B37
330
1F
100
AcDbEntity
  8
D-STR
  6
Continuous
100
AcDbLine
 10
3897.920798942836
 20
4695.529115861734
 30
0.0
 11
3787.920799407799
 21
4695.529115861734
 31
0.0
  0
LINE
  5
25B38
330
1F
100
AcDbEntity
  8
D-STR
  6
Continuous
100
AcDbLine
 10
3257.920801648077
 20
4795.528515439041
 30
0.0
 11
3787.920799407799
 21
4795.528515439041
 31
0.0
  0
LINE
  5
25B39
330
1F
100
AcDbEntity
  8
D-BMK
  6
CENTER2
100
AcDbLine
 10
3212.920401838299
 20
4885.528515058616
 30
0.0
 11
3212.920401838299
 21
4805.52911539677
 31
0.0
  0
CIRCLE
  5
25B3A
330
1F
100
AcDbEntity
  8
D-STR-STR2
  6
Continuous
100
AcDbCircle
 10
3212.920401838299
 20
4845.529315227691
 30
0.0
 40
9.999997957730611
  0
LINE
  5
25B3B
330
1F
100
AcDbEntity
  8
D-BMK
  6
CENTER2
100
AcDbLine
 10
3252.920601669219
 20
4845.529315227691
 30
0.0
 11
3172.920802007368
 21
4845.529315227691
 31
0.0
  0
LINE
  5
25B3C
330
1F
100
AcDbEntity
  8
D-STR
  6
Continuous
100
AcDbLine
 10
3247.920801690347
 20
4705.529715819462
 30
0.0
 11
3257.920801648077
 21
4695.529115861734
 31
0.0
  0
TEXT
  5
25B3D
330
1F
100
AcDbEntity
  8
D-STR-DIM
100
AcDbText
 10
3198.060801901131
 20
4999.208914578098
 30
0.0
 40
70.0
  1
10
100
AcDbText
  0
CIRCLE
  5
25B3E
330
1F
100
AcDbEntity
  8
D-STR-DIM
  6
Continuous
100
AcDbCircle
 10
3257.920801648077
 20
5095.528914170956
 30
0.0
 40
5.999997974638371
  0
CIRCLE
  5
25B3F
330
1F
100
AcDbEntity
  8
D-STR-DIM
  6
Continuous
100
AcDbCircle
 10
3247.920801690347
 20
5095.528914170956
 30
0.0
 40
5.999997974638371
  0
LINE
  5
25B40
330
1F
100
AcDbEntity
  8
D-STR-DIM
  6
Continuous
100
AcDbLine
 10
3257.920801648077
 20
5095.528914170956
 30
0.0
 11
3252.920601669219
 21
5095.528914170956
 31
0.0
  0
LINE
  5
25B41
330
1F
100
AcDbEntity
  8
D-STR-DIM
  6
Continuous
100
AcDbLine
 10
3247.920801690347
 20
5095.528914170956
 30
0.0
 11
3252.920601669219
 21
5095.528914170956
 31
0.0
  0
LINE
  5
25B42
330
1F
100
AcDbEntity
  8
D-STR
  6
Continuous
100
AcDbLine
 10
3797.92039936554
 20
4705.529715819462
 30
0.0
 11
3787.920799407799
 21
4695.529115861734
 31
0.0
  0
TEXT
  5
25B43
330
1F
100
AcDbEntity
  8
D-STR-DIM
100
AcDbText
 10
3664.658599928793
 20
5111.528714103329
 30
0.0
 40
70.0
  1
10
100
AcDbText
  0
CIRCLE
  5
25B44
330
1F
100
AcDbEntity
  8
D-STR-DIM
  6
Continuous
100
AcDbCircle
 10
3787.920799407799
 20
5095.528914170956
 30
0.0
 40
5.999997974638371
  0
CIRCLE
  5
25B45
330
1F
100
AcDbEntity
  8
D-STR-DIM
  6
Continuous
100
AcDbCircle
 10
3797.92039936554
 20
5095.528914170956
 30
0.0
 40
5.999997974638371
  0
LINE
  5
25B46
330
1F
100
AcDbEntity
  8
D-STR-DIM
  6
Continuous
100
AcDbLine
 10
3787.920799407799
 20
5095.528914170956
 30
0.0
 11
3792.920599386671
 21
5095.528914170956
 31
0.0
  0
LINE
  5
25B47
330
1F
100
AcDbEntity
  8
D-STR-DIM
  6
Continuous
100
AcDbLine
 10
3792.920599386671
 20
5095.528914170956
 30
0.0
 11
3664.658599928793
 21
5095.528914170956
 31
0.0
  0
LINE
  5
25B48
330
1F
100
AcDbEntity
  8
D-STR-DIM
  6
Continuous
100
AcDbLine
 10
3797.92039936554
 20
5095.528914170956
 30
0.0
 11
3792.920599386671
 21
5095.528914170956
 31
0.0
  0
LINE
  5
25B49
330
1F
100
AcDbEntity
  8
D-BMK
  6
CENTER2
100
AcDbLine
 10
3832.920799217588
 20
4885.528515058616
 30
0.0
 11
3832.920799217588
 21
4805.52911539677
 31
0.0
  0
CIRCLE
  5
25B4A
330
1F
100
AcDbEntity
  8
D-STR-STR2
  6
Continuous
100
AcDbCircle
 10
3832.920799217588
 20
4845.529315227691
 30
0.0
 40
9.999997957730611
  0
TEXT
  5
25B4B
330
1F
100
AcDbEntity
  8
D-STR-DIM
100
AcDbText
 10
3841.050999183234
 20
5111.528714103329
 30
0.0
 40
70.0
  1
100
100
AcDbText
  0
LINE
  5
25B4C
330
1F
100
AcDbEntity
  8
D-STR-DIM
  6
Continuous
100
AcDbLine
 10
3847.920599154189
 20
5095.528914170956
 30
0.0
 11
4014.77019844891
 21
5095.528914170956
 31
0.0
  0
CIRCLE
  5
25B4D
330
1F
100
AcDbEntity
  8
D-STR-DIM
  6
Continuous
100
AcDbCircle
 10
3897.920798942836
 20
5095.528914170956
 30
0.0
 40
5.999997974638371
  0
LINE
  5
25B4E
330
1F
100
AcDbEntity
  8
D-STR-DIM
  6
Continuous
100
AcDbLine
 10
3897.920798942836
 20
5095.528914170956
 30
0.0
 11
3847.920599154189
 21
5095.528914170956
 31
0.0
  0
LINE
  5
25B4F
330
1F
100
AcDbEntity
  8
D-STR-DIM
  6
Continuous
100
AcDbLine
 10
5097.920793870508
 20
4495.529116707121
 30
0.0
 11
5097.920793870508
 21
5645.529111846141
 31
0.0
  0
CIRCLE
  5
25B50
330
1F
100
AcDbEntity
  8
D-STR-DIM
  6
Continuous
100
AcDbCircle
 10
5097.920793870508
 20
4495.529116707121
 30
0.0
 40
5.999997974638371
  0
TEXT
  5
25B51
330
1F
100
AcDbEntity
  8
D-STR-DIM
100
AcDbText
 10
5081.920593938157
 20
5526.669112348555
 30
0.0
 40
70.0
  1
2300
 50
90.0
100
AcDbText
  0
LINE
  5
25B52
330
1F
100
AcDbEntity
  8
D-STR-DIM
  6
Continuous
100
AcDbLine
 10
5647.920591545695
 20
4845.529315227691
 30
0.0
 11
5647.920591545695
 21
5645.529111846141
 31
0.0
  0
TEXT
  5
25B53
330
1F
100
AcDbEntity
  8
D-STR-DIM
100
AcDbText
 10
5631.920591613344
 20
4683.668515911865
 30
0.0
 40
70.0
  1
150
 50
90.0
100
AcDbText
  0
CIRCLE
  5
25B54
330
1F
100
AcDbEntity
  8
D-STR-DIM
  6
Continuous
100
AcDbCircle
 10
5647.920591545695
 20
4845.529315227691
 30
0.0
 40
5.999997974638371
  0
CIRCLE
  5
25B55
330
1F
100
AcDbEntity
  8
D-STR-DIM
  6
Continuous
100
AcDbCircle
 10
5647.920591545695
 20
4695.529115861734
 30
0.0
 40
5.999997974638371
  0
CIRCLE
  5
25B56
330
1F
100
AcDbEntity
  8
D-STR-DIM
  6
Continuous
100
AcDbCircle
 10
5647.920591545695
 20
4845.529315227691
 30
0.0
 40
5.999997974638371
  0
LINE
  5
25B57
330
1F
100
AcDbEntity
  8
D-STR-DIM
  6
Continuous
100
AcDbLine
 10
5647.920591545695
 20
4845.529315227691
 30
0.0
 11
5647.920591545695
 21
4770.529115544713
 31
0.0
  0
LINE
  5
25B58
330
1F
100
AcDbEntity
  8
D-STR-DIM
  6
Continuous
100
AcDbLine
 10
5647.920591545695
 20
4695.529115861734
 30
0.0
 11
5647.920591545695
 21
4770.529115544713
 31
0.0
  0
TEXT
  5
25B59
330
1F
100
AcDbEntity
  8
D-STR-DIM
100
AcDbText
 10
5631.920591613344
 20
5530.169112333759
 30
0.0
 40
70.0
  1
1600
 50
90.0
100
AcDbText
  0
TEXT
  5
25B5A
330
1F
100
AcDbEntity
  8
D-STR-DIM
100
AcDbText
 10
3436.060800895074
 20
7211.528505226755
 30
0.0
 40
70.0
  1
750
100
AcDbText
  0
LINE
  5
25B5B
330
1F
100
AcDbEntity
  8
D-STR-DIM
  6
Continuous
100
AcDbLine
 10
3897.920798942836
 20
7195.528705294385
 30
0.0
 11
3522.920800527936
 21
7195.528705294385
 31
0.0
  0
LINE
  5
25B5C
330
1F
100
AcDbEntity
  8
D-BMK
  6
CENTER2
100
AcDbLine
 10
3792.920599386671
 20
6445.52870846459
 30
0.0
 11
3872.920399048518
 21
6445.52870846459
 31
0.0
  0
LINE
  5
25B5D
330
1F
100
AcDbEntity
  8
D-BMK
  6
CENTER2
100
AcDbLine
 10
3927.920398816037
 20
6295.528509098631
 30
0.0
 11
3783.920399424704
 21
6295.528509098631
 31
0.0
  0
LINE
  5
25B5E
330
1F
100
AcDbEntity
  8
D-STR
  6
Continuous
100
AcDbLine
 10
3897.920798942836
 20
6595.528907830547
 30
0.0
 11
3787.920799407799
 21
6595.528907830547
 31
0.0
  0
LINE
  5
25B5F
330
1F
100
AcDbEntity
  8
D-STR
  6
Continuous
100
AcDbLine
 10
3897.920798942836
 20
6585.52850787282
 30
0.0
 11
3797.92039936554
 21
6585.52850787282
 31
0.0
  0
LINE
  5
25B60
330
1F
100
AcDbEntity
  8
D-STR
  6
Continuous
100
AcDbLine
 10
3257.920801648077
 20
6495.528508253244
 30
0.0
 11
3787.920799407799
 21
6495.528508253244
 31
0.0
  0
CIRCLE
  5
25B61
330
1F
100
AcDbEntity
  8
D-STR-STR2
  6
Continuous
100
AcDbCircle
 10
3212.920401838299
 20
6445.52870846459
 30
0.0
 40
9.999997957730611
  0
LINE
  5
25B62
330
1F
100
AcDbEntity
  8
D-BMK
  6
CENTER2
100
AcDbLine
 10
3252.920601669219
 20
6445.52870846459
 30
0.0
 11
3172.920802007368
 21
6445.52870846459
 31
0.0
  0
LINE
  5
25B63
330
1F
100
AcDbEntity
  8
D-BMK
  6
CENTER2
100
AcDbLine
 10
3212.920401838299
 20
6485.528908295511
 30
0.0
 11
3212.920401838299
 21
6405.528508633668
 31
0.0
  0
LINE
  5
25B64
330
1F
100
AcDbEntity
  8
D-STR
  6
Continuous
100
AcDbLine
 10
3257.920801648077
 20
6595.528907830547
 30
0.0
 11
3247.920801690347
 21
6585.52850787282
 31
0.0
  0
LINE
  5
25B65
330
1F
100
AcDbEntity
  8
D-STR
  6
Continuous
100
AcDbLine
 10
3787.919399407766
 20
6595.529907830545
 30
0.0
 11
3797.919399365499
 21
6585.529507872815
 31
0.0
  0
CIRCLE
  5
25B66
330
1F
100
AcDbEntity
  8
D-STR-STR2
  6
Continuous
100
AcDbCircle
 10
3832.920799217588
 20
6445.52870846459
 30
0.0
 40
9.999997957730611
  0
LINE
  5
25B67
330
1F
100
AcDbEntity
  8
D-BMK
  6
CENTER2
100
AcDbLine
 10
3832.920799217588
 20
6485.528908295511
 30
0.0
 11
3832.920799217588
 21
6405.528508633668
 31
0.0
  0
LINE
  5
25B68
330
1F
100
AcDbEntity
  8
D-STR-STR2
  6
Continuous
100
AcDbLine
 10
3813.920599297889
 20
6245.528909309976
 30
0.0
 11
3897.920798942836
 21
6245.528909309976
 31
0.0
  0
LINE
  5
25B69
330
1F
100
AcDbEntity
  8
D-STR-STR2
  6
Continuous
100
AcDbLine
 10
3897.920798942836
 20
6345.529308887281
 30
0.0
 11
3813.920599297889
 21
6345.529308887281
 31
0.0
  0
LINE
  5
25B6A
330
1F
100
AcDbEntity
  8
D-STR-STR2
  6
Continuous
100
AcDbLine
 10
3813.920599297889
 20
6345.529308887281
 30
0.0
 11
3813.920599297889
 21
6245.528909309976
 31
0.0
  0
LINE
  5
25B6B
330
1F
100
AcDbEntity
  8
D-STR-DIM
  6
Continuous
100
AcDbLine
 10
3897.920798942836
 20
6815.528906985159
 30
0.0
 11
3897.920798942836
 21
7225.528505167578
 31
0.0
  0
CIRCLE
  5
25B6C
330
1F
100
AcDbEntity
  8
D-STR-DIM
  6
Continuous
100
AcDbCircle
 10
3897.920798942836
 20
7195.528705294385
 30
0.0
 40
5.999997974638371
  0
CIRCLE
  5
25B6F
330
1F
100
AcDbEntity
  8
D-STR-DIM
  6
Continuous
100
AcDbCircle
 10
5097.920793870508
 20
6795.52890698516
 30
0.0
 40
5.999997974638371
  0
TEXT
  5
25B70
330
1F
100
AcDbEntity
  8
D-STR-DIM
100
AcDbText
 10
5631.920591613344
 20
6433.669308514717
 30
0.0
 40
70.0
  1
150
 50
90.0
100
AcDbText
  0
LINE
  5
25B71
330
1F
100
AcDbEntity
  8
D-STR-DIM
  6
Continuous
100
AcDbLine
 10
5647.920591545695
 20
6595.528907830547
 30
0.0
 11
5647.920591545695
 21
6520.528908147568
 31
0.0
  0
CIRCLE
  5
25B72
330
1F
100
AcDbEntity
  8
D-STR-DIM
  6
Continuous
100
AcDbCircle
 10
5647.920591545695
 20
6445.52870846459
 30
0.0
 40
5.999997974638371
  0
LINE
  5
25B73
330
1F
100
AcDbEntity
  8
D-STR-DIM
  6
Continuous
100
AcDbLine
 10
5647.920591545695
 20
6445.52870846459
 30
0.0
 11
5647.920591545695
 21
6520.528908147568
 31
0.0
  0
CIRCLE
  5
25B74
330
1F
100
AcDbEntity
  8
D-STR-DIM
  6
Continuous
100
AcDbCircle
 10
5647.920591545695
 20
6595.528907830547
 30
0.0
 40
5.999997974638371
  0
CIRCLE
  5
25B7A
330
1F
100
AcDbEntity
  8
D-STR-DIM
  6
Continuous
100
AcDbCircle
 10
5497.920592179736
 20
8195.528899799363
 30
0.0
 40
5.999997974638371
  0
LINE
  5
25B7B
330
1F
100
AcDbEntity
  8
D-STR-DIM
  6
Continuous
100
AcDbLine
 10
7787.920422500064
 20
6519.529108151797
 30
0.0
 11
7787.920422500064
 21
5649.029111831348
 31
0.0
  0
LINE
  5
25B7C
330
1F
100
AcDbEntity
  8
D-STR-DIM
  6
Continuous
100
AcDbLine
 10
8037.920401443324
 20
6495.528508253244
 30
0.0
 11
8037.920401443324
 21
5645.529111846141
 31
0.0
  0
LINE
  5
25B7D
330
1F
100
AcDbEntity
  8
D-STR-DIM
  6
Continuous
100
AcDbLine
 10
8337.92040017524
 20
6595.528907830547
 30
0.0
 11
8337.92040017524
 21
5645.529111846141
 31
0.0
  0
LINE
  5
25B7E
330
1F
100
AcDbEntity
  8
D-STR
  6
Continuous
100
AcDbLine
 10
7317.920484486673
 20
4795.528515439041
 30
0.0
 11
7317.920484486673
 21
6495.528508253244
 31
0.0
  0
LINE
  5
25B7F
330
1F
100
AcDbEntity
  8
D-STR
  6
Continuous
100
AcDbLine
 10
6117.920389559039
 20
4795.528515439041
 30
0.0
 11
6117.920389559039
 21
6495.528508253244
 31
0.0
  0
LINE
  5
25B80
330
1F
100
AcDbEntity
  8
D-STR
  6
Continuous
100
AcDbLine
 10
7537.920383556786
 20
4495.529116707121
 30
0.0
 11
7537.920383556786
 21
6795.52890698516
 31
0.0
  0
LINE
  5
25B81
330
1F
100
AcDbEntity
  8
D-STR
  6
Continuous
100
AcDbLine
 10
5897.920390488966
 20
4495.529116707121
 30
0.0
 11
5897.920390488966
 21
6795.52890698516
 31
0.0
  0
LINE
  5
25B82
330
1F
100
AcDbEntity
  8
D-STR
  6
Continuous
100
AcDbLine
 10
7402.920364127415
 20
5670.529511740465
 30
0.0
 11
7402.920364127415
 21
5920.529110683732
 31
0.0
  0
LINE
  5
25B83
330
1F
100
AcDbEntity
  8
D-STR
  6
Continuous
100
AcDbLine
 10
7452.920483916037
 20
5670.529511740465
 30
0.0
 11
7452.920483916037
 21
5920.529110683732
 31
0.0
  0
LINE
  5
25B84
330
1F
100
AcDbEntity
  8
D-STR
  6
Continuous
100
AcDbLine
 10
6092.920589664707
 20
4695.529115861734
 30
0.0
 11
6092.920589664707
 21
6595.528907830547
 31
0.0
  0
LINE
  5
25B85
330
1F
100
AcDbEntity
  8
D-STR
  6
Continuous
100
AcDbLine
 10
7342.920464380994
 20
4695.529115861734
 30
0.0
 11
7342.920464380994
 21
6595.528907830547
 31
0.0
  0
LINE
  5
25B86
330
1F
100
AcDbEntity
  8
D-STR-DIM
  6
Continuous
100
AcDbLine
 10
7017.920445754743
 20
3195.529122202144
 30
0.0
 11
7277.920424655803
 21
3195.529122202144
 31
0.0
  0
LINE
  5
25B87
330
1F
100
AcDbEntity
  8
D-STR-DIM
  6
Continuous
100
AcDbLine
 10
7537.920383556786
 20
3795.52891966598
 30
0.0
 11
6717.920427022891
 21
3795.52891966598
 31
0.0
  0
LINE
  5
25B88
330
1F
100
AcDbEntity
  8
D-STR-HTXT
  6
Continuous
100
AcDbLine
 10
7283.525136964351
 20
4295.529317552508
 30
0.0
 11
6415.420388301526
 21
4295.529317552508
 31
0.0
  0
LINE
  5
25B89
330
1F
100
AcDbEntity
  8
D-STR
  6
Continuous
100
AcDbLine
 10
5897.920390488966
 20
4495.529116707121
 30
0.0
 11
7537.920383556786
 21
4495.529116707121
 31
0.0
  0
LINE
  5
25B8A
330
1F
100
AcDbEntity
  8
D-STR
  6
Continuous
100
AcDbLine
 10
6217.920389136347
 20
4695.529115861734
 30
0.0
 11
7217.920384909405
 21
4695.529115861734
 31
0.0
  0
LINE
  5
25B8B
330
1F
100
AcDbEntity
  8
D-STR-HTXT
  6
Continuous
100
AcDbLine
 10
6415.420388301526
 20
4295.529317552508
 30
0.0
 11
6680.420507181356
 21
4560.529716432369
 31
0.0
  0
LINE
  5
25B8C
330
1F
100
AcDbEntity
  8
D-BMK
  6
CENTER2
100
AcDbLine
 10
6717.920427022891
 20
4725.528715734926
 30
0.0
 11
6717.920427022891
 21
4465.528516833932
 31
0.0
  0
LINE
  5
25B8D
330
1F
100
AcDbEntity
  8
D-STR-STR2
  6
Continuous
100
AcDbLine
 10
6755.420466864322
 20
4625.529316157618
 30
0.0
 11
6755.420466864322
 21
4495.529116707121
 31
0.0
  0
LINE
  5
25B8E
330
1F
100
AcDbEntity
  8
D-STR-STR2
  6
Continuous
100
AcDbLine
 10
6680.420507181356
 20
4625.529316157618
 30
0.0
 11
6680.420507181356
 21
4495.529116707121
 31
0.0
  0
LINE
  5
25B8F
330
1F
100
AcDbEntity
  8
D-STR-DIM
  6
Continuous
100
AcDbLine
 10
6417.920588290951
 20
3195.529122202144
 30
0.0
 11
6717.920427022891
 21
3195.529122202144
 31
0.0
  0
LINE
  5
25B90
330
1F
100
AcDbEntity
  8
D-STR-DIM
  6
Continuous
100
AcDbLine
 10
5897.920390488966
 20
3795.52891966598
 30
0.0
 11
6717.920427022891
 21
3795.52891966598
 31
0.0
  0
TEXT
  5
25B91
330
1F
100
AcDbEntity
  8
D-STR-DIM
100
AcDbText
 10
6081.060589714823
 20
3211.528722134514
 30
0.0
 40
70.0
  1
520
100
AcDbText
  0
LINE
  5
25B92
330
1F
100
AcDbEntity
  8
D-STR-DIM
  6
Continuous
100
AcDbLine
 10
5897.920390488966
 20
3195.529122202144
 30
0.0
 11
6157.920589389956
 21
3195.529122202144
 31
0.0
  0
CIRCLE
  5
25B93
330
1F
100
AcDbEntity
  8
D-STR-DIM
  6
Continuous
100
AcDbCircle
 10
5897.920390488966
 20
3195.529122202144
 30
0.0
 40
5.999997974638371
  0
CIRCLE
  5
25B94
330
1F
100
AcDbEntity
  8
D-STR-DIM
  6
Continuous
100
AcDbCircle
 10
5897.920390488966
 20
3795.52891966598
 30
0.0
 40
5.999997974638371
  0
LINE
  5
25B95
330
1F
100
AcDbEntity
  8
D-STR-DIM
  6
Continuous
100
AcDbLine
 10
6417.920588290951
 20
3195.529122202144
 30
0.0
 11
6157.920589389956
 21
3195.529122202144
 31
0.0
  0
CIRCLE
  5
25B96
330
1F
100
AcDbEntity
  8
D-STR-DIM
  6
Continuous
100
AcDbCircle
 10
6417.920588290951
 20
3195.529122202144
 30
0.0
 40
5.999997974638371
  0
TEXT
  5
25B97
330
1F
100
AcDbEntity
  8
D-STR-DIM
100
AcDbText
 10
6599.060587525298
 20
3811.52851959835
 30
0.0
 40
70.0
  1
1640
100
AcDbText
  0
TEXT
  5
25B98
330
1F
100
AcDbEntity
  8
D-STR-DIM
100
AcDbText
 10
6631.060587390006
 20
3211.528722134514
 30
0.0
 40
70.0
  1
600
100
AcDbText
  0
LINE
  5
25B99
330
1F
100
AcDbEntity
  8
D-STR-DIM
  6
Continuous
100
AcDbLine
 10
7017.920445754743
 20
3195.529122202144
 30
0.0
 11
6717.920427022891
 21
3195.529122202144
 31
0.0
  0
CIRCLE
  5
25B9A
330
1F
100
AcDbEntity
  8
D-STR-DIM
  6
Continuous
100
AcDbCircle
 10
7017.920445754743
 20
3195.529122202144
 30
0.0
 40
5.999997974638371
  0
TEXT
  5
25B9B
330
1F
100
AcDbEntity
  8
D-STR-HTXT
100
AcDbText
 10
6392.560588398148
 20
4215.528917890664
 30
0.0
 40
70.0
  1
　ピットバルブ　φ75
100
AcDbText
  0
TEXT
  5
25B9C
330
1F
100
AcDbEntity
  8
D-STR-HTXT
100
AcDbText
 10
6552.560587721837
 20
4311.528917484878
 30
0.0
 40
70.0
  1
　排水ピット
100
AcDbText
  0
LINE
  5
25B9D
330
1F
100
AcDbEntity
  8
D-STR-STR2
  6
Continuous
100
AcDbLine
 10
6367.9205885023
 20
4611.528316216799
 30
0.0
 11
6467.920588079607
 21
4611.528316216799
 31
0.0
  0
LINE
  5
25B9E
330
1F
100
AcDbEntity
  8
D-STR-DIM
  6
Continuous
100
AcDbLine
 10
6117.920389559039
 20
5095.528914170956
 30
0.0
 11
6105.420589611873
 21
5095.528914170956
 31
0.0
  0
LINE
  5
25B9F
330
1F
100
AcDbEntity
  8
D-STR-DIM
  6
Continuous
100
AcDbLine
 10
6105.420589611873
 20
5095.528914170956
 30
0.0
 11
6247.290789012172
 21
5095.528914170956
 31
0.0
  0
LINE
  5
25BA0
330
1F
100
AcDbEntity
  8
D-STR
  6
Continuous
100
AcDbLine
 10
6092.921789664673
 20
4695.528115861738
 30
0.0
 11
6217.921589136313
 21
4695.528115861738
 31
0.0
  0
LINE
  5
25BA1
330
1F
100
AcDbEntity
  8
D-STR-STR2
  6
Continuous
100
AcDbLine
 10
6012.92039000287
 20
4835.528715269962
 30
0.0
 11
6092.920589664707
 21
4835.528715269962
 31
0.0
  0
LINE
  5
25BA2
330
1F
100
AcDbEntity
  8
D-STR-STR2
  6
Continuous
100
AcDbLine
 10
6012.92039000287
 20
4835.528715269962
 30
0.0
 11
6012.92039000287
 21
4855.528915185423
 31
0.0
  0
LINE
  5
25BA3
330
1F
100
AcDbEntity
  8
D-STR-STR2
  6
Continuous
100
AcDbLine
 10
6012.92039000287
 20
4855.528915185423
 30
0.0
 11
6092.920589664707
 21
4855.528915185423
 31
0.0
  0
CIRCLE
  5
25BA4
330
1F
100
AcDbEntity
  8
D-STR-DIM
  6
Continuous
100
AcDbCircle
 10
6092.920589664707
 20
5095.528914170956
 30
0.0
 40
5.999997974638371
  0
LINE
  5
25BA5
330
1F
100
AcDbEntity
  8
D-STR-DIM
  6
Continuous
100
AcDbLine
 10
6092.920589664707
 20
5095.528914170956
 30
0.0
 11
6105.420589611873
 21
5095.528914170956
 31
0.0
  0
LINE
  5
25BA6
330
1F
100
AcDbEntity
  8
D-STR
  6
Continuous
100
AcDbLine
 10
6217.920389136347
 20
4695.529115861734
 30
0.0
 11
6117.921789558997
 21
4795.528515439041
 31
0.0
  0
LINE
  5
25BA7
330
1F
100
AcDbEntity
  8
D-BMK
  6
CENTER2
100
AcDbLine
 10
6417.920588290951
 20
4725.528715734926
 30
0.0
 11
6417.920588290951
 21
4581.528716343607
 31
0.0
  0
LINE
  5
25BA8
330
1F
100
AcDbEntity
  8
D-STR-STR2
  6
Continuous
100
AcDbLine
 10
6367.9205885023
 20
4695.529115861734
 30
0.0
 11
6367.9205885023
 21
4611.528316216799
 31
0.0
  0
TEXT
  5
25BA9
330
1F
100
AcDbEntity
  8
D-STR-DIM
100
AcDbText
 10
6137.570989475928
 20
5111.528714103329
 30
0.0
 40
70.0
  1
25
100
AcDbText
  0
CIRCLE
  5
25BAA
330
1F
100
AcDbEntity
  8
D-STR-DIM
  6
Continuous
100
AcDbCircle
 10
6117.920389559039
 20
5095.528914170956
 30
0.0
 40
5.999997974638371
  0
TEXT
  5
25BAB
330
1F
100
AcDbEntity
  8
D-STR-DIM
100
AcDbText
 10
6789.4204067206
 20
4735.73351569179
 30
0.0
 40
70.0
  1
70
 50
90.0
100
AcDbText
  0
TEXT
  5
25BAC
330
1F
100
AcDbEntity
  8
D-STR-DIM
100
AcDbText
 10
6599.060587525298
 20
5111.528714103329
 30
0.0
 40
70.0
  1
φ300
100
AcDbText
  0
LINE
  5
25BAD
330
1F
100
AcDbEntity
  8
D-STR-DIM
  6
Continuous
100
AcDbLine
 10
6867.920506388803
 20
5095.528914170956
 30
0.0
 11
6717.920427022891
 21
5095.528914170956
 31
0.0
  0
LINE
  5
25BAE
330
1F
100
AcDbEntity
  8
D-STR-STR2
  6
Continuous
100
AcDbLine
 10
6567.92058765691
 20
4625.529316157618
 30
0.0
 11
6867.920506388803
 21
4625.529316157618
 31
0.0
  0
LINE
  5
25BAF
330
1F
100
AcDbEntity
  8
D-STR-DIM
  6
Continuous
100
AcDbLine
 10
6567.92058765691
 20
4715.529115861733
 30
0.0
 11
6567.92058765691
 21
5125.52871404415
 31
0.0
  0
LINE
  5
25BB0
330
1F
100
AcDbEntity
  8
D-STR-DIM
  6
Continuous
100
AcDbLine
 10
6547.920387741455
 20
4715.529115861733
 30
0.0
 11
6547.920387741455
 21
5125.52871404415
 31
0.0
  0
LINE
  5
25BB1
330
1F
100
AcDbEntity
  8
D-STR-STR2
  6
Continuous
100
AcDbLine
 10
6547.921787741415
 20
4695.529115861734
 30
0.0
 11
6567.921587656882
 21
4625.529316157618
 31
0.0
  0
LINE
  5
25BB2
330
1F
100
AcDbEntity
  8
D-STR-STR2
  6
Continuous
100
AcDbLine
 10
6467.920588079607
 20
4611.528316216799
 30
0.0
 11
6467.920588079607
 21
4695.529115861734
 31
0.0
  0
LINE
  5
25BB3
330
1F
100
AcDbEntity
  8
D-STR-HTXT
  6
Continuous
100
AcDbLine
 10
6647.148907321986
 20
4537.231716530848
 30
0.0
 11
6680.420507181356
 21
4560.528716432371
 31
0.0
  0
LINE
  5
25BB4
330
1F
100
AcDbEntity
  8
D-STR-DIM
  6
Continuous
100
AcDbLine
 10
6567.92058765691
 20
5095.528914170956
 30
0.0
 11
6717.920427022891
 21
5095.528914170956
 31
0.0
  0
TEXT
  5
25BB5
330
1F
100
AcDbEntity
  8
D-STR-DIM
100
AcDbText
 10
6503.060387931033
 20
4999.208914578098
 30
0.0
 40
70.0
  1
20
100
AcDbText
  0
CIRCLE
  5
25BB6
330
1F
100
AcDbEntity
  8
D-STR-DIM
  6
Continuous
100
AcDbCircle
 10
6567.92058765691
 20
5095.528914170956
 30
0.0
 40
5.999997974638371
  0
CIRCLE
  5
25BB7
330
1F
100
AcDbEntity
  8
D-STR-DIM
  6
Continuous
100
AcDbCircle
 10
6547.920387741455
 20
5095.528914170956
 30
0.0
 40
5.999997974638371
  0
LINE
  5
25BB8
330
1F
100
AcDbEntity
  8
D-STR-DIM
  6
Continuous
100
AcDbLine
 10
6567.92058765691
 20
5095.528914170956
 30
0.0
 11
6557.920587699181
 21
5095.528914170956
 31
0.0
  0
LINE
  5
25BB9
330
1F
100
AcDbEntity
  8
D-STR-DIM
  6
Continuous
100
AcDbLine
 10
6547.920387741455
 20
5095.528914170956
 30
0.0
 11
6557.920587699181
 21
5095.528914170956
 31
0.0
  0
LINE
  5
25BBA
330
1F
100
AcDbEntity
  8
D-STR-DIM
  6
Continuous
100
AcDbLine
 10
6887.921086304311
 20
4715.529115861733
 30
0.0
 11
6887.921086304311
 21
5125.52871404415
 31
0.0
  0
LINE
  5
25BBB
330
1F
100
AcDbEntity
  8
D-STR-DIM
  6
Continuous
100
AcDbLine
 10
6867.920506388803
 20
4715.529115861733
 30
0.0
 11
6867.920506388803
 21
5125.52871404415
 31
0.0
  0
CIRCLE
  5
25BBC
330
1F
100
AcDbEntity
  8
D-STR-DIM
  6
Continuous
100
AcDbCircle
 10
6805.420466652972
 20
4695.529115861734
 30
0.0
 40
5.999997974638371
  0
CIRCLE
  5
25BBD
330
1F
100
AcDbEntity
  8
D-STR-DIM
  6
Continuous
100
AcDbCircle
 10
6805.420466652972
 20
4625.529316157618
 30
0.0
 40
5.999997974638371
  0
LINE
  5
25BBE
330
1F
100
AcDbEntity
  8
D-STR-DIM
  6
Continuous
100
AcDbLine
 10
6805.420466652972
 20
4695.529115861734
 30
0.0
 11
6805.420466652972
 21
4660.529116009676
 31
0.0
  0
LINE
  5
25BBF
330
1F
100
AcDbEntity
  8
D-STR-DIM
  6
Continuous
100
AcDbLine
 10
6805.420466652972
 20
4660.529116009676
 30
0.0
 11
6805.420466652972
 21
4845.452915228014
 31
0.0
  0
LINE
  5
25BC0
330
1F
100
AcDbEntity
  8
D-STR-DIM
  6
Continuous
100
AcDbLine
 10
6805.420466652972
 20
4625.529316157618
 30
0.0
 11
6805.420466652972
 21
4660.529116009676
 31
0.0
  0
LINE
  5
25BC1
330
1F
100
AcDbEntity
  8
D-STR-STR2
  6
Continuous
100
AcDbLine
 10
6867.920986388817
 20
4625.528316157622
 30
0.0
 11
6887.921086304311
 21
4695.528115861738
 31
0.0
  0
LINE
  5
25BC2
330
1F
100
AcDbEntity
  8
D-BMK
  6
CENTER2
100
AcDbLine
 10
7017.920445754743
 20
4725.528715734926
 30
0.0
 11
7017.920445754743
 21
4581.528716343607
 31
0.0
  0
LINE
  5
25BC3
330
1F
100
AcDbEntity
  8
D-STR-STR2
  6
Continuous
100
AcDbLine
 10
6967.920465966097
 20
4695.529115861734
 30
0.0
 11
6967.920465966097
 21
4611.528316216799
 31
0.0
  0
LINE
  5
25BC4
330
1F
100
AcDbEntity
  8
D-STR-STR2
  6
Continuous
100
AcDbLine
 10
7067.92042554346
 20
4611.528316216799
 30
0.0
 11
7067.92042554346
 21
4695.529115861734
 31
0.0
  0
LINE
  5
25BC5
330
1F
100
AcDbEntity
  8
D-STR-STR2
  6
Continuous
100
AcDbLine
 10
6967.920465966097
 20
4611.528316216799
 30
0.0
 11
7067.92042554346
 21
4611.528316216799
 31
0.0
  0
TEXT
  5
25BC6
330
1F
100
AcDbEntity
  8
D-STR-DIM
100
AcDbText
 10
6823.060386578415
 20
4999.208914578098
 30
0.0
 40
70.0
  1
20
100
AcDbText
  0
CIRCLE
  5
25BC7
330
1F
100
AcDbEntity
  8
D-STR-DIM
  6
Continuous
100
AcDbCircle
 10
6887.921086304311
 20
5095.528914170956
 30
0.0
 40
5.999997974638371
  0
CIRCLE
  5
25BC8
330
1F
100
AcDbEntity
  8
D-STR-DIM
  6
Continuous
100
AcDbCircle
 10
6867.920506388803
 20
5095.528914170956
 30
0.0
 40
5.999997974638371
  0
LINE
  5
25BC9
330
1F
100
AcDbEntity
  8
D-STR-DIM
  6
Continuous
100
AcDbLine
 10
6887.921086304311
 20
5095.528914170956
 30
0.0
 11
6877.920786346556
 21
5095.528914170956
 31
0.0
  0
LINE
  5
25BCA
330
1F
100
AcDbEntity
  8
D-STR-DIM
  6
Continuous
100
AcDbLine
 10
6867.920506388803
 20
5095.528914170956
 30
0.0
 11
6877.920786346556
 21
5095.528914170956
 31
0.0
  0
TEXT
  5
25BCB
330
1F
100
AcDbEntity
  8
D-STR-DIM
100
AcDbText
 10
8321.920400242815
 20
4508.668916651579
 30
0.0
 40
70.0
  1
200
 50
90.0
100
AcDbText
  0
LINE
  5
25BCC
330
1F
100
AcDbEntity
  8
D-STR-DIM
  6
Continuous
100
AcDbLine
 10
8337.92040017524
 20
4495.529116707121
 30
0.0
 11
8337.92040017524
 21
4595.528716284428
 31
0.0
  0
LINE
  5
25BCD
330
1F
100
AcDbEntity
  8
D-STR-DIM
  6
Continuous
100
AcDbLine
 10
7537.920383556786
 20
3195.529122202144
 30
0.0
 11
7277.920424655803
 21
3195.529122202144
 31
0.0
  0
TEXT
  5
25BCE
330
1F
100
AcDbEntity
  8
D-STR-DIM
100
AcDbText
 10
7181.060485065159
 20
3211.528722134514
 30
0.0
 40
70.0
  1
520
100
AcDbText
  0
CIRCLE
  5
25BCF
330
1F
100
AcDbEntity
  8
D-STR-DIM
  6
Continuous
100
AcDbCircle
 10
7537.920383556786
 20
3195.529122202144
 30
0.0
 40
5.999997974638371
  0
CIRCLE
  5
25BD0
330
1F
100
AcDbEntity
  8
D-STR-DIM
  6
Continuous
100
AcDbCircle
 10
7537.920383556786
 20
3795.52891966598
 30
0.0
 40
5.999997974638371
  0
CIRCLE
  5
25BD1
330
1F
100
AcDbEntity
  8
D-STR-DIM
  6
Continuous
100
AcDbCircle
 10
8337.92040017524
 20
4495.529116707121
 30
0.0
 40
5.999997974638371
  0
TEXT
  5
25BD2
330
1F
100
AcDbEntity
  8
D-STR-DIM
100
AcDbText
 10
7771.920442567644
 20
5530.169112333759
 30
0.0
 40
70.0
  1
1741
 50
90.0
100
AcDbText
  0
TEXT
  5
25BD3
330
1F
100
AcDbEntity
  8
D-STR-DIM
100
AcDbText
 10
7771.920442567644
 20
4639.246916099634
 30
0.0
 40
70.0
  1
83
 50
90.0
100
AcDbText
  0
LINE
  5
25BD4
330
1F
100
AcDbEntity
  8
D-STR-DIM
  6
Continuous
100
AcDbLine
 10
7557.920383556787
 20
4778.529115510897
 30
0.0
 11
7817.92044237319
 21
4778.529115510897
 31
0.0
  0
LINE
  5
25BD5
330
1F
100
AcDbEntity
  8
D-STR-DIM
  6
Continuous
100
AcDbLine
 10
7557.920383556787
 20
4695.529115861734
 30
0.0
 11
8367.920400048431
 21
4695.529115861734
 31
0.0
  0
LINE
  5
25BD6
330
1F
100
AcDbEntity
  8
D-STR-DIM
  6
Continuous
100
AcDbLine
 10
7567.920403429984
 20
4795.529515439037
 30
0.0
 11
7757.920402626867
 21
4795.529515439037
 31
0.0
  0
LINE
  5
25BD7
330
1F
100
AcDbEntity
  8
D-STR
  6
Continuous
100
AcDbLine
 10
7342.919224381017
 20
4695.528115861738
 30
0.0
 11
7217.919264909396
 21
4695.528115861738
 31
0.0
  0
LINE
  5
25BD8
330
1F
100
AcDbEntity
  8
D-STR
  6
Continuous
100
AcDbLine
 10
7317.920484486673
 20
4795.529515439037
 30
0.0
 11
7217.920384909405
 21
4695.530115861729
 31
0.0
  0
LINE
  5
25BD9
330
1F
100
AcDbEntity
  8
D-STR-STR2
  6
Continuous
100
AcDbLine
 10
7422.920464042836
 20
4768.535515553138
 30
0.0
 11
7342.920464380994
 21
4768.535515553138
 31
0.0
  0
LINE
  5
25BDA
330
1F
100
AcDbEntity
  8
D-STR-STR2
  6
Continuous
100
AcDbLine
 10
7422.920464042836
 20
4768.535515553138
 30
0.0
 11
7422.920464042836
 21
4788.5355154686
 31
0.0
  0
LINE
  5
25BDB
330
1F
100
AcDbEntity
  8
D-STR-STR2
  6
Continuous
100
AcDbLine
 10
7422.920464042836
 20
4788.5355154686
 30
0.0
 11
7342.920464380994
 21
4788.534515468604
 31
0.0
  0
TEXT
  5
25BDC
330
1F
100
AcDbEntity
  8
D-STR-DIM
100
AcDbText
 10
7188.54998503351
 20
5111.528714103329
 30
0.0
 40
70.0
  1
25
100
AcDbText
  0
LINE
  5
25BDD
330
1F
100
AcDbEntity
  8
D-STR-DIM
  6
Continuous
100
AcDbLine
 10
7330.420404433884
 20
5095.528914170956
 30
0.0
 11
7188.550245033527
 21
5095.528914170956
 31
0.0
  0
CIRCLE
  5
25BDE
330
1F
100
AcDbEntity
  8
D-STR-DIM
  6
Continuous
100
AcDbCircle
 10
7317.920484486673
 20
5095.528914170956
 30
0.0
 40
5.999997974638371
  0
CIRCLE
  5
25BDF
330
1F
100
AcDbEntity
  8
D-STR-DIM
  6
Continuous
100
AcDbCircle
 10
7342.920464380994
 20
5095.528914170956
 30
0.0
 40
5.999997974638371
  0
LINE
  5
25BE0
330
1F
100
AcDbEntity
  8
D-STR-DIM
  6
Continuous
100
AcDbLine
 10
7317.920484486673
 20
5095.528914170956
 30
0.0
 11
7330.420404433884
 21
5095.528914170956
 31
0.0
  0
LINE
  5
25BE1
330
1F
100
AcDbEntity
  8
D-STR-DIM
  6
Continuous
100
AcDbLine
 10
7342.920464380994
 20
5095.528914170956
 30
0.0
 11
7330.420404433884
 21
5095.528914170956
 31
0.0
  0
LINE
  5
25BE2
330
1F
100
AcDbEntity
  8
D-STR
  6
Continuous
100
AcDbLine
 10
7317.92096448669
 20
5660.528911782736
 30
0.0
 11
7402.920364127415
 21
5670.529511740465
 31
0.0
  0
LINE
  5
25BE3
330
1F
100
AcDbEntity
  8
D-STR
  6
Continuous
100
AcDbLine
 10
7452.920983916057
 20
5670.529511740465
 30
0.0
 11
7537.919763556797
 21
5660.528911782736
 31
0.0
  0
LINE
  5
25BE4
330
1F
100
AcDbEntity
  8
D-STR-DIM
  6
Continuous
100
AcDbLine
 10
7787.920422500064
 20
4778.529115510897
 30
0.0
 11
7787.920422500064
 21
5649.029111831348
 31
0.0
  0
LINE
  5
25BE5
330
1F
100
AcDbEntity
  8
D-STR-DIM
  6
Continuous
100
AcDbLine
 10
8037.920401443324
 20
4795.529515439037
 30
0.0
 11
8037.920401443324
 21
5645.529111846141
 31
0.0
  0
LINE
  5
25BE6
330
1F
100
AcDbEntity
  8
D-STR-DIM
  6
Continuous
100
AcDbLine
 10
8337.92040017524
 20
4695.529115861734
 30
0.0
 11
8337.92040017524
 21
5645.529111846141
 31
0.0
  0
LINE
  5
25BE7
330
1F
100
AcDbEntity
  8
D-STR-DIM
  6
Continuous
100
AcDbLine
 10
7807.920422500065
 20
4795.529515439037
 30
0.0
 11
8067.920421316522
 21
4795.529515439037
 31
0.0
  0
CIRCLE
  5
25BE8
330
1F
100
AcDbEntity
  8
D-STR-DIM
  6
Continuous
100
AcDbCircle
 10
7787.920422500064
 20
4778.529115510897
 30
0.0
 40
5.999997974638371
  0
CIRCLE
  5
25BE9
330
1F
100
AcDbEntity
  8
D-STR-DIM
  6
Continuous
100
AcDbCircle
 10
7787.920422500064
 20
4695.529115861734
 30
0.0
 40
5.999997974638371
  0
LINE
  5
25BEA
330
1F
100
AcDbEntity
  8
D-STR-DIM
  6
Continuous
100
AcDbLine
 10
7787.920422500064
 20
4778.529115510897
 30
0.0
 11
7787.920422500064
 21
4737.028515686315
 31
0.0
  0
LINE
  5
25BEB
330
1F
100
AcDbEntity
  8
D-STR-DIM
  6
Continuous
100
AcDbLine
 10
7787.920422500064
 20
4737.028515686315
 30
0.0
 11
7787.920422500064
 21
4639.246916099634
 31
0.0
  0
LINE
  5
25BEC
330
1F
100
AcDbEntity
  8
D-STR-DIM
  6
Continuous
100
AcDbLine
 10
7787.920422500064
 20
4695.529115861734
 30
0.0
 11
7787.920422500064
 21
4737.028515686315
 31
0.0
  0
TEXT
  5
25BED
330
1F
100
AcDbEntity
  8
D-STR-DIM
100
AcDbText
 10
8021.920421510902
 20
4641.814316088782
 30
0.0
 40
70.0
  1
100
 50
90.0
100
AcDbText
  0
CIRCLE
  5
25BEE
330
1F
100
AcDbEntity
  8
D-STR-DIM
  6
Continuous
100
AcDbCircle
 10
8037.920401443324
 20
4795.529515439037
 30
0.0
 40
5.999997974638371
  0
CIRCLE
  5
25BEF
330
1F
100
AcDbEntity
  8
D-STR-DIM
  6
Continuous
100
AcDbCircle
 10
8037.920401443324
 20
4695.529115861734
 30
0.0
 40
5.999997974638371
  0
LINE
  5
25BF0
330
1F
100
AcDbEntity
  8
D-STR-DIM
  6
Continuous
100
AcDbLine
 10
8037.920401443324
 20
4795.529515439037
 30
0.0
 11
8037.920401443324
 21
4745.529915650383
 31
0.0
  0
LINE
  5
25BF1
330
1F
100
AcDbEntity
  8
D-STR-DIM
  6
Continuous
100
AcDbLine
 10
8037.920401443324
 20
4695.529115861734
 30
0.0
 11
8037.920401443324
 21
4745.529915650383
 31
0.0
  0
CIRCLE
  5
25BF2
330
1F
100
AcDbEntity
  8
D-STR-DIM
  6
Continuous
100
AcDbCircle
 10
8337.92040017524
 20
4695.529115861734
 30
0.0
 40
5.999997974638371
  0
LINE
  5
25BF3
330
1F
100
AcDbEntity
  8
D-STR-DIM
  6
Continuous
100
AcDbLine
 10
8337.92040017524
 20
4695.529115861734
 30
0.0
 11
8337.92040017524
 21
4595.528716284428
 31
0.0
  0
TEXT
  5
25BF4
330
1F
100
AcDbEntity
  8
D-STR-DIM
100
AcDbText
 10
8021.920421510902
 20
5526.669112348555
 30
0.0
 40
70.0
  1
1700
 50
90.0
100
AcDbText
  0
TEXT
  5
25BF5
330
1F
100
AcDbEntity
  8
D-STR-DIM
100
AcDbText
 10
8321.920400242815
 20
5526.669112348555
 30
0.0
 40
70.0
  1
1900
 50
90.00001500002756
100
AcDbText
  0
LINE
  5
25BF6
330
1F
100
AcDbEntity
  8
D-STR-DIM
  6
Continuous
100
AcDbLine
 10
7217.919884909385
 20
7195.528705294385
 30
0.0
 11
6717.920047022835
 21
7195.528705294385
 31
0.0
  0
LINE
  5
25BF7
330
1F
100
AcDbEntity
  8
D-STR-DIM
  6
Continuous
100
AcDbLine
 10
7317.920484486673
 20
7495.529104026303
 30
0.0
 11
6717.920427022891
 21
7495.529104026303
 31
0.0
  0
LINE
  5
25BF8
330
1F
100
AcDbEntity
  8
D-STR
  6
Continuous
100
AcDbLine
 10
6217.920389136347
 20
6595.528907830547
 30
0.0
 11
7217.920384909405
 21
6595.528907830547
 31
0.0
  0
LINE
  5
25BF9
330
1F
100
AcDbEntity
  8
D-STR
  6
Continuous
100
AcDbLine
 10
5897.920390488966
 20
6795.52890698516
 30
0.0
 11
7537.920383556786
 21
6795.52890698516
 31
0.0
  0
LINE
  5
25BFA
330
1F
100
AcDbEntity
  8
D-STR
  6
Continuous
100
AcDbLine
 10
5897.920390488966
 20
8195.528899799363
 30
0.0
 11
7537.920383556786
 21
8195.528899799363
 31
0.0
  0
TEXT
  5
25BFB
330
1F
100
AcDbEntity
  8
D-STR-DIM
100
AcDbText
 10
6599.060587525298
 20
7211.528505226755
 30
0.0
 40
70.0
  1
1000
100
AcDbText
  0
TEXT
  5
25BFC
330
1F
100
AcDbEntity
  8
D-STR-DIM
100
AcDbText
 10
6066.175389777753
 20
7211.528505226755
 30
0.0
 40
70.0
  1
100
100
AcDbText
  0
LINE
  5
25BFD
330
1F
100
AcDbEntity
  8
D-STR-DIM
  6
Continuous
100
AcDbLine
 10
6117.920389559039
 20
6815.528906985159
 30
0.0
 11
6117.920389559039
 21
7525.528903899493
 31
0.0
  0
LINE
  5
25BFE
330
1F
100
AcDbEntity
  8
D-STR-DIM
  6
Continuous
100
AcDbLine
 10
5897.920390488966
 20
8165.529299926168
 30
0.0
 11
5897.920390488966
 21
6825.528506858353
 31
0.0
  0
LINE
  5
25BFF
330
1F
100
AcDbEntity
  8
D-STR-DIM
  6
Continuous
100
AcDbLine
 10
6217.920389136347
 20
7195.528705294385
 30
0.0
 11
6717.920047022835
 21
7195.528705294385
 31
0.0
  0
LINE
  5
25C00
330
1F
100
AcDbEntity
  8
D-STR
  6
Continuous
100
AcDbLine
 10
6117.920389559039
 20
6495.529508253238
 30
0.0
 11
6217.920389136347
 21
6595.529907830545
 31
0.0
  0
LINE
  5
25C01
330
1F
100
AcDbEntity
  8
D-BMK
  6
CENTER2
100
AcDbLine
 10
6147.920589432226
 20
6295.528509098631
 30
0.0
 11
6003.920190040902
 21
6295.528509098631
 31
0.0
  0
LINE
  5
25C02
330
1F
100
AcDbEntity
  8
D-STR-STR2
  6
Continuous
100
AcDbLine
 10
6033.920389914088
 20
6245.528909309976
 30
0.0
 11
6117.920389559039
 21
6245.528909309976
 31
0.0
  0
LINE
  5
25C03
330
1F
100
AcDbEntity
  8
D-STR-STR2
  6
Continuous
100
AcDbLine
 10
6117.920389559039
 20
6345.529308887281
 30
0.0
 11
6033.920389914088
 21
6345.529308887281
 31
0.0
  0
LINE
  5
25C04
330
1F
100
AcDbEntity
  8
D-STR-STR2
  6
Continuous
100
AcDbLine
 10
6012.92039000287
 20
6435.529308506857
 30
0.0
 11
6092.920589664707
 21
6435.529308506857
 31
0.0
  0
LINE
  5
25C05
330
1F
100
AcDbEntity
  8
D-STR-STR2
  6
Continuous
100
AcDbLine
 10
6012.92039000287
 20
6435.529308506857
 30
0.0
 11
6012.92039000287
 21
6455.529308422318
 31
0.0
  0
LINE
  5
25C06
330
1F
100
AcDbEntity
  8
D-STR-STR2
  6
Continuous
100
AcDbLine
 10
6012.92039000287
 20
6455.529308422318
 30
0.0
 11
6092.920589664707
 21
6455.529308422318
 31
0.0
  0
LINE
  5
25C07
330
1F
100
AcDbEntity
  8
D-STR-STR2
  6
Continuous
100
AcDbLine
 10
6033.920389914088
 20
6345.529308887281
 30
0.0
 11
6033.920389914088
 21
6245.528909309976
 31
0.0
  0
LINE
  5
25C08
330
1F
100
AcDbEntity
  8
D-STR
  6
Continuous
100
AcDbLine
 10
6092.919389664672
 20
6595.528907830547
 30
0.0
 11
6217.920389136347
 21
6595.528907830547
 31
0.0
  0
LINE
  5
25C09
330
1F
100
AcDbEntity
  8
D-STR-DIM
  6
Continuous
100
AcDbLine
 10
6217.920389136347
 20
6815.528906985159
 30
0.0
 11
6217.920389136347
 21
7225.528505167578
 31
0.0
  0
CIRCLE
  5
25C0A
330
1F
100
AcDbEntity
  8
D-STR-DIM
  6
Continuous
100
AcDbCircle
 10
6217.920389136347
 20
7195.528705294385
 30
0.0
 40
5.999997974638371
  0
CIRCLE
  5
25C0B
330
1F
100
AcDbEntity
  8
D-STR-DIM
  6
Continuous
100
AcDbCircle
 10
6117.920389559039
 20
7195.528705294385
 30
0.0
 40
5.999997974638371
  0
LINE
  5
25C0C
330
1F
100
AcDbEntity
  8
D-STR-DIM
  6
Continuous
100
AcDbLine
 10
6217.920389136347
 20
7195.528705294385
 30
0.0
 11
6167.920389347695
 21
7195.528705294385
 31
0.0
  0
LINE
  5
25C0D
330
1F
100
AcDbEntity
  8
D-STR-DIM
  6
Continuous
100
AcDbLine
 10
6117.920389559039
 20
7195.528705294385
 30
0.0
 11
6167.920389347695
 21
7195.528705294385
 31
0.0
  0
LINE
  5
25C0E
330
1F
100
AcDbEntity
  8
D-STR-DIM
  6
Continuous
100
AcDbLine
 10
6117.920389559039
 20
7495.529104026303
 30
0.0
 11
6717.920427022891
 21
7495.529104026303
 31
0.0
  0
LINE
  5
25C0F
330
1F
100
AcDbEntity
  8
D-STR-DIM
  6
Continuous
100
AcDbLine
 10
6117.920389559039
 20
7495.529104026303
 30
0.0
 11
6007.920390024003
 21
7495.529104026303
 31
0.0
  0
TEXT
  5
25C10
330
1F
100
AcDbEntity
  8
D-STR-DIM
100
AcDbText
 10
5931.060590348865
 20
7511.528903958671
 30
0.0
 40
70.0
  1
220
100
AcDbText
  0
LINE
  5
25C11
330
1F
100
AcDbEntity
  8
D-STR-DIM
  6
Continuous
100
AcDbLine
 10
5897.920390488966
 20
7495.529104026303
 30
0.0
 11
6007.920390024003
 21
7495.529104026303
 31
0.0
  0
CIRCLE
  5
25C12
330
1F
100
AcDbEntity
  8
D-STR-DIM
  6
Continuous
100
AcDbCircle
 10
5897.920390488966
 20
7495.529104026303
 30
0.0
 40
5.999997974638371
  0
CIRCLE
  5
25C13
330
1F
100
AcDbEntity
  8
D-STR-DIM
  6
Continuous
100
AcDbCircle
 10
6117.920389559039
 20
7495.529104026303
 30
0.0
 40
5.999997974638371
  0
TEXT
  5
25C14
330
1F
100
AcDbEntity
  8
D-STR-DIM
100
AcDbText
 10
6599.060587525298
 20
7511.528903958671
 30
0.0
 40
70.0
  1
1200
100
AcDbText
  0
TEXT
  5
25C15
330
1F
100
AcDbEntity
  8
D-STR-DIM
100
AcDbText
 10
7164.089065136924
 20
7211.528505226755
 30
0.0
 40
70.0
  1
100
100
AcDbText
  0
LINE
  5
25C16
330
1F
100
AcDbEntity
  8
D-STR-DIM
  6
Continuous
100
AcDbLine
 10
7317.920484486673
 20
6815.528906985159
 30
0.0
 11
7317.920484486673
 21
7525.528903899493
 31
0.0
  0
LINE
  5
25C17
330
1F
100
AcDbEntity
  8
D-STR-DIM
  6
Continuous
100
AcDbLine
 10
7537.920383556786
 20
8165.529299926168
 30
0.0
 11
7537.920383556786
 21
6825.528506858353
 31
0.0
  0
TEXT
  5
25C18
330
1F
100
AcDbEntity
  8
D-STR-DIM
100
AcDbText
 10
7771.920442567644
 20
6544.846508044777
 30
0.0
 40
70.0
  1
76
 50
90.0
100
AcDbText
  0
LINE
  5
25C19
330
1F
100
AcDbEntity
  8
D-STR-DIM
  6
Continuous
100
AcDbLine
 10
7557.920383556787
 20
6519.529108151797
 30
0.0
 11
7817.92044237319
 21
6519.529108151797
 31
0.0
  0
LINE
  5
25C1A
330
1F
100
AcDbEntity
  8
D-STR-DIM
  6
Continuous
100
AcDbLine
 10
7557.920383556787
 20
6595.528907830547
 30
0.0
 11
8367.920400048431
 21
6595.528907830547
 31
0.0
  0
LINE
  5
25C1B
330
1F
100
AcDbEntity
  8
D-STR-DIM
  6
Continuous
100
AcDbLine
 10
7567.920403429984
 20
6495.528508253244
 30
0.0
 11
7757.920402626867
 21
6495.528508253244
 31
0.0
  0
LINE
  5
25C1C
330
1F
100
AcDbEntity
  8
D-STR
  6
Continuous
100
AcDbLine
 10
7217.920384909405
 20
6595.528907830547
 30
0.0
 11
7317.920484486673
 21
6495.529508253238
 31
0.0
  0
TEXT
  5
25C1D
330
1F
100
AcDbEntity
  8
D-STR-DIM
100
AcDbText
 10
7373.060444253614
 20
5944.208510583639
 30
0.0
 40
70.0
  1
50
100
AcDbText
  0
LINE
  5
25C1E
330
1F
100
AcDbEntity
  8
D-STR-DIM
  6
Continuous
100
AcDbLine
 10
7402.920364127415
 20
6040.528710176499
 30
0.0
 11
7427.920364021741
 21
6040.528710176499
 31
0.0
  0
LINE
  5
25C1F
330
1F
100
AcDbEntity
  8
D-BMK
  6
CENTER2
100
AcDbLine
 10
7287.920464613475
 20
6295.528509098631
 30
0.0
 11
7431.920664004803
 21
6295.528509098631
 31
0.0
  0
LINE
  5
25C20
330
1F
100
AcDbEntity
  8
D-STR
  6
Continuous
100
AcDbLine
 10
7402.920364127415
 20
6170.528709626998
 30
0.0
 11
7402.920364127415
 21
6420.528508570264
 31
0.0
  0
TEXT
  5
25C21
330
1F
100
AcDbEntity
  8
D-STR-DIM
100
AcDbText
 10
7183.982625052816
 20
6056.529310108866
 30
0.0
 40
70.0
  1
85
100
AcDbText
  0
LINE
  5
25C22
330
1F
100
AcDbEntity
  8
D-STR-DIM
  6
Continuous
100
AcDbLine
 10
7360.420424307083
 20
6040.528710176499
 30
0.0
 11
7174.842465091497
 21
6040.528710176499
 31
0.0
  0
CIRCLE
  5
25C23
330
1F
100
AcDbEntity
  8
D-STR-DIM
  6
Continuous
100
AcDbCircle
 10
7317.920484486673
 20
6040.528710176499
 30
0.0
 40
5.999997974638371
  0
CIRCLE
  5
25C24
330
1F
100
AcDbEntity
  8
D-STR-DIM
  6
Continuous
100
AcDbCircle
 10
7402.920364127415
 20
6040.528710176499
 30
0.0
 40
5.999997974638371
  0
LINE
  5
25C25
330
1F
100
AcDbEntity
  8
D-STR-DIM
  6
Continuous
100
AcDbLine
 10
7317.920484486673
 20
6040.528710176499
 30
0.0
 11
7360.420424307083
 21
6040.528710176499
 31
0.0
  0
LINE
  5
25C26
330
1F
100
AcDbEntity
  8
D-STR-DIM
  6
Continuous
100
AcDbLine
 10
7402.920364127415
 20
6040.528710176499
 30
0.0
 11
7360.420424307083
 21
6040.528710176499
 31
0.0
  0
LINE
  5
25C27
330
1F
100
AcDbEntity
  8
D-STR-DIM
  6
Continuous
100
AcDbLine
 10
7402.920364127415
 20
6150.528709626997
 30
0.0
 11
7402.920364127415
 21
6010.528910303307
 31
0.0
  0
LINE
  5
25C28
330
1F
100
AcDbEntity
  8
D-STR
  6
Continuous
100
AcDbLine
 10
7317.919864486684
 20
6160.529109669267
 30
0.0
 11
7402.919264127413
 21
6170.528709626998
 31
0.0
  0
LINE
  5
25C29
330
1F
100
AcDbEntity
  8
D-STR
  6
Continuous
100
AcDbLine
 10
7402.920984127407
 20
5920.529110683732
 30
0.0
 11
7317.919864486684
 21
5930.528710641464
 31
0.0
  0
LINE
  5
25C2A
330
1F
100
AcDbEntity
  8
D-STR-STR2
  6
Continuous
100
AcDbLine
 10
7422.906964042907
 20
6509.535508194037
 30
0.0
 11
7342.906964381064
 21
6509.534508194041
 31
0.0
  0
LINE
  5
25C2B
330
1F
100
AcDbEntity
  8
D-STR-STR2
  6
Continuous
100
AcDbLine
 10
7422.906964042907
 20
6509.535508194037
 30
0.0
 11
7422.906964042907
 21
6529.535508109498
 31
0.0
  0
LINE
  5
25C2C
330
1F
100
AcDbEntity
  8
D-STR-STR2
  6
Continuous
100
AcDbLine
 10
7422.906964042907
 20
6529.535508109498
 30
0.0
 11
7342.906964381064
 21
6529.534508109502
 31
0.0
  0
LINE
  5
25C2D
330
1F
100
AcDbEntity
  8
D-STR-STR2
  6
Continuous
100
AcDbLine
 10
7401.920644131606
 20
6245.528909309976
 30
0.0
 11
7317.920484486673
 21
6245.528909309976
 31
0.0
  0
LINE
  5
25C2E
330
1F
100
AcDbEntity
  8
D-STR-STR2
  6
Continuous
100
AcDbLine
 10
7317.920484486673
 20
6345.529308887281
 30
0.0
 11
7401.920644131606
 21
6345.529308887281
 31
0.0
  0
LINE
  5
25C2F
330
1F
100
AcDbEntity
  8
D-STR-STR2
  6
Continuous
100
AcDbLine
 10
7401.920644131606
 20
6345.529308887281
 30
0.0
 11
7401.920644131606
 21
6245.528909309976
 31
0.0
  0
LINE
  5
25C30
330
1F
100
AcDbEntity
  8
D-STR
  6
Continuous
100
AcDbLine
 10
7402.920364127415
 20
6420.528508570264
 30
0.0
 11
7317.920484486673
 21
6430.527908527998
 31
0.0
  0
LINE
  5
25C31
330
1F
100
AcDbEntity
  8
D-STR
  6
Continuous
100
AcDbLine
 10
7452.920483916037
 20
6170.528709626998
 30
0.0
 11
7452.920483916037
 21
6420.528508570264
 31
0.0
  0
TEXT
  5
25C32
330
1F
100
AcDbEntity
  8
D-STR-DIM
100
AcDbText
 10
7563.673243447924
 20
6056.529310108866
 30
0.0
 40
70.0
  1
85
100
AcDbText
  0
LINE
  5
25C33
330
1F
100
AcDbEntity
  8
D-STR-DIM
  6
Continuous
100
AcDbLine
 10
7495.420423736447
 20
6040.528710176499
 30
0.0
 11
7682.533402945475
 21
6040.528710176499
 31
0.0
  0
CIRCLE
  5
25C34
330
1F
100
AcDbEntity
  8
D-STR-DIM
  6
Continuous
100
AcDbCircle
 10
7452.920483916037
 20
6040.528710176499
 30
0.0
 40
5.999997974638371
  0
CIRCLE
  5
25C35
330
1F
100
AcDbEntity
  8
D-STR-DIM
  6
Continuous
100
AcDbCircle
 10
7537.920383556786
 20
6040.528710176499
 30
0.0
 40
5.999997974638371
  0
LINE
  5
25C36
330
1F
100
AcDbEntity
  8
D-STR-DIM
  6
Continuous
100
AcDbLine
 10
7452.920483916037
 20
6040.528710176499
 30
0.0
 11
7427.920364021741
 21
6040.528710176499
 31
0.0
  0
LINE
  5
25C37
330
1F
100
AcDbEntity
  8
D-STR-DIM
  6
Continuous
100
AcDbLine
 10
7452.920483916037
 20
6150.528709626997
 30
0.0
 11
7452.920483916037
 21
6010.528910303307
 31
0.0
  0
LINE
  5
25C38
330
1F
100
AcDbEntity
  8
D-STR-DIM
  6
Continuous
100
AcDbLine
 10
7452.920483916037
 20
6040.528710176499
 30
0.0
 11
7495.420423736447
 21
6040.528710176499
 31
0.0
  0
LINE
  5
25C39
330
1F
100
AcDbEntity
  8
D-STR-DIM
  6
Continuous
100
AcDbLine
 10
7537.920383556786
 20
6040.528710176499
 30
0.0
 11
7495.420423736447
 21
6040.528710176499
 31
0.0
  0
LINE
  5
25C3A
330
1F
100
AcDbEntity
  8
D-STR
  6
Continuous
100
AcDbLine
 10
7537.920383556786
 20
5930.528710641464
 30
0.0
 11
7452.920483916037
 21
5920.529110683732
 31
0.0
  0
LINE
  5
25C3B
330
1F
100
AcDbEntity
  8
D-STR
  6
Continuous
100
AcDbLine
 10
7452.920483916037
 20
6170.528709626998
 30
0.0
 11
7537.920383556786
 21
6160.529109669267
 31
0.0
  0
LINE
  5
25C3C
330
1F
100
AcDbEntity
  8
D-STR
  6
Continuous
100
AcDbLine
 10
7537.921003556774
 20
6430.527908527998
 30
0.0
 11
7452.919863916045
 21
6420.528508570264
 31
0.0
  0
LINE
  5
25C3D
330
1F
100
AcDbEntity
  8
D-STR-DIM
  6
Continuous
100
AcDbLine
 10
7217.919884909385
 20
6815.528906985159
 30
0.0
 11
7217.919884909385
 21
7225.528505167578
 31
0.0
  0
LINE
  5
25C3E
330
1F
100
AcDbEntity
  8
D-STR
  6
Continuous
100
AcDbLine
 10
7342.921084381053
 20
6595.528907830547
 30
0.0
 11
7217.919884909385
 21
6595.528907830547
 31
0.0
  0
LINE
  5
25C3F
330
1F
100
AcDbEntity
  8
D-STR-DIM
  6
Continuous
100
AcDbLine
 10
7217.919884909385
 20
7195.528705294385
 30
0.0
 11
7267.919864698029
 21
7195.528705294385
 31
0.0
  0
CIRCLE
  5
25C40
330
1F
100
AcDbEntity
  8
D-STR-DIM
  6
Continuous
100
AcDbCircle
 10
7217.919884909385
 20
7195.528705294385
 30
0.0
 40
5.999997974638371
  0
CIRCLE
  5
25C41
330
1F
100
AcDbEntity
  8
D-STR-DIM
  6
Continuous
100
AcDbCircle
 10
7317.919864486684
 20
7195.528705294385
 30
0.0
 40
5.999997974638371
  0
LINE
  5
25C42
330
1F
100
AcDbEntity
  8
D-STR-DIM
  6
Continuous
100
AcDbLine
 10
7317.919864486684
 20
7195.528705294385
 30
0.0
 11
7267.919864698029
 21
7195.528705294385
 31
0.0
  0
TEXT
  5
25C43
330
1F
100
AcDbEntity
  8
D-STR-DIM
100
AcDbText
 10
8021.920421510902
 20
6440.61070848538
 30
0.0
 40
70.0
  1
100
 50
90.0
100
AcDbText
  0
LINE
  5
25C44
330
1F
100
AcDbEntity
  8
D-STR-DIM
  6
Continuous
100
AcDbLine
 10
7787.920422500064
 20
6595.528907830547
 30
0.0
 11
7787.920422500064
 21
6557.529507991169
 31
0.0
  0
LINE
  5
25C45
330
1F
100
AcDbEntity
  8
D-STR-DIM
  6
Continuous
100
AcDbLine
 10
7787.920422500064
 20
6557.529507991169
 30
0.0
 11
7787.920422500064
 21
6654.566107581003
 31
0.0
  0
LINE
  5
25C46
330
1F
100
AcDbEntity
  8
D-STR-DIM
  6
Continuous
100
AcDbLine
 10
8037.920401443324
 20
6595.528907830547
 30
0.0
 11
8037.920401443324
 21
6545.529308041894
 31
0.0
  0
LINE
  5
25C47
330
1F
100
AcDbEntity
  8
D-STR-DIM
  6
Continuous
100
AcDbLine
 10
7807.920422500065
 20
6495.528508253244
 30
0.0
 11
8067.920421316522
 21
6495.528508253244
 31
0.0
  0
CIRCLE
  5
25C48
330
1F
100
AcDbEntity
  8
D-STR-DIM
  6
Continuous
100
AcDbCircle
 10
7787.920422500064
 20
6519.529108151797
 30
0.0
 40
5.999997974638371
  0
LINE
  5
25C49
330
1F
100
AcDbEntity
  8
D-STR-DIM
  6
Continuous
100
AcDbLine
 10
7787.920422500064
 20
6519.529108151797
 30
0.0
 11
7787.920422500064
 21
6557.529507991169
 31
0.0
  0
CIRCLE
  5
25C4A
330
1F
100
AcDbEntity
  8
D-STR-DIM
  6
Continuous
100
AcDbCircle
 10
8037.920401443324
 20
6495.528508253244
 30
0.0
 40
5.999997974638371
  0
LINE
  5
25C4B
330
1F
100
AcDbEntity
  8
D-STR-DIM
  6
Continuous
100
AcDbLine
 10
8037.920401443324
 20
6495.528508253244
 30
0.0
 11
8037.920401443324
 21
6545.529308041894
 31
0.0
  0
CIRCLE
  5
25C4C
330
1F
100
AcDbEntity
  8
D-STR-DIM
  6
Continuous
100
AcDbCircle
 10
7787.920422500064
 20
6595.528907830547
 30
0.0
 40
5.999997974638371
  0
CIRCLE
  5
25C4D
330
1F
100
AcDbEntity
  8
D-STR-DIM
  6
Continuous
100
AcDbCircle
 10
8037.920401443324
 20
6595.528907830547
 30
0.0
 40
5.999997974638371
  0
TEXT
  5
25C4E
330
1F
100
AcDbEntity
  8
D-STR-DIM
100
AcDbText
 10
8321.920400242815
 20
6608.668907775006
 30
0.0
 40
70.0
  1
200
 50
90.0
100
AcDbText
  0
CIRCLE
  5
25C4F
330
1F
100
AcDbEntity
  8
D-STR-DIM
  6
Continuous
100
AcDbCircle
 10
8337.92040017524
 20
6595.528907830547
 30
0.0
 40
5.999997974638371
  0
CIRCLE
  5
25C50
330
1F
100
AcDbEntity
  8
D-STR-DIM
  6
Continuous
100
AcDbCircle
 10
8337.92040017524
 20
6795.52890698516
 30
0.0
 40
5.999997974638371
  0
LINE
  5
25C51
330
1F
100
AcDbEntity
  8
D-STR-DIM
  6
Continuous
100
AcDbLine
 10
8337.92040017524
 20
6795.52890698516
 30
0.0
 11
8337.92040017524
 21
6695.528507407856
 31
0.0
  0
LINE
  5
25C52
330
1F
100
AcDbEntity
  8
D-STR-DIM
  6
Continuous
100
AcDbLine
 10
8337.92040017524
 20
6595.528907830547
 30
0.0
 11
8337.92040017524
 21
6695.528507407856
 31
0.0
  0
LINE
  5
25C53
330
1F
100
AcDbEntity
  8
D-STR-DIM
  6
Continuous
100
AcDbLine
 10
7557.920383556787
 20
8195.528899799363
 30
0.0
 11
8267.920420471135
 21
8195.528899799363
 31
0.0
  0
TEXT
  5
25C54
330
1F
100
AcDbEntity
  8
D-STR-DIM
100
AcDbText
 10
7331.060424431169
 20
7511.528903958671
 30
0.0
 40
70.0
  1
220
100
AcDbText
  0
LINE
  5
25C55
330
1F
100
AcDbEntity
  8
D-STR-DIM
  6
Continuous
100
AcDbLine
 10
7317.920484486673
 20
7495.529104026303
 30
0.0
 11
7427.920364021741
 21
7495.529104026303
 31
0.0
  0
CIRCLE
  5
25C56
330
1F
100
AcDbEntity
  8
D-STR-DIM
  6
Continuous
100
AcDbCircle
 10
7317.920484486673
 20
7495.529104026303
 30
0.0
 40
5.999997974638371
  0
CIRCLE
  5
25C57
330
1F
100
AcDbEntity
  8
D-STR-DIM
  6
Continuous
100
AcDbCircle
 10
7537.920383556786
 20
7495.529104026303
 30
0.0
 40
5.999997974638371
  0
LINE
  5
25C58
330
1F
100
AcDbEntity
  8
D-STR-DIM
  6
Continuous
100
AcDbLine
 10
7537.920383556786
 20
7495.529104026303
 30
0.0
 11
7427.920364021741
 21
7495.529104026303
 31
0.0
  0
CIRCLE
  5
25C59
330
1F
100
AcDbEntity
  8
D-STR-DIM
  6
Continuous
100
AcDbCircle
 10
8237.920400597934
 20
8195.528899799363
 30
0.0
 40
5.999997974638371
  0
LINE
  5
25C5A
330
1F
100
AcDbEntity
  8
D-STR-DIM
  6
Continuous
100
AcDbLine
 10
5877.920390488966
 20
9695.528893458952
 30
0.0
 11
5467.920592306546
 21
9695.528893458952
 31
0.0
  0
LINE
  5
25C5B
330
1F
100
AcDbEntity
  8
D-STR-DIM
  6
Continuous
100
AcDbLine
 10
5877.920390488966
 20
9445.52909451569
 30
0.0
 11
5467.920592306546
 21
9445.52909451569
 31
0.0
  0
LINE
  5
25C5C
330
1F
100
AcDbEntity
  8
D-STR-DIM
  6
Continuous
100
AcDbLine
 10
5877.920390488966
 20
8445.52849874263
 30
0.0
 11
5467.920592306546
 21
8445.52849874263
 31
0.0
  0
LINE
  5
25C5D
330
1F
100
AcDbEntity
  8
D-STR-DIM
  6
Continuous
100
AcDbLine
 10
5497.920592179736
 20
9695.528893458952
 30
0.0
 11
5497.920592179736
 21
9570.529093987319
 31
0.0
  0
TEXT
  5
25C5E
330
1F
100
AcDbEntity
  8
D-STR-DIM
100
AcDbText
 10
5481.920592247385
 20
8826.66889713157
 30
0.0
 40
70.0
  1
1000
 50
90.0
100
AcDbText
  0
LINE
  5
25C5F
330
1F
100
AcDbEntity
  8
D-STR-DIM
  6
Continuous
100
AcDbLine
 10
5497.920592179736
 20
9445.52909451569
 30
0.0
 11
5497.920592179736
 21
8945.528896629156
 31
0.0
  0
LINE
  5
25C60
330
1F
100
AcDbEntity
  8
D-STR-DIM
  6
Continuous
100
AcDbLine
 10
5497.920592179736
 20
8445.52849874263
 30
0.0
 11
5497.920592179736
 21
8945.528896629156
 31
0.0
  0
CIRCLE
  5
25C61
330
1F
100
AcDbEntity
  8
D-STR-DIM
  6
Continuous
100
AcDbCircle
 10
5497.920592179736
 20
8445.52849874263
 30
0.0
 40
5.999997974638371
  0
LINE
  5
25C62
330
1F
100
AcDbEntity
  8
D-STR-DIM
  6
Continuous
100
AcDbLine
 10
5497.920592179736
 20
8445.52849874263
 30
0.0
 11
5497.920592179736
 21
8320.528699270996
 31
0.0
  0
TEXT
  5
25C63
330
1F
100
AcDbEntity
  8
D-STR-DIM
100
AcDbText
 10
5481.920592247385
 20
9483.668294354478
 30
0.0
 40
70.0
  1
250
 50
90.0
100
AcDbText
  0
CIRCLE
  5
25C64
330
1F
100
AcDbEntity
  8
D-STR-DIM
  6
Continuous
100
AcDbCircle
 10
5497.920592179736
 20
9445.52909451569
 30
0.0
 40
5.999997974638371
  0
LINE
  5
25C65
330
1F
100
AcDbEntity
  8
D-STR-DIM
  6
Continuous
100
AcDbLine
 10
5497.920592179736
 20
9445.52909451569
 30
0.0
 11
5497.920592179736
 21
9570.529093987319
 31
0.0
  0
CIRCLE
  5
25C6B
330
1F
100
AcDbEntity
  8
D-STR-DIM
  6
Continuous
100
AcDbCircle
 10
5497.920592179736
 20
9695.528893458952
 30
0.0
 40
5.999997974638371
  0
LINE
  5
25C6C
330
1F
100
AcDbEntity
  8
D-STR-DIM
  6
Continuous
100
AcDbLine
 10
7067.92042554346
 20
10095.52869176817
 30
0.0
 11
7302.920404550125
 21
10095.52869176817
 31
0.0
  0
LINE
  5
25C6D
330
1F
100
AcDbEntity
  8
D-STR-HTXT
  6
Continuous
100
AcDbLine
 10
7098.288465415055
 20
9485.871294345164
 30
0.0
 11
7074.991385513555
 21
9452.5994944858
 31
0.0
  0
LINE
  5
25C6E
330
1F
100
AcDbEntity
  8
D-STR-HTXT
  6
Continuous
100
AcDbLine
 10
6376.9303884642
 20
9449.865494497357
 30
0.0
 11
7737.921002711388
 21
10095.52769176818
 31
0.0
  0
LINE
  5
25C6F
330
1F
100
AcDbEntity
  8
D-STR-HTXT
  6
Continuous
100
AcDbLine
 10
7074.992625513532
 20
9452.598494485803
 30
0.0
 11
7737.921622711375
 21
10095.52769176818
 31
0.0
  0
LINE
  5
25C70
330
1F
100
AcDbEntity
  8
D-BMK
  6
CENTER2
100
AcDbLine
 10
7107.920365374365
 20
8445.52849874263
 30
0.0
 11
7027.920365712517
 21
8445.52849874263
 31
0.0
  0
LINE
  5
25C71
330
1F
100
AcDbEntity
  8
D-BMK
  6
CENTER2
100
AcDbLine
 10
7107.920365374365
 20
9445.52909451569
 30
0.0
 11
7027.920365712517
 21
9445.52909451569
 31
0.0
  0
LINE
  5
25C72
330
1F
100
AcDbEntity
  8
D-STR
  6
Continuous
100
AcDbLine
 10
5897.920390488966
 20
9695.528893458952
 30
0.0
 11
7537.920383556786
 21
9695.528893458952
 31
0.0
  0
CIRCLE
  5
25C73
330
1F
100
AcDbEntity
  8
D-STR-STR2
  6
Continuous
100
AcDbCircle
 10
6367.9205885023
 20
8445.52849874263
 30
0.0
 40
9.999997957730611
  0
LINE
  5
25C74
330
1F
100
AcDbEntity
  8
D-BMK
  6
CENTER2
100
AcDbLine
 10
6367.9205885023
 20
8405.529298911705
 30
0.0
 11
6367.9205885023
 21
8485.528698573551
 31
0.0
  0
LINE
  5
25C75
330
1F
100
AcDbEntity
  8
D-BMK
  6
CENTER2
100
AcDbLine
 10
6407.920588333222
 20
8445.52849874263
 30
0.0
 11
6327.920388671384
 21
8445.52849874263
 31
0.0
  0
CIRCLE
  5
25C76
330
1F
100
AcDbEntity
  8
D-STR-STR2
  6
Continuous
100
AcDbCircle
 10
6367.9205885023
 20
9445.52909451569
 30
0.0
 40
9.999997957730611
  0
LINE
  5
25C77
330
1F
100
AcDbEntity
  8
D-STR-HTXT
  6
Continuous
100
AcDbLine
 10
6409.910788324811
 20
9473.574694397141
 30
0.0
 11
6376.9303884642
 21
9449.86749449735
 31
0.0
  0
LINE
  5
25C78
330
1F
100
AcDbEntity
  8
D-BMK
  6
CENTER2
100
AcDbLine
 10
6407.920588333222
 20
9445.52909451569
 30
0.0
 11
6327.920388671384
 21
9445.52909451569
 31
0.0
  0
LINE
  5
25C79
330
1F
100
AcDbEntity
  8
D-BMK
  6
CENTER2
100
AcDbLine
 10
6367.9205885023
 20
9485.528294346615
 30
0.0
 11
6367.9205885023
 21
9405.529094684768
 31
0.0
  0
CIRCLE
  5
25C7A
330
1F
100
AcDbEntity
  8
D-STR-STR2
  6
Continuous
100
AcDbCircle
 10
7067.92042554346
 20
8445.52849874263
 30
0.0
 40
9.999997957730611
  0
LINE
  5
25C7B
330
1F
100
AcDbEntity
  8
D-BMK
  6
CENTER2
100
AcDbLine
 10
7067.92042554346
 20
8405.529298911705
 30
0.0
 11
7067.92042554346
 21
8485.528698573551
 31
0.0
  0
CIRCLE
  5
25C7C
330
1F
100
AcDbEntity
  8
D-STR-STR2
  6
Continuous
100
AcDbCircle
 10
7067.92042554346
 20
9445.52909451569
 30
0.0
 40
9.999997957730611
  0
LINE
  5
25C7D
330
1F
100
AcDbEntity
  8
D-BMK
  6
CENTER2
100
AcDbLine
 10
7067.92042554346
 20
9485.528294346615
 30
0.0
 11
7067.92042554346
 21
9405.529094684768
 31
0.0
  0
LINE
  5
25C7E
330
1F
100
AcDbEntity
  8
D-STR-DIM
  6
Continuous
100
AcDbLine
 10
6367.9205885023
 20
10095.52869176817
 30
0.0
 11
6717.920427022891
 21
10095.52869176817
 31
0.0
  0
TEXT
  5
25C7F
330
1F
100
AcDbEntity
  8
D-STR-DIM
100
AcDbText
 10
6046.060589862769
 20
10111.52849170055
 30
0.0
 40
70.0
  1
470
100
AcDbText
  0
LINE
  5
25C80
330
1F
100
AcDbEntity
  8
D-STR-DIM
  6
Continuous
100
AcDbLine
 10
5897.920390488966
 20
10095.52869176817
 30
0.0
 11
6132.920589495633
 21
10095.52869176817
 31
0.0
  0
LINE
  5
25C81
330
1F
100
AcDbEntity
  8
D-STR-DIM
  6
Continuous
100
AcDbLine
 10
5897.920390488966
 20
9715.528893458952
 30
0.0
 11
5897.920390488966
 21
10125.52829164137
 31
0.0
  0
CIRCLE
  5
25C82
330
1F
100
AcDbEntity
  8
D-STR-DIM
  6
Continuous
100
AcDbCircle
 10
5897.920390488966
 20
10095.52869176817
 30
0.0
 40
5.999997974638371
  0
LINE
  5
25C83
330
1F
100
AcDbEntity
  8
D-STR-DIM
  6
Continuous
100
AcDbLine
 10
6367.9205885023
 20
9715.528893458952
 30
0.0
 11
6367.9205885023
 21
10125.52829164137
 31
0.0
  0
LINE
  5
25C84
330
1F
100
AcDbEntity
  8
D-STR-DIM
  6
Continuous
100
AcDbLine
 10
6367.9205885023
 20
10095.52869176817
 30
0.0
 11
6132.920589495633
 21
10095.52869176817
 31
0.0
  0
CIRCLE
  5
25C85
330
1F
100
AcDbEntity
  8
D-STR-DIM
  6
Continuous
100
AcDbCircle
 10
6367.9205885023
 20
10095.52869176817
 30
0.0
 40
5.999997974638371
  0
TEXT
  5
25C86
330
1F
100
AcDbEntity
  8
D-STR-DIM
100
AcDbText
 10
6631.060587390006
 20
10111.52849170055
 30
0.0
 40
70.0
  1
700
100
AcDbText
  0
LINE
  5
25C87
330
1F
100
AcDbEntity
  8
D-STR-DIM
  6
Continuous
100
AcDbLine
 10
7067.92042554346
 20
10095.52869176817
 30
0.0
 11
6717.920427022891
 21
10095.52869176817
 31
0.0
  0
LINE
  5
25C88
330
1F
100
AcDbEntity
  8
D-STR-DIM
  6
Continuous
100
AcDbLine
 10
7067.92042554346
 20
9715.528893458952
 30
0.0
 11
7067.92042554346
 21
10125.52829164137
 31
0.0
  0
CIRCLE
  5
25C89
330
1F
100
AcDbEntity
  8
D-STR-DIM
  6
Continuous
100
AcDbCircle
 10
7067.92042554346
 20
10095.52869176817
 30
0.0
 40
5.999997974638371
  0
LINE
  5
25C8A
330
1F
100
AcDbEntity
  8
D-STR-DIM
  6
Continuous
100
AcDbLine
 10
8237.920400597934
 20
9695.528893458952
 30
0.0
 11
8237.920400597934
 21
8945.528896629156
 31
0.0
  0
TEXT
  5
25C8B
330
1F
100
AcDbEntity
  8
D-STR-DIM
100
AcDbText
 10
8221.920400665506
 20
8826.66889713157
 30
0.0
 40
70.0
  1
1500
 50
90.0
100
AcDbText
  0
LINE
  5
25C8C
330
1F
100
AcDbEntity
  8
D-STR-DIM
  6
Continuous
100
AcDbLine
 10
7557.920383556787
 20
9695.528893458952
 30
0.0
 11
8267.920420471135
 21
9695.528893458952
 31
0.0
  0
LINE
  5
25C8D
330
1F
100
AcDbEntity
  8
D-STR-HTXT
  6
Continuous
100
AcDbLine
 10
7737.920442711343
 20
10095.52869176817
 30
0.0
 11
8445.477526219008
 21
10095.52869176817
 31
0.0
  0
LINE
  5
25C8E
330
1F
100
AcDbEntity
  8
D-STR-DIM
  6
Continuous
100
AcDbLine
 10
7537.920383556786
 20
10095.52869176817
 30
0.0
 11
7302.920404550125
 21
10095.52869176817
 31
0.0
  0
TEXT
  5
25C8F
330
1F
100
AcDbEntity
  8
D-STR-DIM
100
AcDbText
 10
7216.060404917262
 20
10111.52849170055
 30
0.0
 40
70.0
  1
470
100
AcDbText
  0
LINE
  5
25C90
330
1F
100
AcDbEntity
  8
D-STR-DIM
  6
Continuous
100
AcDbLine
 10
7537.920383556786
 20
9715.528893458952
 30
0.0
 11
7537.920383556786
 21
10125.52829164137
 31
0.0
  0
CIRCLE
  5
25C91
330
1F
100
AcDbEntity
  8
D-STR-DIM
  6
Continuous
100
AcDbCircle
 10
7537.920383556786
 20
10095.52869176817
 30
0.0
 40
5.999997974638371
  0
TEXT
  5
25C92
330
1F
100
AcDbEntity
  8
D-STR-HTXT
100
AcDbText
 10
7939.060381861207
 20
10015.52829210633
 30
0.0
 40
70.0
  1
Ｍ20
100
AcDbText
  0
TEXT
  5
25C93
330
1F
100
AcDbEntity
  8
D-STR-HTXT
100
AcDbText
 10
7715.060442807974
 20
10111.52849170055
 30
0.0
 40
70.0
  1
　吊り用インサート
100
AcDbText
  0
CIRCLE
  5
25C94
330
1F
100
AcDbEntity
  8
D-STR-DIM
  6
Continuous
100
AcDbCircle
 10
8237.920400597934
 20
9695.528893458952
 30
0.0
 40
5.999997974638371
  0
TEXT
  5
25CB2
330
1F
100
AcDbEntity
  8
D-STR-DIM
100
AcDbText
 10
10983.06016899435
 20
3999.209118805037
 30
0.0
 40
70.0
  1
65
100
AcDbText
  0
TEXT
  5
25CB3
330
1F
100
AcDbEntity
  8
D-STR-DIM
100
AcDbText
 10
10981.0503690029
 20
5111.528714103329
 30
0.0
 40
70.0
  1
100
100
AcDbText
  0
TEXT
  5
25CB4
330
1F
100
AcDbEntity
  8
D-STR-HTXT
100
AcDbText
 10
10589.87905065629
 20
6915.528506477929
 30
0.0
 40
70.0
  1
　　（セラミック）
100
AcDbText
  0
TEXT
  5
25CB5
330
1F
100
AcDbEntity
  8
D-STR-HTXT
100
AcDbText
 10
10589.87905065629
 20
7011.528506072142
 30
0.0
 40
70.0
  1
　インサート　Ｍ16
100
AcDbText
  0
CIRCLE
  5
25CB6
330
1F
100
AcDbEntity
  8
D-STR-DIM
  6
Continuous
100
AcDbCircle
 10
11037.9201687625
 20
7495.529104026303
 30
0.0
 40
5.999997974638371
  0
CIRCLE
  5
25CB7
330
1F
100
AcDbEntity
  8
D-STR-DIM
  6
Continuous
100
AcDbCircle
 10
11037.9201687625
 20
7195.528705294385
 30
0.0
 40
5.999997974638371
  0
CIRCLE
  5
25CB8
330
1F
100
AcDbEntity
  8
D-STR-DIM
  6
Continuous
100
AcDbCircle
 10
11037.9201687625
 20
4095.529318397896
 30
0.0
 40
5.999997974638371
  0
CIRCLE
  5
25CB9
330
1F
100
AcDbEntity
  8
D-STR-DIM
  6
Continuous
100
AcDbCircle
 10
11037.9201687625
 20
3795.52891966598
 30
0.0
 40
5.999997974638371
  0
CIRCLE
  5
25CBA
330
1F
100
AcDbEntity
  8
D-STR-DIM
  6
Continuous
100
AcDbCircle
 10
11037.9201687625
 20
5095.528914170956
 30
0.0
 40
5.999997974638371
  0
LINE
  5
25CBB
330
1F
100
AcDbEntity
  8
D-STR-DIM
  6
Continuous
100
AcDbLine
 10
11097.9201687625
 20
6295.528509098631
 30
0.0
 11
11467.92016694492
 21
6295.528509098631
 31
0.0
  0
LINE
  5
25CBC
330
1F
100
AcDbEntity
  8
D-STR-DIM
  6
Continuous
100
AcDbLine
 10
11057.9201687625
 20
6595.528907830547
 30
0.0
 11
11467.92016694492
 21
6595.528907830547
 31
0.0
  0
LINE
  5
25CBD
330
1F
100
AcDbEntity
  8
D-STR-DIM
  6
Continuous
100
AcDbLine
 10
10817.92016977697
 20
5670.529511740465
 30
0.0
 11
11267.9203677903
 21
5670.529511740465
 31
0.0
  0
LINE
  5
25CBE
330
1F
100
AcDbEntity
  8
D-STR-DIM
  6
Continuous
100
AcDbLine
 10
10817.92016977697
 20
5660.528911782736
 30
0.0
 11
11267.9203677903
 21
5660.528911782736
 31
0.0
  0
LINE
  5
25CBF
330
1F
100
AcDbEntity
  8
D-STR-DIM
  6
Continuous
100
AcDbLine
 10
10817.92016977697
 20
5920.529110683732
 30
0.0
 11
11267.9203677903
 21
5920.529110683732
 31
0.0
  0
LINE
  5
25CC0
330
1F
100
AcDbEntity
  8
D-STR-DIM
  6
Continuous
100
AcDbLine
 10
10817.92016977697
 20
5930.528710641464
 30
0.0
 11
11267.9203677903
 21
5930.528710641464
 31
0.0
  0
LINE
  5
25CC1
330
1F
100
AcDbEntity
  8
D-STR-DIM
  6
Continuous
100
AcDbLine
 10
10987.92016897385
 20
5095.528914170956
 30
0.0
 11
11154.77016826856
 21
5095.528914170956
 31
0.0
  0
LINE
  5
25CC2
330
1F
100
AcDbEntity
  8
D-STR-HTXT
  6
Continuous
100
AcDbLine
 10
11071.19176862187
 20
6272.231709197108
 30
0.0
 11
11037.9201687625
 21
6295.528509098631
 31
0.0
  0
LINE
  5
25CC3
330
1F
100
AcDbEntity
  8
D-STR-HTXT
  6
Continuous
100
AcDbLine
 10
11369.41106868723
 20
6995.528906139772
 30
0.0
 11
10612.73913055969
 21
6995.528906139772
 31
0.0
  0
LINE
  5
25CC4
330
1F
100
AcDbEntity
  8
D-BMK
  6
CENTER2
100
AcDbLine
 10
11067.9201686357
 20
6295.528509098631
 30
0.0
 11
10923.91996924436
 21
6295.528509098631
 31
0.0
  0
LINE
  5
25CC5
330
1F
100
AcDbEntity
  8
D-STR-HTXT
  6
Continuous
100
AcDbLine
 10
11287.92016770577
 20
6045.528910155365
 30
0.0
 11
11037.9201687625
 21
6295.528509098631
 31
0.0
  0
LINE
  5
25CC6
330
1F
100
AcDbEntity
  8
D-STR-DIM
  6
Continuous
100
AcDbLine
 10
9137.920356793678
 20
5795.529311212099
 30
0.0
 11
9137.920356793678
 21
6045.528910155365
 31
0.0
  0
LINE
  5
25CC7
330
1F
100
AcDbEntity
  8
D-STR
  6
Continuous
100
AcDbLine
 10
10937.9201691852
 20
6585.52850787282
 30
0.0
 11
10937.9201691852
 21
4705.528715819464
 31
0.0
  0
LINE
  5
25CC8
330
1F
100
AcDbEntity
  8
D-STR
  6
Continuous
100
AcDbLine
 10
10397.92033146772
 20
6595.528907830547
 30
0.0
 11
10397.92033146772
 21
4695.529115861734
 31
0.0
  0
LINE
  5
25CC9
330
1F
100
AcDbEntity
  8
D-STR
  6
Continuous
100
AcDbLine
 10
9647.92033463793
 20
6595.528907830547
 30
0.0
 11
9647.92033463793
 21
4695.529115861734
 31
0.0
  0
LINE
  5
25CCA
330
1F
100
AcDbEntity
  8
D-STR
  6
Continuous
100
AcDbLine
 10
10177.92031239765
 20
6595.528907830547
 30
0.0
 11
10177.92031239765
 21
4695.529115861734
 31
0.0
  0
LINE
  5
25CCB
330
1F
100
AcDbEntity
  8
D-STR
  6
Continuous
100
AcDbLine
 10
11037.9201687625
 20
6795.52890698516
 30
0.0
 11
11037.9201687625
 21
4495.529116707121
 31
0.0
  0
LINE
  5
25CCC
330
1F
100
AcDbEntity
  8
D-STR
  6
Continuous
100
AcDbLine
 10
9537.920315102885
 20
6795.52890698516
 30
0.0
 11
9537.920315102885
 21
4495.529116707121
 31
0.0
  0
LINE
  5
25CCD
330
1F
100
AcDbEntity
  8
D-STR
  6
Continuous
100
AcDbLine
 10
10187.92035235539
 20
6585.52850787282
 30
0.0
 11
10187.92035235539
 21
4705.528715819464
 31
0.0
  0
LINE
  5
25CCE
330
1F
100
AcDbEntity
  8
D-STR
  6
Continuous
100
AcDbLine
 10
10387.92029150998
 20
6585.52850787282
 30
0.0
 11
10387.92029150998
 21
4705.528715819464
 31
0.0
  0
LINE
  5
25CCF
330
1F
100
AcDbEntity
  8
D-STR
  6
Continuous
100
AcDbLine
 10
9637.920354680206
 20
6585.52850787282
 30
0.0
 11
9637.920354680206
 21
4705.528715819464
 31
0.0
  0
LINE
  5
25CD0
330
1F
100
AcDbEntity
  8
D-STR
  6
Continuous
100
AcDbLine
 10
10927.92016922746
 20
6595.528907830547
 30
0.0
 11
10927.92016922746
 21
4695.529115861734
 31
0.0
  0
LINE
  5
25CD1
330
1F
100
AcDbEntity
  8
D-STR-STR2
  6
Continuous
100
AcDbLine
 10
10047.92033294716
 20
5930.528710641464
 30
0.0
 11
10047.92033294716
 21
5660.528911782736
 31
0.0
  0
LINE
  5
25CD2
330
1F
100
AcDbEntity
  8
D-STR-STR2
  6
Continuous
100
AcDbLine
 10
9777.92031408842
 20
5930.528710641464
 30
0.0
 11
9777.92031408842
 21
5660.528911782736
 31
0.0
  0
LINE
  5
25CD3
330
1F
100
AcDbEntity
  8
D-STR-STR2
  6
Continuous
100
AcDbLine
 10
10537.92037087597
 20
5920.529110683732
 30
0.0
 11
10537.92037087597
 21
5670.529511740465
 31
0.0
  0
LINE
  5
25CD4
330
1F
100
AcDbEntity
  8
D-STR-STR2
  6
Continuous
100
AcDbLine
 10
10787.92036981923
 20
5920.529110683732
 30
0.0
 11
10787.92036981923
 21
5670.529511740465
 31
0.0
  0
LINE
  5
25CD5
330
1F
100
AcDbEntity
  8
D-BMK
  6
CENTER2
100
AcDbLine
 10
9912.920313517785
 20
5960.529310514654
 30
0.0
 11
9912.920313517785
 21
5630.529311909544
 31
0.0
  0
LINE
  5
25CD6
330
1F
100
AcDbEntity
  8
D-STR-STR2
  6
Continuous
100
AcDbLine
 10
10037.9202729894
 20
5920.529110683732
 30
0.0
 11
10037.9202729894
 21
5670.529511740465
 31
0.0
  0
LINE
  5
25CD7
330
1F
100
AcDbEntity
  8
D-STR-STR2
  6
Continuous
100
AcDbLine
 10
9787.920354046168
 20
5920.529110683732
 30
0.0
 11
9787.920354046168
 21
5670.529511740465
 31
0.0
  0
LINE
  5
25CD8
330
1F
100
AcDbEntity
  8
D-STR-STR2
  6
Continuous
100
AcDbLine
 10
10527.92031091821
 20
5930.528710641464
 30
0.0
 11
10527.92031091821
 21
5660.528911782736
 31
0.0
  0
LINE
  5
25CD9
330
1F
100
AcDbEntity
  8
D-BMK
  6
CENTER2
100
AcDbLine
 10
10662.9201703476
 20
5960.529310514654
 30
0.0
 11
10662.9201703476
 21
5630.529311909544
 31
0.0
  0
LINE
  5
25CDA
330
1F
100
AcDbEntity
  8
D-STR-STR2
  6
Continuous
100
AcDbLine
 10
10797.92016977697
 20
5930.528710641464
 30
0.0
 11
10797.92016977697
 21
5660.528911782736
 31
0.0
  0
TEXT
  5
25CDB
330
1F
100
AcDbEntity
  8
D-STR-DIM
100
AcDbText
 10
9661.462354580713
 20
5111.528714103329
 30
0.0
 40
70.0
  1
10
100
AcDbText
  0
LINE
  5
25CDC
330
1F
100
AcDbEntity
  8
D-STR-DIM
  6
Continuous
100
AcDbLine
 10
9602.920314828139
 20
4095.529318397896
 30
0.0
 11
9920.420353486093
 21
4095.529318397896
 31
0.0
  0
LINE
  5
25CDD
330
1F
100
AcDbEntity
  8
D-STR-DIM
  6
Continuous
100
AcDbLine
 10
9537.920315102885
 20
3795.52891966598
 30
0.0
 11
10287.92031193268
 21
3795.52891966598
 31
0.0
  0
LINE
  5
25CDE
330
1F
100
AcDbEntity
  8
D-STR-DIM
  6
Continuous
100
AcDbLine
 10
9642.920314659059
 20
5095.528914170956
 30
0.0
 11
9771.182674116907
 21
5095.528914170956
 31
0.0
  0
LINE
  5
25CDF
330
1F
100
AcDbEntity
  8
D-STR
  6
Continuous
100
AcDbLine
 10
11037.9201687625
 20
4495.529116707121
 30
0.0
 11
9537.920315102885
 21
4495.529116707121
 31
0.0
  0
LINE
  5
25CE0
330
1F
100
AcDbEntity
  8
D-STR
  6
Continuous
100
AcDbLine
 10
10177.92031239765
 20
4795.528515439041
 30
0.0
 11
9647.92033463793
 21
4795.528515439041
 31
0.0
  0
LINE
  5
25CE1
330
1F
100
AcDbEntity
  8
D-STR
  6
Continuous
100
AcDbLine
 10
11037.9201687625
 20
4695.529115861734
 30
0.0
 11
9537.920315102885
 21
4695.529115861734
 31
0.0
  0
LINE
  5
25CE2
330
1F
100
AcDbEntity
  8
D-STR-DIM
  6
Continuous
100
AcDbLine
 10
9537.920315102885
 20
4475.529116707122
 30
0.0
 11
9537.920315102885
 21
3765.529319792786
 31
0.0
  0
CIRCLE
  5
25CE3
330
1F
100
AcDbEntity
  8
D-STR-DIM
  6
Continuous
100
AcDbCircle
 10
9537.920315102885
 20
3795.52891966598
 30
0.0
 40
5.999997974638371
  0
LINE
  5
25CE4
330
1F
100
AcDbEntity
  8
D-STR-DIM
  6
Continuous
100
AcDbLine
 10
9602.920314828139
 20
4475.529116707122
 30
0.0
 11
9602.920314828139
 21
4065.528718524706
 31
0.0
  0
TEXT
  5
25CE5
330
1F
100
AcDbEntity
  8
D-STR-DIM
100
AcDbText
 10
9483.060355334748
 20
3999.209118805037
 30
0.0
 40
70.0
  1
65
100
AcDbText
  0
LINE
  5
25CE6
330
1F
100
AcDbEntity
  8
D-STR-DIM
  6
Continuous
100
AcDbLine
 10
9537.920315102885
 20
4095.529318397896
 30
0.0
 11
9570.420354965525
 21
4095.529318397896
 31
0.0
  0
CIRCLE
  5
25CE7
330
1F
100
AcDbEntity
  8
D-STR-DIM
  6
Continuous
100
AcDbCircle
 10
9537.920315102885
 20
4095.529318397896
 30
0.0
 40
5.999997974638371
  0
CIRCLE
  5
25CE8
330
1F
100
AcDbEntity
  8
D-STR-DIM
  6
Continuous
100
AcDbCircle
 10
9602.920314828139
 20
4095.529318397896
 30
0.0
 40
5.999997974638371
  0
LINE
  5
25CE9
330
1F
100
AcDbEntity
  8
D-STR-DIM
  6
Continuous
100
AcDbLine
 10
9602.920314828139
 20
4095.529318397896
 30
0.0
 11
9570.420354965525
 21
4095.529318397896
 31
0.0
  0
TEXT
  5
25CEA
330
1F
100
AcDbEntity
  8
D-STR-DIM
100
AcDbText
 10
9121.920336861316
 20
5126.669114039331
 30
0.0
 40
70.0
  1
1100
 50
90.0
100
AcDbText
  0
LINE
  5
25CEB
330
1F
100
AcDbEntity
  8
D-STR-DIM
  6
Continuous
100
AcDbLine
 10
9137.920356793678
 20
4695.529115861734
 30
0.0
 11
9137.920356793678
 21
5245.529113536917
 31
0.0
  0
LINE
  5
25CEC
330
1F
100
AcDbEntity
  8
D-STR-DIM
  6
Continuous
100
AcDbLine
 10
9517.920315102886
 20
4695.529115861734
 30
0.0
 11
9107.920336920477
 21
4695.529115861734
 31
0.0
  0
CIRCLE
  5
25CED
330
1F
100
AcDbEntity
  8
D-STR-DIM
  6
Continuous
100
AcDbCircle
 10
9137.920356793678
 20
4695.529115861734
 30
0.0
 40
5.999997974638371
  0
LINE
  5
25CEE
330
1F
100
AcDbEntity
  8
D-STR
  6
Continuous
100
AcDbLine
 10
9537.920315102885
 20
4695.529115861734
 30
0.0
 11
9647.92033463793
 21
4695.529115861734
 31
0.0
  0
LINE
  5
25CEF
330
1F
100
AcDbEntity
  8
D-STR
  6
Continuous
100
AcDbLine
 10
9537.920315102885
 20
4705.528715819464
 30
0.0
 11
9637.920354680206
 21
4705.528715819464
 31
0.0
  0
CIRCLE
  5
25CF0
330
1F
100
AcDbEntity
  8
D-STR-STR2
  6
Continuous
100
AcDbCircle
 10
9602.920314828139
 20
4778.529115510897
 30
0.0
 40
9.999997957730611
  0
LINE
  5
25CF1
330
1F
100
AcDbEntity
  8
D-BMK
  6
CENTER2
100
AcDbLine
 10
9602.920314828139
 20
4818.529315341818
 30
0.0
 11
9602.920314828139
 21
4738.528915679976
 31
0.0
  0
LINE
  5
25CF2
330
1F
100
AcDbEntity
  8
D-BMK
  6
CENTER2
100
AcDbLine
 10
9562.920314997212
 20
4778.529115510897
 30
0.0
 11
9642.920314659059
 21
4778.529115510897
 31
0.0
  0
LINE
  5
25CF3
330
1F
100
AcDbEntity
  8
D-STR
  6
Continuous
100
AcDbLine
 10
9637.920354680206
 20
4705.528715819464
 30
0.0
 11
9647.92033463793
 21
4695.528115861738
 31
0.0
  0
TEXT
  5
25CF4
330
1F
100
AcDbEntity
  8
D-STR-DIM
100
AcDbText
 10
9421.070755596829
 20
5111.528714103329
 30
0.0
 40
70.0
  1
100
100
AcDbText
  0
LINE
  5
25CF5
330
1F
100
AcDbEntity
  8
D-STR-DIM
  6
Continuous
100
AcDbLine
 10
9587.920374891561
 20
5095.528914170956
 30
0.0
 11
9421.070335596835
 21
5095.528914170956
 31
0.0
  0
LINE
  5
25CF6
330
1F
100
AcDbEntity
  8
D-STR-DIM
  6
Continuous
100
AcDbLine
 10
9537.920315102885
 20
5095.528914170956
 30
0.0
 11
9587.920374891561
 21
5095.528914170956
 31
0.0
  0
CIRCLE
  5
25CF7
330
1F
100
AcDbEntity
  8
D-STR-DIM
  6
Continuous
100
AcDbCircle
 10
9537.920315102885
 20
5095.528914170956
 30
0.0
 40
5.999997974638371
  0
CIRCLE
  5
25CF8
330
1F
100
AcDbEntity
  8
D-STR-DIM
  6
Continuous
100
AcDbCircle
 10
9637.920354680206
 20
5095.528914170956
 30
0.0
 40
5.999997974638371
  0
CIRCLE
  5
25CF9
330
1F
100
AcDbEntity
  8
D-STR-DIM
  6
Continuous
100
AcDbCircle
 10
9647.92033463793
 20
5095.528914170956
 30
0.0
 40
5.999997974638371
  0
LINE
  5
25CFA
330
1F
100
AcDbEntity
  8
D-STR-DIM
  6
Continuous
100
AcDbLine
 10
9637.920354680206
 20
5095.528914170956
 30
0.0
 11
9587.920374891561
 21
5095.528914170956
 31
0.0
  0
LINE
  5
25CFB
330
1F
100
AcDbEntity
  8
D-STR-DIM
  6
Continuous
100
AcDbLine
 10
9647.92033463793
 20
5095.528914170956
 30
0.0
 11
9642.920314659059
 21
5095.528914170956
 31
0.0
  0
LINE
  5
25CFC
330
1F
100
AcDbEntity
  8
D-STR-DIM
  6
Continuous
100
AcDbLine
 10
9637.920354680206
 20
5095.528914170956
 30
0.0
 11
9642.920314659059
 21
5095.528914170956
 31
0.0
  0
LINE
  5
25CFD
330
1F
100
AcDbEntity
  8
D-STR-DIM
  6
Continuous
100
AcDbLine
 10
9517.920315102886
 20
5795.529311212099
 30
0.0
 11
9107.920336920477
 21
5795.529311212099
 31
0.0
  0
LINE
  5
25CFE
330
1F
100
AcDbEntity
  8
D-STR-DIM
  6
Continuous
100
AcDbLine
 10
9137.920356793678
 20
5795.529311212099
 30
0.0
 11
9137.920356793678
 21
5245.529113536917
 31
0.0
  0
CIRCLE
  5
25CFF
330
1F
100
AcDbEntity
  8
D-STR-DIM
  6
Continuous
100
AcDbCircle
 10
9137.920356793678
 20
5795.529311212099
 30
0.0
 40
5.999997974638371
  0
LINE
  5
25D00
330
1F
100
AcDbEntity
  8
D-STR-DIM
  6
Continuous
100
AcDbLine
 10
10337.92031172133
 20
4095.529318397896
 30
0.0
 11
10655.42017037931
 21
4095.529318397896
 31
0.0
  0
LINE
  5
25D01
330
1F
100
AcDbEntity
  8
D-STR-DIM
  6
Continuous
100
AcDbLine
 10
11037.9201687625
 20
3795.52891966598
 30
0.0
 11
10287.92031193268
 21
3795.52891966598
 31
0.0
  0
TEXT
  5
25D02
330
1F
100
AcDbEntity
  8
D-STR-DIM
100
AcDbText
 10
10169.06033243512
 20
3811.52851959835
 30
0.0
 40
70.0
  1
1500
100
AcDbText
  0
LINE
  5
25D03
330
1F
100
AcDbEntity
  8
D-STR-DIM
  6
Continuous
100
AcDbLine
 10
10237.92033214403
 20
4095.529318397896
 30
0.0
 11
9920.420353486093
 21
4095.529318397896
 31
0.0
  0
TEXT
  5
25D04
330
1F
100
AcDbEntity
  8
D-STR-DIM
100
AcDbText
 10
9833.560353853231
 20
4111.528918330266
 30
0.0
 40
70.0
  1
635
100
AcDbText
  0
LINE
  5
25D05
330
1F
100
AcDbEntity
  8
D-STR-DIM
  6
Continuous
100
AcDbLine
 10
10337.92031172133
 20
4475.529116707122
 30
0.0
 11
10337.92031172133
 21
4065.528718524706
 31
0.0
  0
LINE
  5
25D06
330
1F
100
AcDbEntity
  8
D-STR-DIM
  6
Continuous
100
AcDbLine
 10
10237.92033214403
 20
4475.529116707122
 30
0.0
 11
10237.92033214403
 21
4065.528718524706
 31
0.0
  0
TEXT
  5
25D07
330
1F
100
AcDbEntity
  8
D-STR-DIM
100
AcDbText
 10
10201.06031229982
 20
3999.209118805037
 30
0.0
 40
70.0
  1
100
100
AcDbText
  0
CIRCLE
  5
25D08
330
1F
100
AcDbEntity
  8
D-STR-DIM
  6
Continuous
100
AcDbCircle
 10
10337.92031172133
 20
4095.529318397896
 30
0.0
 40
5.999997974638371
  0
CIRCLE
  5
25D09
330
1F
100
AcDbEntity
  8
D-STR-DIM
  6
Continuous
100
AcDbCircle
 10
10237.92033214403
 20
4095.529318397896
 30
0.0
 40
5.999997974638371
  0
LINE
  5
25D0A
330
1F
100
AcDbEntity
  8
D-STR-DIM
  6
Continuous
100
AcDbLine
 10
10237.92033214403
 20
4095.529318397896
 30
0.0
 11
10287.92031193268
 21
4095.529318397896
 31
0.0
  0
LINE
  5
25D0B
330
1F
100
AcDbEntity
  8
D-STR-DIM
  6
Continuous
100
AcDbLine
 10
10337.92031172133
 20
4095.529318397896
 30
0.0
 11
10287.92031193268
 21
4095.529318397896
 31
0.0
  0
LINE
  5
25D0C
330
1F
100
AcDbEntity
  8
D-STR-DIM
  6
Continuous
100
AcDbLine
 10
11037.9201687625
 20
4475.529116707122
 30
0.0
 11
11037.9201687625
 21
3765.529319792786
 31
0.0
  0
TEXT
  5
25D0D
330
1F
100
AcDbEntity
  8
D-STR-DIM
100
AcDbText
 10
10568.5602707464
 20
4111.528918330266
 30
0.0
 40
70.0
  1
635
100
AcDbText
  0
LINE
  5
25D0E
330
1F
100
AcDbEntity
  8
D-STR-DIM
  6
Continuous
100
AcDbLine
 10
10972.92016903725
 20
4095.529318397896
 30
0.0
 11
10655.42017037931
 21
4095.529318397896
 31
0.0
  0
LINE
  5
25D0F
330
1F
100
AcDbEntity
  8
D-STR-DIM
  6
Continuous
100
AcDbLine
 10
10972.92016903725
 20
4475.529116707122
 30
0.0
 11
10972.92016903725
 21
4065.528718524706
 31
0.0
  0
CIRCLE
  5
25D10
330
1F
100
AcDbEntity
  8
D-STR-DIM
  6
Continuous
100
AcDbCircle
 10
10972.92016903725
 20
4095.529318397896
 30
0.0
 40
5.999997974638371
  0
LINE
  5
25D11
330
1F
100
AcDbEntity
  8
D-STR-DIM
  6
Continuous
100
AcDbLine
 10
10972.92016903725
 20
4095.529318397896
 30
0.0
 11
11005.42016889988
 21
4095.529318397896
 31
0.0
  0
LINE
  5
25D12
330
1F
100
AcDbEntity
  8
D-STR-DIM
  6
Continuous
100
AcDbLine
 10
11037.9201687625
 20
4095.529318397896
 30
0.0
 11
11005.42016889988
 21
4095.529318397896
 31
0.0
  0
TEXT
  5
25D13
330
1F
100
AcDbEntity
  8
D-STR-DIM
100
AcDbText
 10
10338.06027172076
 20
4999.208914578098
 30
0.0
 40
70.0
  1
10
100
AcDbText
  0
LINE
  5
25D14
330
1F
100
AcDbEntity
  8
D-STR-DIM
  6
Continuous
100
AcDbLine
 10
10387.92029150998
 20
5095.528914170956
 30
0.0
 11
10287.92031193268
 21
5095.528914170956
 31
0.0
  0
LINE
  5
25D15
330
1F
100
AcDbEntity
  8
D-STR
  6
Continuous
100
AcDbLine
 10
10397.92033146772
 20
4695.529115861734
 30
0.0
 11
10177.92031239765
 21
4695.529115861734
 31
0.0
  0
LINE
  5
25D16
330
1F
100
AcDbEntity
  8
D-STR
  6
Continuous
100
AcDbLine
 10
10387.92029150998
 20
4705.528715819464
 30
0.0
 11
10187.92035235539
 21
4705.528715819464
 31
0.0
  0
LINE
  5
25D17
330
1F
100
AcDbEntity
  8
D-BMK
  6
CENTER2
100
AcDbLine
 10
10197.92027231309
 20
4778.529115510897
 30
0.0
 11
10277.92027197494
 21
4778.529115510897
 31
0.0
  0
LINE
  5
25D18
330
1F
100
AcDbEntity
  8
D-STR
  6
Continuous
100
AcDbLine
 10
10187.92035235539
 20
4705.528715819464
 30
0.0
 11
10177.92093239763
 21
4695.528115861738
 31
0.0
  0
CIRCLE
  5
25D19
330
1F
100
AcDbEntity
  8
D-STR-STR2
  6
Continuous
100
AcDbCircle
 10
10237.92033214403
 20
4778.529115510897
 30
0.0
 40
9.999997957730611
  0
CIRCLE
  5
25D1A
330
1F
100
AcDbEntity
  8
D-STR-STR2
  6
Continuous
100
AcDbCircle
 10
10337.92031172133
 20
4778.529115510897
 30
0.0
 40
9.999997957730611
  0
LINE
  5
25D1B
330
1F
100
AcDbEntity
  8
D-BMK
  6
CENTER2
100
AcDbLine
 10
10337.92031172133
 20
4818.529315341818
 30
0.0
 11
10337.92031172133
 21
4738.528915679976
 31
0.0
  0
LINE
  5
25D1C
330
1F
100
AcDbEntity
  8
D-BMK
  6
CENTER2
100
AcDbLine
 10
10297.92037189043
 20
4778.529115510897
 30
0.0
 11
10377.92037155228
 21
4778.529115510897
 31
0.0
  0
LINE
  5
25D1D
330
1F
100
AcDbEntity
  8
D-BMK
  6
CENTER2
100
AcDbLine
 10
10237.92033214403
 20
4818.529315341818
 30
0.0
 11
10237.92033214403
 21
4738.528915679976
 31
0.0
  0
TEXT
  5
25D1E
330
1F
100
AcDbEntity
  8
D-STR-DIM
100
AcDbText
 10
10201.06031229982
 20
5111.528714103329
 30
0.0
 40
70.0
  1
200
100
AcDbText
  0
LINE
  5
25D1F
330
1F
100
AcDbEntity
  8
D-STR-DIM
  6
Continuous
100
AcDbLine
 10
10187.92035235539
 20
5095.528914170956
 30
0.0
 11
10287.92031193268
 21
5095.528914170956
 31
0.0
  0
TEXT
  5
25D20
330
1F
100
AcDbEntity
  8
D-STR-DIM
100
AcDbText
 10
10128.06029260842
 20
4999.208914578098
 30
0.0
 40
70.0
  1
10
100
AcDbText
  0
CIRCLE
  5
25D21
330
1F
100
AcDbEntity
  8
D-STR-DIM
  6
Continuous
100
AcDbCircle
 10
10187.92035235539
 20
5095.528914170956
 30
0.0
 40
5.999997974638371
  0
CIRCLE
  5
25D22
330
1F
100
AcDbEntity
  8
D-STR-DIM
  6
Continuous
100
AcDbCircle
 10
10177.92031239765
 20
5095.528914170956
 30
0.0
 40
5.999997974638371
  0
LINE
  5
25D23
330
1F
100
AcDbEntity
  8
D-STR-DIM
  6
Continuous
100
AcDbLine
 10
10177.92031239765
 20
5095.528914170956
 30
0.0
 11
10182.92033237651
 21
5095.528914170956
 31
0.0
  0
LINE
  5
25D24
330
1F
100
AcDbEntity
  8
D-STR-DIM
  6
Continuous
100
AcDbLine
 10
10187.92035235539
 20
5095.528914170956
 30
0.0
 11
10182.92033237651
 21
5095.528914170956
 31
0.0
  0
LINE
  5
25D25
330
1F
100
AcDbEntity
  8
D-BMK
  6
CENTER2
100
AcDbLine
 10
10077.92033282034
 20
5795.529311212099
 30
0.0
 11
9747.920294215223
 21
5795.529311212099
 31
0.0
  0
LINE
  5
25D26
330
1F
100
AcDbEntity
  8
D-STR-STR2
  6
Continuous
100
AcDbLine
 10
10047.92033294716
 20
5660.528911782736
 30
0.0
 11
9777.92031408842
 21
5660.528911782736
 31
0.0
  0
LINE
  5
25D27
330
1F
100
AcDbEntity
  8
D-STR-STR2
  6
Continuous
100
AcDbLine
 10
10037.9202729894
 20
5670.529511740465
 30
0.0
 11
9787.920354046168
 21
5670.529511740465
 31
0.0
  0
LINE
  5
25D28
330
1F
100
AcDbEntity
  8
D-STR
  6
Continuous
100
AcDbLine
 10
10927.92016922746
 20
4795.528515439041
 30
0.0
 11
10397.92033146772
 21
4795.528515439041
 31
0.0
  0
LINE
  5
25D29
330
1F
100
AcDbEntity
  8
D-STR
  6
Continuous
100
AcDbLine
 10
10397.92033146772
 20
4695.528115861738
 30
0.0
 11
10387.91967150999
 21
4705.528715819464
 31
0.0
  0
CIRCLE
  5
25D2A
330
1F
100
AcDbEntity
  8
D-STR-DIM
  6
Continuous
100
AcDbCircle
 10
10387.92029150998
 20
5095.528914170956
 30
0.0
 40
5.999997974638371
  0
CIRCLE
  5
25D2B
330
1F
100
AcDbEntity
  8
D-STR-DIM
  6
Continuous
100
AcDbCircle
 10
10397.92033146772
 20
5095.528914170956
 30
0.0
 40
5.999997974638371
  0
LINE
  5
25D2C
330
1F
100
AcDbEntity
  8
D-STR-DIM
  6
Continuous
100
AcDbLine
 10
10387.92029150998
 20
5095.528914170956
 30
0.0
 11
10392.92031148885
 21
5095.528914170956
 31
0.0
  0
LINE
  5
25D2D
330
1F
100
AcDbEntity
  8
D-STR-DIM
  6
Continuous
100
AcDbLine
 10
10397.92033146772
 20
5095.528914170956
 30
0.0
 11
10392.92031148885
 21
5095.528914170956
 31
0.0
  0
CIRCLE
  5
25D2E
330
1F
100
AcDbEntity
  8
D-STR-STR2
  6
Continuous
100
AcDbCircle
 10
10972.92016903725
 20
4778.529115510897
 30
0.0
 40
9.999997957730611
  0
LINE
  5
25D2F
330
1F
100
AcDbEntity
  8
D-BMK
  6
CENTER2
100
AcDbLine
 10
10972.92016903725
 20
4818.529315341818
 30
0.0
 11
10972.92016903725
 21
4738.528915679976
 31
0.0
  0
LINE
  5
25D30
330
1F
100
AcDbEntity
  8
D-BMK
  6
CENTER2
100
AcDbLine
 10
10932.92016920633
 20
4778.529115510897
 30
0.0
 11
11012.92016886818
 21
4778.529115510897
 31
0.0
  0
LINE
  5
25D31
330
1F
100
AcDbEntity
  8
D-STR
  6
Continuous
100
AcDbLine
 10
10937.91956918514
 20
4705.528715819464
 30
0.0
 11
10927.92016922746
 21
4695.528115861738
 31
0.0
  0
LINE
  5
25D32
330
1F
100
AcDbEntity
  8
D-STR
  6
Continuous
100
AcDbLine
 10
11037.9201687625
 20
4705.528715819464
 30
0.0
 11
10937.9201691852
 21
4705.528715819464
 31
0.0
  0
LINE
  5
25D33
330
1F
100
AcDbEntity
  8
D-STR
  6
Continuous
100
AcDbLine
 10
11037.9201687625
 20
4695.529115861734
 30
0.0
 11
10927.92016922746
 21
4695.529115861734
 31
0.0
  0
TEXT
  5
25D34
330
1F
100
AcDbEntity
  8
D-STR-DIM
100
AcDbText
 10
10804.65816974846
 20
5111.528714103329
 30
0.0
 40
70.0
  1
10
100
AcDbText
  0
LINE
  5
25D35
330
1F
100
AcDbEntity
  8
D-STR-DIM
  6
Continuous
100
AcDbLine
 10
10932.92016920633
 20
5095.528914170956
 30
0.0
 11
10804.65776974847
 21
5095.528914170956
 31
0.0
  0
CIRCLE
  5
25D36
330
1F
100
AcDbEntity
  8
D-STR-DIM
  6
Continuous
100
AcDbCircle
 10
10937.9201691852
 20
5095.528914170956
 30
0.0
 40
5.999997974638371
  0
CIRCLE
  5
25D37
330
1F
100
AcDbEntity
  8
D-STR-DIM
  6
Continuous
100
AcDbCircle
 10
10927.92016922746
 20
5095.528914170956
 30
0.0
 40
5.999997974638371
  0
LINE
  5
25D38
330
1F
100
AcDbEntity
  8
D-STR-DIM
  6
Continuous
100
AcDbLine
 10
10937.9201691852
 20
5095.528914170956
 30
0.0
 11
10987.92016897385
 21
5095.528914170956
 31
0.0
  0
LINE
  5
25D39
330
1F
100
AcDbEntity
  8
D-STR-DIM
  6
Continuous
100
AcDbLine
 10
11037.9201687625
 20
5095.528914170956
 30
0.0
 11
10987.92016897385
 21
5095.528914170956
 31
0.0
  0
LINE
  5
25D3A
330
1F
100
AcDbEntity
  8
D-STR-DIM
  6
Continuous
100
AcDbLine
 10
10927.92016922746
 20
5095.528914170956
 30
0.0
 11
10932.92016920633
 21
5095.528914170956
 31
0.0
  0
LINE
  5
25D3B
330
1F
100
AcDbEntity
  8
D-STR-DIM
  6
Continuous
100
AcDbLine
 10
10937.9201691852
 20
5095.528914170956
 30
0.0
 11
10932.92016920633
 21
5095.528914170956
 31
0.0
  0
TEXT
  5
25D3C
330
1F
100
AcDbEntity
  8
D-STR-DIM
100
AcDbText
 10
10576.06031071472
 20
5476.528712560496
 30
0.0
 40
70.0
  1
250
100
AcDbText
  0
LINE
  5
25D3D
330
1F
100
AcDbEntity
  8
D-STR-DIM
  6
Continuous
100
AcDbLine
 10
10787.92036981923
 20
5460.528912628124
 30
0.0
 11
10662.9201703476
 21
5460.528912628124
 31
0.0
  0
LINE
  5
25D3E
330
1F
100
AcDbEntity
  8
D-STR-STR2
  6
Continuous
100
AcDbLine
 10
10787.92036981923
 20
5670.529511740465
 30
0.0
 11
10537.92037087597
 21
5670.529511740465
 31
0.0
  0
LINE
  5
25D3F
330
1F
100
AcDbEntity
  8
D-STR-STR2
  6
Continuous
100
AcDbLine
 10
10797.92016977697
 20
5660.528911782736
 30
0.0
 11
10527.92031091821
 21
5660.528911782736
 31
0.0
  0
LINE
  5
25D40
330
1F
100
AcDbEntity
  8
D-BMK
  6
CENTER2
100
AcDbLine
 10
10827.92016965016
 20
5795.529311212099
 30
0.0
 11
10497.92031104502
 21
5795.529311212099
 31
0.0
  0
LINE
  5
25D41
330
1F
100
AcDbEntity
  8
D-STR-DIM
  6
Continuous
100
AcDbLine
 10
10537.92037087597
 20
5640.528911782736
 30
0.0
 11
10537.92037087597
 21
5430.529312754931
 31
0.0
  0
LINE
  5
25D42
330
1F
100
AcDbEntity
  8
D-STR-DIM
  6
Continuous
100
AcDbLine
 10
10527.92031091821
 20
5640.528911782736
 30
0.0
 11
10527.92031091821
 21
5430.529312754931
 31
0.0
  0
TEXT
  5
25D43
330
1F
100
AcDbEntity
  8
D-STR-DIM
100
AcDbText
 10
10478.060311129
 20
5364.208913035264
 30
0.0
 40
70.0
  1
10
100
AcDbText
  0
LINE
  5
25D44
330
1F
100
AcDbEntity
  8
D-STR-DIM
  6
Continuous
100
AcDbLine
 10
10537.92037087597
 20
5460.528912628124
 30
0.0
 11
10662.9201703476
 21
5460.528912628124
 31
0.0
  0
CIRCLE
  5
25D45
330
1F
100
AcDbEntity
  8
D-STR-DIM
  6
Continuous
100
AcDbCircle
 10
10537.92037087597
 20
5460.528912628124
 30
0.0
 40
5.999997974638371
  0
CIRCLE
  5
25D46
330
1F
100
AcDbEntity
  8
D-STR-DIM
  6
Continuous
100
AcDbCircle
 10
10527.92031091821
 20
5460.528912628124
 30
0.0
 40
5.999997974638371
  0
LINE
  5
25D47
330
1F
100
AcDbEntity
  8
D-STR-DIM
  6
Continuous
100
AcDbLine
 10
10527.92031091821
 20
5460.528912628124
 30
0.0
 11
10532.92033089709
 21
5460.528912628124
 31
0.0
  0
LINE
  5
25D48
330
1F
100
AcDbEntity
  8
D-STR-DIM
  6
Continuous
100
AcDbLine
 10
10537.92037087597
 20
5460.528912628124
 30
0.0
 11
10532.92033089709
 21
5460.528912628124
 31
0.0
  0
LINE
  5
25D49
330
1F
100
AcDbEntity
  8
D-STR-DIM
  6
Continuous
100
AcDbLine
 10
10787.92036981923
 20
5640.528911782736
 30
0.0
 11
10787.92036981923
 21
5430.529312754931
 31
0.0
  0
LINE
  5
25D4A
330
1F
100
AcDbEntity
  8
D-STR-DIM
  6
Continuous
100
AcDbLine
 10
10797.92016977697
 20
5640.528911782736
 30
0.0
 11
10797.92016977697
 21
5430.529312754931
 31
0.0
  0
TEXT
  5
25D4B
330
1F
100
AcDbEntity
  8
D-STR-DIM
100
AcDbText
 10
10738.06037002994
 20
5364.208913035264
 30
0.0
 40
70.0
  1
10
100
AcDbText
  0
CIRCLE
  5
25D4C
330
1F
100
AcDbEntity
  8
D-STR-DIM
  6
Continuous
100
AcDbCircle
 10
10787.92036981923
 20
5460.528912628124
 30
0.0
 40
5.999997974638371
  0
CIRCLE
  5
25D4D
330
1F
100
AcDbEntity
  8
D-STR-DIM
  6
Continuous
100
AcDbCircle
 10
10797.92016977697
 20
5460.528912628124
 30
0.0
 40
5.999997974638371
  0
LINE
  5
25D4E
330
1F
100
AcDbEntity
  8
D-STR-DIM
  6
Continuous
100
AcDbLine
 10
10787.92036981923
 20
5460.528912628124
 30
0.0
 11
10792.9203697981
 21
5460.528912628124
 31
0.0
  0
LINE
  5
25D4F
330
1F
100
AcDbEntity
  8
D-STR-DIM
  6
Continuous
100
AcDbLine
 10
10797.92016977697
 20
5460.528912628124
 30
0.0
 11
10792.9203697981
 21
5460.528912628124
 31
0.0
  0
TEXT
  5
25D50
330
1F
100
AcDbEntity
  8
D-STR-DIM
100
AcDbText
 10
9638.560314677475
 20
7211.528505226755
 30
0.0
 40
70.0
  1
375
100
AcDbText
  0
LINE
  5
25D51
330
1F
100
AcDbEntity
  8
D-STR-DIM
  6
Continuous
100
AcDbLine
 10
9537.920315102885
 20
7495.529104026303
 30
0.0
 11
9912.920313517785
 21
7495.529104026303
 31
0.0
  0
LINE
  5
25D52
330
1F
100
AcDbEntity
  8
D-STR-DIM
  6
Continuous
100
AcDbLine
 10
9537.920315102885
 20
7195.528705294385
 30
0.0
 11
9725.420314310337
 21
7195.528705294385
 31
0.0
  0
LINE
  5
25D53
330
1F
100
AcDbEntity
  8
D-STR
  6
Continuous
100
AcDbLine
 10
11037.9201687625
 20
6795.52890698516
 30
0.0
 11
9537.920315102885
 21
6795.52890698516
 31
0.0
  0
LINE
  5
25D54
330
1F
100
AcDbEntity
  8
D-STR
  6
Continuous
100
AcDbLine
 10
11037.9201687625
 20
6595.528907830547
 30
0.0
 11
9537.920315102885
 21
6595.528907830547
 31
0.0
  0
LINE
  5
25D55
330
1F
100
AcDbEntity
  8
D-STR
  6
Continuous
100
AcDbLine
 10
10177.92031239765
 20
6495.528508253244
 30
0.0
 11
9647.92033463793
 21
6495.528508253244
 31
0.0
  0
LINE
  5
25D56
330
1F
100
AcDbEntity
  8
D-STR-DIM
  6
Continuous
100
AcDbLine
 10
9537.920315102885
 20
6795.52890698516
 30
0.0
 11
9537.920315102885
 21
7525.528903899493
 31
0.0
  0
TEXT
  5
25D57
330
1F
100
AcDbEntity
  8
D-STR-DIM
100
AcDbText
 10
9121.920336861316
 20
5958.669310522514
 30
0.0
 40
70.0
  1
500
 50
90.0
100
AcDbText
  0
TEXT
  5
25D58
330
1F
100
AcDbEntity
  8
D-STR-DIM
100
AcDbText
 10
9121.920336861316
 20
6358.669108831742
 30
0.0
 40
70.0
  1
300
 50
90.0
100
AcDbText
  0
LINE
  5
25D59
330
1F
100
AcDbEntity
  8
D-STR-DIM
  6
Continuous
100
AcDbLine
 10
9137.920356793678
 20
6595.528907830547
 30
0.0
 11
9137.920356793678
 21
6445.52870846459
 31
0.0
  0
LINE
  5
25D5A
330
1F
100
AcDbEntity
  8
D-STR-DIM
  6
Continuous
100
AcDbLine
 10
9477.920315102885
 20
6295.528509098631
 30
0.0
 11
9107.920336920477
 21
6295.528509098631
 31
0.0
  0
LINE
  5
25D5B
330
1F
100
AcDbEntity
  8
D-STR-DIM
  6
Continuous
100
AcDbLine
 10
9137.920356793678
 20
6295.528509098631
 30
0.0
 11
9137.920356793678
 21
6045.528910155365
 31
0.0
  0
CIRCLE
  5
25D5C
330
1F
100
AcDbEntity
  8
D-STR-DIM
  6
Continuous
100
AcDbCircle
 10
9137.920356793678
 20
6295.528509098631
 30
0.0
 40
5.999997974638371
  0
LINE
  5
25D5D
330
1F
100
AcDbEntity
  8
D-STR-DIM
  6
Continuous
100
AcDbLine
 10
9137.920356793678
 20
6295.528509098631
 30
0.0
 11
9137.920356793678
 21
6445.52870846459
 31
0.0
  0
LINE
  5
25D5E
330
1F
100
AcDbEntity
  8
D-STR-STR2
  6
Continuous
100
AcDbLine
 10
9537.920315102885
 20
6345.529308887281
 30
0.0
 11
9621.920554747845
 21
6345.529308887281
 31
0.0
  0
LINE
  5
25D5F
330
1F
100
AcDbEntity
  8
D-STR-STR2
  6
Continuous
100
AcDbLine
 10
9621.920554747845
 20
6245.528909309976
 30
0.0
 11
9537.920315102885
 21
6245.528909309976
 31
0.0
  0
LINE
  5
25D60
330
1F
100
AcDbEntity
  8
D-BMK
  6
CENTER2
100
AcDbLine
 10
9507.920375229714
 20
6295.528509098631
 30
0.0
 11
9651.920554621035
 21
6295.528509098631
 31
0.0
  0
CIRCLE
  5
25D61
330
1F
100
AcDbEntity
  8
D-STR-STR2
  6
Continuous
100
AcDbCircle
 10
9602.920314828139
 20
6519.529108151797
 30
0.0
 40
9.999997957730611
  0
LINE
  5
25D62
330
1F
100
AcDbEntity
  8
D-BMK
  6
CENTER2
100
AcDbLine
 10
9562.920314997212
 20
6519.529108151797
 30
0.0
 11
9642.920314659059
 21
6519.529108151797
 31
0.0
  0
LINE
  5
25D63
330
1F
100
AcDbEntity
  8
D-STR-STR2
  6
Continuous
100
AcDbLine
 10
9621.920554747845
 20
6345.529308887281
 30
0.0
 11
9621.920554747845
 21
6245.528909309976
 31
0.0
  0
LINE
  5
25D64
330
1F
100
AcDbEntity
  8
D-BMK
  6
CENTER2
100
AcDbLine
 10
9602.920314828139
 20
6559.529307982718
 30
0.0
 11
9602.920314828139
 21
6479.528908320874
 31
0.0
  0
LINE
  5
25D65
330
1F
100
AcDbEntity
  8
D-STR-DIM
  6
Continuous
100
AcDbLine
 10
9517.920315102886
 20
6595.528907830547
 30
0.0
 11
9107.920336920477
 21
6595.528907830547
 31
0.0
  0
CIRCLE
  5
25D66
330
1F
100
AcDbEntity
  8
D-STR-DIM
  6
Continuous
100
AcDbCircle
 10
9137.920356793678
 20
6595.528907830547
 30
0.0
 40
5.999997974638371
  0
LINE
  5
25D67
330
1F
100
AcDbEntity
  8
D-STR-DIM
  6
Continuous
100
AcDbLine
 10
9537.920315102885
 20
6795.52890698516
 30
0.0
 11
9537.920315102885
 21
7225.528505167578
 31
0.0
  0
LINE
  5
25D68
330
1F
100
AcDbEntity
  8
D-STR
  6
Continuous
100
AcDbLine
 10
9537.920315102885
 20
6585.52850787282
 30
0.0
 11
9637.920354680206
 21
6585.52850787282
 31
0.0
  0
LINE
  5
25D69
330
1F
100
AcDbEntity
  8
D-STR
  6
Continuous
100
AcDbLine
 10
9537.920315102885
 20
6595.528907830547
 30
0.0
 11
9647.92033463793
 21
6595.528907830547
 31
0.0
  0
LINE
  5
25D6A
330
1F
100
AcDbEntity
  8
D-STR
  6
Continuous
100
AcDbLine
 10
9647.92033463793
 20
6595.528907830547
 30
0.0
 11
9637.920974680193
 21
6585.52850787282
 31
0.0
  0
CIRCLE
  5
25D6B
330
1F
100
AcDbEntity
  8
D-STR-DIM
  6
Continuous
100
AcDbCircle
 10
9537.920315102885
 20
7195.528705294385
 30
0.0
 40
5.999997974638371
  0
CIRCLE
  5
25D6C
330
1F
100
AcDbEntity
  8
D-STR-DIM
  6
Continuous
100
AcDbCircle
 10
9537.920315102885
 20
7495.529104026303
 30
0.0
 40
5.999997974638371
  0
TEXT
  5
25D6D
330
1F
100
AcDbEntity
  8
D-STR-DIM
100
AcDbText
 10
10763.56016992219
 20
7211.528505226755
 30
0.0
 40
70.0
  1
375
100
AcDbText
  0
TEXT
  5
25D6E
330
1F
100
AcDbEntity
  8
D-STR-DIM
100
AcDbText
 10
10201.06031229982
 20
7211.528505226755
 30
0.0
 40
70.0
  1
750
100
AcDbText
  0
LINE
  5
25D6F
330
1F
100
AcDbEntity
  8
D-STR-DIM
  6
Continuous
100
AcDbLine
 10
11037.9201687625
 20
7091.528905733987
 30
0.0
 11
11037.9201687625
 21
7525.528903899493
 31
0.0
  0
LINE
  5
25D70
330
1F
100
AcDbEntity
  8
D-STR-DIM
  6
Continuous
100
AcDbLine
 10
10662.9201703476
 20
7195.528705294385
 30
0.0
 11
10287.92031193268
 21
7195.528705294385
 31
0.0
  0
LINE
  5
25D71
330
1F
100
AcDbEntity
  8
D-STR-HTXT
  6
Continuous
100
AcDbLine
 10
10244.10689211787
 20
6527.385108118588
 30
0.0
 11
10612.73913055969
 21
6995.528906139772
 31
0.0
  0
LINE
  5
25D72
330
1F
100
AcDbEntity
  8
D-STR-HTXT
  6
Continuous
100
AcDbLine
 10
10342.9203317002
 20
6528.189908115186
 30
0.0
 11
10612.73913055969
 21
6995.528906139772
 31
0.0
  0
LINE
  5
25D73
330
1F
100
AcDbEntity
  8
D-STR
  6
Continuous
100
AcDbLine
 10
10387.92029150998
 20
6585.52850787282
 30
0.0
 11
10187.92035235539
 21
6585.52850787282
 31
0.0
  0
LINE
  5
25D74
330
1F
100
AcDbEntity
  8
D-STR
  6
Continuous
100
AcDbLine
 10
10397.92033146772
 20
6595.528907830547
 30
0.0
 11
10177.92031239765
 21
6595.528907830547
 31
0.0
  0
LINE
  5
25D75
330
1F
100
AcDbEntity
  8
D-BMK
  6
CENTER2
100
AcDbLine
 10
10077.92033282034
 20
6295.528509098631
 30
0.0
 11
9747.920294215223
 21
6295.528509098631
 31
0.0
  0
LINE
  5
25D76
330
1F
100
AcDbEntity
  8
D-STR-STR2
  6
Continuous
100
AcDbLine
 10
9777.92031408842
 20
6430.528908527993
 30
0.0
 11
9777.92031408842
 21
6160.529109669267
 31
0.0
  0
LINE
  5
25D77
330
1F
100
AcDbEntity
  8
D-STR-STR2
  6
Continuous
100
AcDbLine
 10
10047.92033294716
 20
6430.528908527993
 30
0.0
 11
10047.92033294716
 21
6160.529109669267
 31
0.0
  0
LINE
  5
25D78
330
1F
100
AcDbEntity
  8
D-BMK
  6
CENTER2
100
AcDbLine
 10
9912.920313517785
 20
6460.528708401184
 30
0.0
 11
9912.920313517785
 21
6130.528509796077
 31
0.0
  0
LINE
  5
25D79
330
1F
100
AcDbEntity
  8
D-STR-STR2
  6
Continuous
100
AcDbLine
 10
10037.9202729894
 20
6420.528508570264
 30
0.0
 11
10037.9202729894
 21
6170.528709626998
 31
0.0
  0
LINE
  5
25D7A
330
1F
100
AcDbEntity
  8
D-STR-STR2
  6
Continuous
100
AcDbLine
 10
9787.920354046168
 20
6420.528508570264
 30
0.0
 11
9787.920354046168
 21
6170.528709626998
 31
0.0
  0
LINE
  5
25D7B
330
1F
100
AcDbEntity
  8
D-STR-STR2
  6
Continuous
100
AcDbLine
 10
10047.92033294716
 20
6160.529109669267
 30
0.0
 11
9777.92031408842
 21
6160.529109669267
 31
0.0
  0
LINE
  5
25D7C
330
1F
100
AcDbEntity
  8
D-STR-STR2
  6
Continuous
100
AcDbLine
 10
10037.9202729894
 20
6170.528709626998
 30
0.0
 11
9787.920354046168
 21
6170.528709626998
 31
0.0
  0
LINE
  5
25D7D
330
1F
100
AcDbEntity
  8
D-STR-STR2
  6
Continuous
100
AcDbLine
 10
10047.92033294716
 20
5930.528710641464
 30
0.0
 11
9777.92031408842
 21
5930.528710641464
 31
0.0
  0
LINE
  5
25D7E
330
1F
100
AcDbEntity
  8
D-STR-STR2
  6
Continuous
100
AcDbLine
 10
10037.9202729894
 20
5920.529110683732
 30
0.0
 11
9787.920354046168
 21
5920.529110683732
 31
0.0
  0
LINE
  5
25D7F
330
1F
100
AcDbEntity
  8
D-STR-STR2
  6
Continuous
100
AcDbLine
 10
10047.92033294716
 20
6430.528908527993
 30
0.0
 11
9777.92031408842
 21
6430.528908527993
 31
0.0
  0
LINE
  5
25D80
330
1F
100
AcDbEntity
  8
D-STR-STR2
  6
Continuous
100
AcDbLine
 10
10037.9202729894
 20
6420.528508570264
 30
0.0
 11
9787.920354046168
 21
6420.528508570264
 31
0.0
  0
LINE
  5
25D81
330
1F
100
AcDbEntity
  8
D-BMK
  6
CENTER2
100
AcDbLine
 10
10277.92027197494
 20
6519.529108151797
 30
0.0
 11
10197.92027231309
 21
6519.529108151797
 31
0.0
  0
CIRCLE
  5
25D82
330
1F
100
AcDbEntity
  8
D-STR-STR2
  6
Continuous
100
AcDbCircle
 10
10337.92031172133
 20
6519.529108151797
 30
0.0
 40
9.999997957730611
  0
CIRCLE
  5
25D83
330
1F
100
AcDbEntity
  8
D-STR-STR2
  6
Continuous
100
AcDbCircle
 10
10237.92033214403
 20
6519.529108151797
 30
0.0
 40
9.999997957730611
  0
LINE
  5
25D84
330
1F
100
AcDbEntity
  8
D-STR-HTXT
  6
Continuous
100
AcDbLine
 10
10263.31175203672
 20
6563.175907967303
 30
0.0
 11
10244.10689211787
 21
6527.385108118588
 31
0.0
  0
LINE
  5
25D85
330
1F
100
AcDbEntity
  8
D-STR-HTXT
  6
Continuous
100
AcDbLine
 10
10356.81215164147
 20
6566.356707953858
 30
0.0
 11
10342.9203317002
 21
6528.18890811519
 31
0.0
  0
LINE
  5
25D86
330
1F
100
AcDbEntity
  8
D-BMK
  6
CENTER2
100
AcDbLine
 10
10337.92031172133
 20
6559.529307982718
 30
0.0
 11
10337.92031172133
 21
6479.528908320874
 31
0.0
  0
LINE
  5
25D87
330
1F
100
AcDbEntity
  8
D-BMK
  6
CENTER2
100
AcDbLine
 10
10237.92033214403
 20
6559.529307982718
 30
0.0
 11
10237.92033214403
 21
6479.528908320874
 31
0.0
  0
LINE
  5
25D88
330
1F
100
AcDbEntity
  8
D-BMK
  6
CENTER2
100
AcDbLine
 10
10377.92037155228
 20
6519.529108151797
 30
0.0
 11
10297.92037189043
 21
6519.529108151797
 31
0.0
  0
LINE
  5
25D89
330
1F
100
AcDbEntity
  8
D-STR-DIM
  6
Continuous
100
AcDbLine
 10
9912.920313517785
 20
7195.528705294385
 30
0.0
 11
10287.92031193268
 21
7195.528705294385
 31
0.0
  0
LINE
  5
25D8A
330
1F
100
AcDbEntity
  8
D-STR-DIM
  6
Continuous
100
AcDbLine
 10
9912.920313517785
 20
6795.52890698516
 30
0.0
 11
9912.920313517785
 21
7225.528505167578
 31
0.0
  0
LINE
  5
25D8B
330
1F
100
AcDbEntity
  8
D-STR-DIM
  6
Continuous
100
AcDbLine
 10
9912.920313517785
 20
7195.528705294385
 30
0.0
 11
9725.420314310337
 21
7195.528705294385
 31
0.0
  0
CIRCLE
  5
25D8C
330
1F
100
AcDbEntity
  8
D-STR-DIM
  6
Continuous
100
AcDbCircle
 10
9912.920313517785
 20
7195.528705294385
 30
0.0
 40
5.999997974638371
  0
LINE
  5
25D8D
330
1F
100
AcDbEntity
  8
D-STR-DIM
  6
Continuous
100
AcDbLine
 10
10287.92031193268
 20
7165.529105421192
 30
0.0
 11
10287.92031193268
 21
6825.528506858353
 31
0.0
  0
LINE
  5
25D8E
330
1F
100
AcDbEntity
  8
D-STR
  6
Continuous
100
AcDbLine
 10
10177.92093239763
 20
6595.528907830547
 30
0.0
 11
10187.92097235538
 21
6585.52850787282
 31
0.0
  0
LINE
  5
25D8F
330
1F
100
AcDbEntity
  8
D-STR-STR2
  6
Continuous
100
AcDbLine
 10
10787.92036981923
 20
6420.528508570264
 30
0.0
 11
10537.92037087597
 21
6420.528508570264
 31
0.0
  0
LINE
  5
25D90
330
1F
100
AcDbEntity
  8
D-STR-STR2
  6
Continuous
100
AcDbLine
 10
10787.92036981923
 20
6170.528709626998
 30
0.0
 11
10537.92037087597
 21
6170.528709626998
 31
0.0
  0
LINE
  5
25D91
330
1F
100
AcDbEntity
  8
D-STR-STR2
  6
Continuous
100
AcDbLine
 10
10797.92016977697
 20
6160.529109669267
 30
0.0
 11
10527.92031091821
 21
6160.529109669267
 31
0.0
  0
LINE
  5
25D92
330
1F
100
AcDbEntity
  8
D-STR-STR2
  6
Continuous
100
AcDbLine
 10
10797.92016977697
 20
6430.528908527993
 30
0.0
 11
10527.92031091821
 21
6430.528908527993
 31
0.0
  0
LINE
  5
25D93
330
1F
100
AcDbEntity
  8
D-BMK
  6
CENTER2
100
AcDbLine
 10
10827.92016965016
 20
6295.528509098631
 30
0.0
 11
10497.92031104502
 21
6295.528509098631
 31
0.0
  0
LINE
  5
25D94
330
1F
100
AcDbEntity
  8
D-STR-STR2
  6
Continuous
100
AcDbLine
 10
10787.92036981923
 20
5920.529110683732
 30
0.0
 11
10537.92037087597
 21
5920.529110683732
 31
0.0
  0
LINE
  5
25D95
330
1F
100
AcDbEntity
  8
D-STR-STR2
  6
Continuous
100
AcDbLine
 10
10797.92016977697
 20
5930.528710641464
 30
0.0
 11
10527.92031091821
 21
5930.528710641464
 31
0.0
  0
LINE
  5
25D96
330
1F
100
AcDbEntity
  8
D-STR
  6
Continuous
100
AcDbLine
 10
10927.92016922746
 20
6495.528508253244
 30
0.0
 11
10397.92033146772
 21
6495.528508253244
 31
0.0
  0
LINE
  5
25D97
330
1F
100
AcDbEntity
  8
D-STR-STR2
  6
Continuous
100
AcDbLine
 10
10537.92037087597
 20
6420.528508570264
 30
0.0
 11
10537.92037087597
 21
6170.528709626998
 31
0.0
  0
LINE
  5
25D98
330
1F
100
AcDbEntity
  8
D-STR-STR2
  6
Continuous
100
AcDbLine
 10
10527.92031091821
 20
6430.528908527993
 30
0.0
 11
10527.92031091821
 21
6160.529109669267
 31
0.0
  0
LINE
  5
25D99
330
1F
100
AcDbEntity
  8
D-BMK
  6
CENTER2
100
AcDbLine
 10
10662.9201703476
 20
6460.528708401184
 30
0.0
 11
10662.9201703476
 21
6130.528509796077
 31
0.0
  0
LINE
  5
25D9A
330
1F
100
AcDbEntity
  8
D-STR-STR2
  6
Continuous
100
AcDbLine
 10
10787.92036981923
 20
6420.528508570264
 30
0.0
 11
10787.92036981923
 21
6170.528709626998
 31
0.0
  0
LINE
  5
25D9B
330
1F
100
AcDbEntity
  8
D-STR-STR2
  6
Continuous
100
AcDbLine
 10
10797.92016977697
 20
6430.528908527993
 30
0.0
 11
10797.92016977697
 21
6160.529109669267
 31
0.0
  0
CIRCLE
  5
25D9C
330
1F
100
AcDbEntity
  8
D-STR-STR2
  6
Continuous
100
AcDbCircle
 10
10972.92016903725
 20
6519.529108151797
 30
0.0
 40
9.999997957730611
  0
LINE
  5
25D9D
330
1F
100
AcDbEntity
  8
D-STR-STR2
  6
Continuous
100
AcDbLine
 10
10953.91996911756
 20
6245.528909309976
 30
0.0
 11
11037.9201687625
 21
6245.528909309976
 31
0.0
  0
LINE
  5
25D9E
330
1F
100
AcDbEntity
  8
D-STR-STR2
  6
Continuous
100
AcDbLine
 10
11037.9201687625
 20
6345.529308887281
 30
0.0
 11
10953.91996911756
 21
6345.529308887281
 31
0.0
  0
LINE
  5
25D9F
330
1F
100
AcDbEntity
  8
D-BMK
  6
CENTER2
100
AcDbLine
 10
10972.92016903725
 20
6559.529307982718
 30
0.0
 11
10972.92016903725
 21
6479.528908320874
 31
0.0
  0
LINE
  5
25DA0
330
1F
100
AcDbEntity
  8
D-STR-STR2
  6
Continuous
100
AcDbLine
 10
10953.91996911756
 20
6345.529308887281
 30
0.0
 11
10953.91996911756
 21
6245.528909309976
 31
0.0
  0
LINE
  5
25DA1
330
1F
100
AcDbEntity
  8
D-BMK
  6
CENTER2
100
AcDbLine
 10
10932.92016920633
 20
6519.529108151797
 30
0.0
 11
11012.92016886818
 21
6519.529108151797
 31
0.0
  0
LINE
  5
25DA2
330
1F
100
AcDbEntity
  8
D-STR-DIM
  6
Continuous
100
AcDbLine
 10
10662.9201703476
 20
7195.528705294385
 30
0.0
 11
10850.42016955505
 21
7195.528705294385
 31
0.0
  0
LINE
  5
25DA3
330
1F
100
AcDbEntity
  8
D-STR
  6
Continuous
100
AcDbLine
 10
10397.92033146772
 20
6595.527907830552
 30
0.0
 11
10387.92029150998
 21
6585.52850787282
 31
0.0
  0
LINE
  5
25DA4
330
1F
100
AcDbEntity
  8
D-STR-DIM
  6
Continuous
100
AcDbLine
 10
10662.9201703476
 20
6869.529106672368
 30
0.0
 11
10662.9201703476
 21
6825.528506858353
 31
0.0
  0
CIRCLE
  5
25DA5
330
1F
100
AcDbEntity
  8
D-STR-DIM
  6
Continuous
100
AcDbCircle
 10
10662.9201703476
 20
7195.528705294385
 30
0.0
 40
5.999997974638371
  0
LINE
  5
25DA6
330
1F
100
AcDbEntity
  8
D-STR-DIM
  6
Continuous
100
AcDbLine
 10
10662.9201703476
 20
7091.528905733987
 30
0.0
 11
10662.9201703476
 21
7225.528505167578
 31
0.0
  0
LINE
  5
25DA7
330
1F
100
AcDbEntity
  8
D-STR-DIM
  6
Continuous
100
AcDbLine
 10
11037.9201687625
 20
6869.529106672368
 30
0.0
 11
11037.9201687625
 21
6825.528506858353
 31
0.0
  0
LINE
  5
25DA8
330
1F
100
AcDbEntity
  8
D-STR
  6
Continuous
100
AcDbLine
 10
11037.9201687625
 20
6595.528907830547
 30
0.0
 11
10927.92016922746
 21
6595.528907830547
 31
0.0
  0
LINE
  5
25DA9
330
1F
100
AcDbEntity
  8
D-STR
  6
Continuous
100
AcDbLine
 10
11037.9201687625
 20
6585.52850787282
 30
0.0
 11
10937.9201691852
 21
6585.52850787282
 31
0.0
  0
LINE
  5
25DAA
330
1F
100
AcDbEntity
  8
D-STR
  6
Continuous
100
AcDbLine
 10
10927.92076922745
 20
6595.527907830552
 30
0.0
 11
10937.9201691852
 21
6585.52850787282
 31
0.0
  0
LINE
  5
25DAB
330
1F
100
AcDbEntity
  8
D-STR-DIM
  6
Continuous
100
AcDbLine
 10
11037.9201687625
 20
7195.528705294385
 30
0.0
 11
10850.42016955505
 21
7195.528705294385
 31
0.0
  0
LINE
  5
25DAC
330
1F
100
AcDbEntity
  8
D-STR-DIM
  6
Continuous
100
AcDbLine
 10
11037.9201687625
 20
7091.528905733987
 30
0.0
 11
11037.9201687625
 21
7225.528505167578
 31
0.0
  0
LINE
  5
25DAE
330
1F
100
AcDbEntity
  8
D-STR-DIM
  6
Continuous
100
AcDbLine
 10
10287.92031193268
 20
7495.529104026303
 30
0.0
 11
10662.9201703476
 21
7495.529104026303
 31
0.0
  0
LINE
  5
25DB2
330
1F
100
AcDbEntity
  8
D-STR-DIM
  6
Continuous
100
AcDbLine
 10
10287.92031193268
 20
7495.529104026303
 30
0.0
 11
9912.920313517785
 21
7495.529104026303
 31
0.0
  0
TEXT
  5
25DB3
330
1F
100
AcDbEntity
  8
D-STR-DIM
100
AcDbText
 10
9826.060313884923
 20
7511.528903958671
 30
0.0
 40
70.0
  1
750
100
AcDbText
  0
CIRCLE
  5
25DB4
330
1F
100
AcDbEntity
  8
D-STR-DIM
  6
Continuous
100
AcDbCircle
 10
10287.92031193268
 20
7495.529104026303
 30
0.0
 40
5.999997974638371
  0
LINE
  5
25DB5
330
1F
100
AcDbEntity
  8
D-STR-DIM
  6
Continuous
100
AcDbLine
 10
10287.92031193268
 20
7302.24970492782
 30
0.0
 11
10287.92031193268
 21
7525.528903899493
 31
0.0
  0
TEXT
  5
25DB7
330
1F
100
AcDbEntity
  8
D-STR-DIM
100
AcDbText
 10
10576.06031071472
 20
7511.528903958671
 30
0.0
 40
70.0
  1
750
100
AcDbText
  0
LINE
  5
25DB8
330
1F
100
AcDbEntity
  8
D-STR-DIM
  6
Continuous
100
AcDbLine
 10
11037.9201687625
 20
7495.529104026303
 30
0.0
 11
10662.9201703476
 21
7495.529104026303
 31
0.0
  0
TEXT
  5
25DB9
330
1F
100
AcDbEntity
  8
D-STR-DIM
100
AcDbText
 10
11334.24036750995
 20
5870.669110894489
 30
0.0
 40
70.0
  1
10
 50
90.0
100
AcDbText
  0
LINE
  5
25DBA
330
1F
100
AcDbEntity
  8
D-STR-DIM
  6
Continuous
100
AcDbLine
 10
11237.92016791711
 20
5920.529110683732
 30
0.0
 11
11237.92016791711
 21
5795.529311212099
 31
0.0
  0
TEXT
  5
25DBB
330
1F
100
AcDbEntity
  8
D-STR-DIM
100
AcDbText
 10
11221.92016798469
 20
5708.668711579253
 30
0.0
 40
70.0
  1
250
 50
90.0
100
AcDbText
  0
TEXT
  5
25DBC
330
1F
100
AcDbEntity
  8
D-STR-DIM
100
AcDbText
 10
11334.24036750995
 20
5610.668911993492
 30
0.0
 40
70.0
  1
10
 50
90.0
100
AcDbText
  0
CIRCLE
  5
25DBD
330
1F
100
AcDbEntity
  8
D-STR-DIM
  6
Continuous
100
AcDbCircle
 10
11237.92016791711
 20
5670.529511740465
 30
0.0
 40
5.999997974638371
  0
CIRCLE
  5
25DBE
330
1F
100
AcDbEntity
  8
D-STR-DIM
  6
Continuous
100
AcDbCircle
 10
11237.92016791711
 20
5660.528911782736
 30
0.0
 40
5.999997974638371
  0
LINE
  5
25DBF
330
1F
100
AcDbEntity
  8
D-STR-DIM
  6
Continuous
100
AcDbLine
 10
11237.92016791711
 20
5670.529511740465
 30
0.0
 11
11237.92016791711
 21
5665.529111761602
 31
0.0
  0
LINE
  5
25DC0
330
1F
100
AcDbEntity
  8
D-STR-DIM
  6
Continuous
100
AcDbLine
 10
11237.92016791711
 20
5660.528911782736
 30
0.0
 11
11237.92016791711
 21
5665.529111761602
 31
0.0
  0
LINE
  5
25DC1
330
1F
100
AcDbEntity
  8
D-STR-DIM
  6
Continuous
100
AcDbLine
 10
11237.92016791711
 20
5670.529511740465
 30
0.0
 11
11237.92016791711
 21
5795.529311212099
 31
0.0
  0
LINE
  5
25DC2
330
1F
100
AcDbEntity
  8
D-STR-DIM
  6
Continuous
100
AcDbLine
 10
11437.92016707172
 20
6595.528907830547
 30
0.0
 11
11437.92016707172
 21
6445.52870846459
 31
0.0
  0
TEXT
  5
25DC3
330
1F
100
AcDbEntity
  8
D-STR-DIM
100
AcDbText
 10
11421.9201671393
 20
6358.669108831742
 30
0.0
 40
70.0
  1
300
 50
90.0
100
AcDbText
  0
TEXT
  5
25DC4
330
1F
100
AcDbEntity
  8
D-STR-HTXT
100
AcDbText
 10
11265.06016780239
 20
6061.528510087734
 30
0.0
 40
70.0
  1
　連結金具
100
AcDbText
  0
LINE
  5
25DC5
330
1F
100
AcDbEntity
  8
D-STR-HTXT
  6
Continuous
100
AcDbLine
 10
11287.92016770577
 20
6045.528910155365
 30
0.0
 11
11689.24788960398
 21
6045.528910155365
 31
0.0
  0
CIRCLE
  5
25DC6
330
1F
100
AcDbEntity
  8
D-STR-DIM
  6
Continuous
100
AcDbCircle
 10
11237.92016791711
 20
5920.529110683732
 30
0.0
 40
5.999997974638371
  0
CIRCLE
  5
25DC7
330
1F
100
AcDbEntity
  8
D-STR-DIM
  6
Continuous
100
AcDbCircle
 10
11237.92016791711
 20
5930.528710641464
 30
0.0
 40
5.999997974638371
  0
LINE
  5
25DC8
330
1F
100
AcDbEntity
  8
D-STR-DIM
  6
Continuous
100
AcDbLine
 10
11237.92016791711
 20
5930.528710641464
 30
0.0
 11
11237.92016791711
 21
5925.529310662597
 31
0.0
  0
LINE
  5
25DC9
330
1F
100
AcDbEntity
  8
D-STR-DIM
  6
Continuous
100
AcDbLine
 10
11237.92016791711
 20
5920.529110683732
 30
0.0
 11
11237.92016791711
 21
5925.529310662597
 31
0.0
  0
CIRCLE
  5
25DCA
330
1F
100
AcDbEntity
  8
D-STR-DIM
  6
Continuous
100
AcDbCircle
 10
11437.92016707172
 20
6295.528509098631
 30
0.0
 40
5.999997974638371
  0
LINE
  5
25DCB
330
1F
100
AcDbEntity
  8
D-STR-DIM
  6
Continuous
100
AcDbLine
 10
11437.92016707172
 20
6295.528509098631
 30
0.0
 11
11437.92016707172
 21
6445.52870846459
 31
0.0
  0
CIRCLE
  5
25DCC
330
1F
100
AcDbEntity
  8
D-STR-DIM
  6
Continuous
100
AcDbCircle
 10
11437.92016707172
 20
6595.528907830547
 30
0.0
 40
5.999997974638371
  0
TEXT
  5
26768
330
1F
100
AcDbEntity
  8
D-TTL-TXT
100
AcDbText
 10
5155.559073286504
 20
10005.36421456047
 30
0.0
 40
140.0
  1
 頂　版　
100
AcDbText
  0
TEXT
  5
26769
330
1F
100
AcDbEntity
  8
D-TTL-TXT
100
AcDbText
 10
5155.559073286504
 20
7479.336508812251
 30
0.0
 40
140.0
  1
 断面図
100
AcDbText
  0
TEXT
  5
2676A
330
1F
100
AcDbEntity
  8
D-TTL-TXT
100
AcDbText
 10
5044.881874478726
 20
7247.927940130084
 30
0.0
 40
100.0
  1
　車　道　側　
100
AcDbText
  0
TEXT
  5
2676B
330
1F
100
AcDbEntity
  8
D-TTL-TXT
100
AcDbText
 10
5155.559073286503
 20
2960.98525274348
 30
0.0
 40
140.0
  1
 底　版　
100
AcDbText
  0
TEXT
  5
2676C
330
1F
100
AcDbEntity
  8
D-TTL-TXT
100
AcDbText
 10
2723.328584883794
 20
7829.863459919856
 30
0.0
 40
140.0
  1
側壁（車道側）
100
AcDbText
  0
TEXT
  5
2676D
330
1F
100
AcDbEntity
  8
D-TTL-TXT
100
AcDbText
 10
7653.046518270705
 20
7247.927940130084
 30
0.0
 40
100.0
  1
　民　地　側　
100
AcDbText
  0
TEXT
  5
2676E
330
1F
100
AcDbEntity
  8
D-TTL-TXT
100
AcDbText
 10
9774.458401367441
 20
7829.863459919856
 30
0.0
 40
140.0
  1
側壁（民地側）
100
AcDbText
  0
MTEXT
  5
26771
330
1F
100
AcDbEntity
  8
D-STR-HTXT
100
AcDbMText
 10
5561.462862977362
 20
2775.336546296332
 30
0.0
 40
70.0
 41
0.0
 71
     7
 72
     1
  1
\A1;目地側
 73
     1
 44
1.0
1001
ACAD
1000
MTEXTBEGIN
1070
    73
1070
     1
1070
    44
1040
1.0
1070
    74
1070
     0
1000
MTEXTEND
  0
LEADER
  5
26772
330
1F
100
AcDbEntity
  8
D-STR-HTXT
100
AcDbLeader
  3
20
 73
     0
 74
     0
 40
70.00000000000001
 41
219.3333333333334
 76
     3
 10
5985.603572893858
 20
2495.528925161001
 30
0.0
 10
5835.603572893859
 20
2755.336546296332
 30
0.0
 10
5781.201069974567
 20
2755.336546296332
 30
0.0
211
-1.0
221
0.0
231
0.0
210
0.0
220
0.0
230
-1.0
213
-34.40250291929169
223
0.0
233
0.0
1001
ACAD
1000
DSTYLE
1002
{
1070
    41
1040
30.0
1002
}
  0
TEXT
  5
26779
330
1F
100
AcDbEntity
  8
D-TTL-TXT
100
AcDbText
 10
7015.840054270608
 20
10724.60112948968
 30
0.0
 40
200.0
  1
（横断管路用タイプ）
100
AcDbText
  0
TEXT
  5
268AE
330
1F
100
AcDbEntity
  8
D-MTR-TXT
100
AcDbText
 10
12966.34156659525
 20
10005.6751111828
 30
0.0
 40
69.99999999999999
  1
設　計　荷　重
100
AcDbText
  0
TEXT
  5
268AF
330
1F
100
AcDbEntity
  8
D-MTR-TXT
100
AcDbText
 10
13020.10932976232
 20
9682.341546849498
 30
0.0
 40
69.99999999999999
  1
構造形式　　　
100
AcDbText
  0
TEXT
  5
268B0
330
1F
100
AcDbEntity
  8
D-MTR-TXT
100
AcDbText
 10
13003.30961144228
 20
9229.675228782786
 30
0.0
 40
69.99999999999999
  1
土の単位重量
100
AcDbText
  0
TEXT
  5
268B1
330
1F
100
AcDbEntity
  8
D-MTR-TXT
100
AcDbText
 10
13013.67273174498
 20
9553.00879311609
 30
0.0
 40
69.99999999999999
  1
内空寸法
100
AcDbText
  0
TEXT
  5
268B2
330
1F
100
AcDbEntity
  8
D-MTR-TXT
100
AcDbText
 10
12968.9523866599
 20
8841.675287582782
 30
0.0
 40
69.99999999999999
  1
使　用　材　料
100
AcDbText
  0
LINE
  5
268B3
330
1F
100
AcDbEntity
  8
D-MTR-FRAM
  6
Continuous
100
AcDbLine
 10
12939.31334784191
 20
10179.80842043614
 30
0.0
 11
15647.31271504198
 21
10179.80842043614
 31
0.0
  0
LINE
  5
268B4
330
1F
100
AcDbEntity
  8
D-MTR-FRAM
  6
Continuous
100
AcDbLine
 10
12939.31334784191
 20
9921.14263296937
 30
0.0
 11
15647.31271504198
 21
9921.14263296937
 31
0.0
  0
LINE
  5
268B5
330
1F
100
AcDbEntity
  8
D-MTR-FRAM
  6
Continuous
100
AcDbLine
 10
12939.31334784191
 20
9791.808479236141
 30
0.0
 11
15647.31271504198
 21
9791.808479236141
 31
0.0
  0
LINE
  5
268B6
330
1F
100
AcDbEntity
  8
D-MTR-FRAM
  6
Continuous
100
AcDbLine
 10
12939.31334784191
 20
9662.475445502769
 30
0.0
 11
15647.31271504198
 21
9662.475445502769
 31
0.0
  0
LINE
  5
268B7
330
1F
100
AcDbEntity
  8
D-MTR-FRAM
  6
Continuous
100
AcDbLine
 10
12939.31334784191
 20
9533.141291769487
 30
0.0
 11
15647.31271504198
 21
9533.141291769487
 31
0.0
  0
LINE
  5
268B8
330
1F
100
AcDbEntity
  8
D-MTR-FRAM
  6
Continuous
100
AcDbLine
 10
12939.31334784191
 20
9403.808538036134
 30
0.0
 11
15647.31271504198
 21
9403.808538036134
 31
0.0
  0
LINE
  5
268B9
330
1F
100
AcDbEntity
  8
D-MTR-FRAM
  6
Continuous
100
AcDbLine
 10
12939.31334784191
 20
9145.141350569481
 30
0.0
 11
15647.31271504198
 21
9145.141350569481
 31
0.0
  0
LINE
  5
268BA
330
1F
100
AcDbEntity
  8
D-MTR-FRAM
  6
Continuous
100
AcDbLine
 10
12939.31334784191
 20
9015.808596836127
 30
0.0
 11
15647.31271504198
 21
9015.808596836127
 31
0.0
  0
LINE
  5
268BB
330
1F
100
AcDbEntity
  8
D-MTR-FRAM
  6
Continuous
100
AcDbLine
 10
12939.31334784191
 20
8757.14168936944
 30
0.0
 11
15647.31271504198
 21
8757.14168936944
 31
0.0
  0
LINE
  5
268BC
330
1F
100
AcDbEntity
  8
D-MTR-FRAM
  6
Continuous
100
AcDbLine
 10
12939.31334784192
 20
7998.475333474833
 30
0.0
 11
15647.31271504198
 21
7998.475333474833
 31
0.0
  0
LINE
  5
268BD
330
1F
100
AcDbEntity
  8
D-MTR-FRAM
  6
Continuous
100
AcDbLine
 10
12939.31334784192
 20
8127.8081525833
 30
0.0
 11
15647.31271504198
 21
8127.8081525833
 31
0.0
  0
LINE
  5
268BE
330
1F
100
AcDbEntity
  8
D-MTR-FRAM
  6
Continuous
100
AcDbLine
 10
12939.31334784192
 20
7481.143697040966
 30
0.0
 11
15647.31271504198
 21
7481.143697040966
 31
0.0
  0
LINE
  5
268BF
330
1F
100
AcDbEntity
  8
D-MTR-FRAM
  6
Continuous
100
AcDbLine
 10
12939.31334784192
 20
7610.475956149439
 30
0.0
 11
15647.31271504198
 21
7610.475956149439
 31
0.0
  0
LINE
  5
268C0
330
1F
100
AcDbEntity
  8
D-MTR-FRAM
  6
Continuous
100
AcDbLine
 10
12939.31334784192
 20
7739.8101752579
 30
0.0
 11
15647.31271504198
 21
7739.8101752579
 31
0.0
  0
LINE
  5
268C1
330
1F
100
AcDbEntity
  8
D-MTR-FRAM
  6
Continuous
100
AcDbLine
 10
12939.31334784192
 20
7869.142514366368
 30
0.0
 11
15647.31271504198
 21
7869.142514366368
 31
0.0
  0
LINE
  5
268C2
330
1F
100
AcDbEntity
  8
D-MTR-FRAM
  6
Continuous
100
AcDbLine
 10
12939.31334784192
 20
8627.80891681619
 30
0.0
 11
15647.31271504198
 21
8627.80891681619
 31
0.0
  0
TEXT
  5
268C3
330
1F
100
AcDbEntity
  8
D-MTR-TXT
100
AcDbText
 10
13019.30934752352
 20
7888.012794098905
 30
0.0
 40
70.0
  1
連結金具
100
AcDbText
  0
TEXT
  5
268C4
330
1F
100
AcDbEntity
  8
D-MTR-TXT
100
AcDbText
 10
13019.30934752352
 20
7758.680174990441
 30
0.0
 40
70.0
  1
ピットバルブ　φ75　Ｌ＝130
100
AcDbText
  0
TEXT
  5
268C5
330
1F
100
AcDbEntity
  8
D-MTR-TXT
100
AcDbText
 10
13019.30934752352
 20
7629.345955881979
 30
0.0
 40
70.0
  1
吊り用インサート　Ｍ20（Ｙ－Ｄ32×150）
100
AcDbText
  0
TEXT
  5
268C6
330
1F
100
AcDbEntity
  8
D-MTR-TXT
100
AcDbText
 10
13019.30934752352
 20
7500.013976773506
 30
0.0
 40
70.0
  1
支持受金物用インサート　Ｍ16（セラミック）
100
AcDbText
  0
LINE
  5
268C7
330
1F
100
AcDbEntity
  8
D-MTR-FRAM
  6
Continuous
100
AcDbLine
 10
12939.31334784191
 20
10179.80842043614
 30
0.0
 11
12939.31334784192
 21
8627.808916816194
 31
0.0
  0
LINE
  5
268C8
330
1F
100
AcDbEntity
  8
D-MTR-FRAM
  6
Continuous
100
AcDbLine
 10
12939.31334784192
 20
8127.8081525833
 30
0.0
 11
12939.31334784192
 21
7481.143697040966
 31
0.0
  0
LINE
  5
268C9
330
1F
100
AcDbEntity
  8
D-MTR-FRAM
  6
Continuous
100
AcDbLine
 10
14120.64624437529
 20
10179.80842043614
 30
0.0
 11
14120.64624437529
 21
8627.808916816194
 31
0.0
  0
LINE
  5
268CA
330
1F
100
AcDbEntity
  8
D-MTR-FRAM
  6
Continuous
100
AcDbLine
 10
15647.31271504198
 20
10179.80842043614
 30
0.0
 11
15647.31271504198
 21
8627.808916816194
 31
0.0
  0
LINE
  5
268CB
330
1F
100
AcDbEntity
  8
D-MTR-FRAM
  6
Continuous
100
AcDbLine
 10
13579.31298384195
 20
9403.808538036134
 30
0.0
 11
13579.31298384195
 21
9145.141350569481
 31
0.0
  0
TEXT
  5
268CC
330
1F
100
AcDbEntity
  8
D-MTR-TXT
100
AcDbText
 10
13607.30897304235
 20
9165.008851916086
 30
0.0
 40
69.99999999999999
  1
地下水位以下
100
AcDbText
  0
TEXT
  5
268CD
330
1F
100
AcDbEntity
  8
D-MTR-MTXT
100
AcDbText
 10
14156.64223077569
 20
9035.675818182713
 30
0.0
 40
69.99999999999999
  1
ｋａ＝0.5　（静止土圧係数）
100
AcDbText
  0
TEXT
  5
268CE
330
1F
100
AcDbEntity
  8
D-MTR-MTXT
100
AcDbText
 10
14156.64223077569
 20
8777.008910716078
 30
0.0
 40
69.99999999999999
  1
ＳＤ２９５Ａ　　
100
AcDbText
  0
TEXT
  5
268CF
330
1F
100
AcDbEntity
  8
D-MTR-MTXT
100
AcDbText
 10
14156.64223077569
 20
8906.341664449485
 30
0.0
 40
69.99999999999999
  1
設計基準強度　　
100
AcDbText
  0
LINE
  5
268D0
330
1F
100
AcDbEntity
  8
D-MTR-FRAM
  6
Continuous
100
AcDbLine
 10
13579.31298384195
 20
8886.475843102722
 30
0.0
 11
15647.31271504198
 21
8886.475843102722
 31
0.0
  0
TEXT
  5
268D1
330
1F
100
AcDbEntity
  8
D-MTR-MTXT
100
AcDbText
 10
14381.69509830802
 20
8647.676143271119
 30
0.0
 40
70.0
  1
5,420
100
AcDbText
  0
TEXT
  5
268D2
330
1F
100
AcDbEntity
  8
D-MTR
100
AcDbText
 10
13688.58348526054
 20
8182.669601697744
 30
0.0
 40
140.0
  1
　材　料　表　
100
AcDbText
  0
TEXT
  5
268D3
330
1F
100
AcDbEntity
  8
D-MTR-TXT
100
AcDbText
 10
13839.65880720115
 20
8017.345333207375
 30
0.0
 40
70.0
  1
種　　類
100
AcDbText
  0
TEXT
  5
268D4
330
1F
100
AcDbEntity
  8
D-MTR-TXT
100
AcDbText
 10
13297.37719911093
 20
9035.675818182713
 30
0.0
 40
69.99999999999999
  1
土　圧　係　数
100
AcDbText
  0
TEXT
  5
268D5
330
1F
100
AcDbEntity
  8
D-MTR-TXT
100
AcDbText
 10
13696.90924408232
 20
8777.008910716078
 30
0.0
 40
69.99999999999999
  1
鉄　　筋
100
AcDbText
  0
TEXT
  5
268D6
330
1F
100
AcDbEntity
  8
D-MTR-TXT
100
AcDbText
 10
13607.30897304235
 20
8906.341664449485
 30
0.0
 40
69.99999999999999
  1
コンクリ－ト
100
AcDbText
  0
TEXT
  5
268D7
330
1F
100
AcDbEntity
  8
D-MTR-TXT
100
AcDbText
 10
13272.08460570545
 20
8647.676143271119
 30
0.0
 40
70.0
  1
製　品　質　量
100
AcDbText
  0
LINE
  5
268D8
330
1F
100
AcDbEntity
  8
D-MTR-FRAM
  6
Continuous
100
AcDbLine
 10
13579.31298384195
 20
9015.808596836127
 30
0.0
 11
13579.31298384195
 21
8757.14168936944
 31
0.0
  0
LINE
  5
268D9
330
1F
100
AcDbEntity
  8
D-MTR-FRAM
  6
Continuous
100
AcDbLine
 10
15041.3127180509
 20
8127.8081525833
 30
0.0
 11
15041.3127180509
 21
7481.143697040966
 31
0.0
  0
TEXT
  5
268DA
330
1F
100
AcDbEntity
  8
D-MTR-MTXT
100
AcDbText
 10
15029.62415201501
 20
7758.680174990441
 30
0.0
 40
70.0
  1
　　　1　個
100
AcDbText
  0
LINE
  5
268DB
330
1F
100
AcDbEntity
  8
D-MTR-FRAM
  6
Continuous
100
AcDbLine
 10
15647.31271504198
 20
8127.8081525833
 30
0.0
 11
15647.31271504198
 21
7481.143697040966
 31
0.0
  0
TEXT
  5
268DC
330
1F
100
AcDbEntity
  8
D-MTR-MTXT
100
AcDbText
 10
15013.31291756533
 20
7629.345955881979
 30
0.0
 40
70.0
  1
　　　4　本
100
AcDbText
  0
TEXT
  5
268DD
330
1F
100
AcDbEntity
  8
D-MTR-MTXT
100
AcDbText
 10
15045.93538646468
 20
7500.013976773506
 30
0.0
 40
70.0
  1
　　16　本
100
AcDbText
  0
TEXT
  5
268DE
330
1F
100
AcDbEntity
  8
D-MTR-TXT
100
AcDbText
 10
15198.37426721279
 20
8017.345333207375
 30
0.0
 40
70.0
  1
個　　数
100
AcDbText
  0
TEXT
  5
268DF
330
1F
100
AcDbEntity
  8
D-MTR-MTXT
100
AcDbText
 10
15013.31291756533
 20
7888.012794098905
 30
0.0
 40
70.0
  1
　　　8　個
100
AcDbText
  0
TEXT
  5
268E0
330
1F
100
AcDbEntity
  8
D-MTR-MTXT
100
AcDbText
 10
14678.46231350926
 20
8775.547078875279
 30
0.0
 40
69.99999999999999
  1
σｓａ＝160Ｎ／ｍｍ
100
AcDbText
  0
TEXT
  5
268E1
330
1F
100
AcDbEntity
  8
D-MTR-MTXT
100
AcDbText
 10
14678.46231350926
 20
8904.879832608683
 30
0.0
 40
69.99999999999999
  1
σｃｋ＝　35Ｎ／ｍｍ
100
AcDbText
  0
TEXT
  5
268E2
330
1F
100
AcDbEntity
  8
D-MTR-MTXT
100
AcDbText
 10
14749.44280187268
 20
8655.215370069104
 30
0.0
 40
70.0
  1
 kg
100
AcDbText
  0
TEXT
  5
268E3
330
1F
100
AcDbEntity
  8
D-MTR-MTXT
100
AcDbText
 10
15553.69313999246
 20
8945.657899536319
 30
0.0
 40
49.99999999999999
  1
2
100
AcDbText
  0
TEXT
  5
268E4
330
1F
100
AcDbEntity
  8
D-MTR-MTXT
100
AcDbText
 10
15523.60827190119
 20
8816.325145802913
 30
0.0
 40
49.99999999999999
  1
2
100
AcDbText
  0
TEXT
  5
268E5
330
1F
100
AcDbEntity
  8
D-MTR-MTXT
100
AcDbText
 10
14224.33324851171
 20
9553.00879311609
 30
0.0
 40
69.99999999999999
  1
1,200
100
AcDbText
  0
TEXT
  5
268E6
330
1F
100
AcDbEntity
  8
D-MTR-MTXT
100
AcDbText
 10
14470.24219941569
 20
9811.675700582728
 30
0.0
 40
69.99999999999999
  1
0.200
100
AcDbText
  0
TEXT
  5
268E7
330
1F
100
AcDbEntity
  8
D-MTR-MTXT
100
AcDbText
 10
14156.64223077569
 20
9682.341546849498
 30
0.0
 40
69.99999999999999
  1
鉄筋コンクリ－ト箱形
100
AcDbText
  0
LINE
  5
268E8
330
1F
100
AcDbEntity
  8
D-MTR-MTXT
  6
Continuous
100
AcDbLine
 10
14188.64622757529
 20
9468.474914902785
 30
0.0
 11
15028.64670357524
 21
9468.474914902785
 31
0.0
  0
TEXT
  5
268E9
330
1F
100
AcDbEntity
  8
D-MTR-MTXT
100
AcDbText
 10
14156.64223077569
 20
9294.34160564949
 30
0.0
 40
69.99999999999999
  1
γ＝19.0ｋＮ／ｍ
100
AcDbText
  0
TEXT
  5
268EA
330
1F
100
AcDbEntity
  8
D-MTR-MTXT
100
AcDbText
 10
14156.64223077569
 20
10070.34288804932
 30
0.0
 40
69.99999999999999
  1
Ｔ－25　（後輪１輪　100ｋＮ）
100
AcDbText
  0
LINE
  5
268EB
330
1F
100
AcDbEntity
  8
D-MTR-FRAM
  6
Continuous
100
AcDbLine
 10
13579.31298384195
 20
10050.47538670277
 30
0.0
 11
15647.31271504198
 21
10050.47538670277
 31
0.0
  0
LINE
  5
268EC
330
1F
100
AcDbEntity
  8
D-MTR-FRAM
  6
Continuous
100
AcDbLine
 10
13579.31298384195
 20
9274.475784302728
 30
0.0
 11
15647.31271504198
 21
9274.475784302728
 31
0.0
  0
TEXT
  5
268ED
330
1F
100
AcDbEntity
  8
D-MTR
100
AcDbText
 10
13416.37963384934
 20
10263.80801203617
 30
0.0
 40
139.9999999999999
  1
　設　計　条　件　
100
AcDbText
  0
LINE
  5
268EE
330
1F
100
AcDbEntity
  8
D-MTR-FRAM
  6
Continuous
100
AcDbLine
 10
13579.31298384195
 20
10179.80842043614
 30
0.0
 11
13579.31298384195
 21
9921.14263296937
 31
0.0
  0
TEXT
  5
268EF
330
1F
100
AcDbEntity
  8
D-MTR-TXT
100
AcDbText
 10
13652.10952856229
 20
10070.34288804932
 30
0.0
 40
69.99999999999999
  1
活　荷　重
100
AcDbText
  0
TEXT
  5
268F0
330
1F
100
AcDbEntity
  8
D-MTR-TXT
100
AcDbText
 10
13792.37617786896
 20
9553.00879311609
 30
0.0
 40
69.99999999999999
  1
×
100
AcDbText
  0
TEXT
  5
268F1
330
1F
100
AcDbEntity
  8
D-MTR-TXT
100
AcDbText
 10
13418.24012547506
 20
9682.341546849498
 30
0.0
 40
69.99999999999999
  1
　（工場製品）
100
AcDbText
  0
TEXT
  5
268F2
330
1F
100
AcDbEntity
  8
D-MTR-TXT
100
AcDbText
 10
13202.7504676074
 20
9811.675700582728
 30
0.0
 40
69.99999999999999
  1
許　容　土　被　り
100
AcDbText
  0
TEXT
  5
268F3
330
1F
100
AcDbEntity
  8
D-MTR-TXT
100
AcDbText
 10
13267.21858775938
 20
9423.675759382721
 30
0.0
 40
69.99999999999999
  1
地　下　水　位
100
AcDbText
  0
TEXT
  5
268F4
330
1F
100
AcDbEntity
  8
D-MTR-TXT
100
AcDbText
 10
13607.30897304235
 20
9294.34160564949
 30
0.0
 40
69.99999999999999
  1
地下水位以上
100
AcDbText
  0
TEXT
  5
268F5
330
1F
100
AcDbEntity
  8
D-MTR-TXT
100
AcDbText
 10
13652.10952856229
 20
9941.008454316133
 30
0.0
 40
69.99999999999999
  1
衝　　　撃
100
AcDbText
  0
TEXT
  5
268F6
330
1F
100
AcDbEntity
  8
D-MTR-TXT
100
AcDbText
 10
13351.0811525039
 20
9553.00879311609
 30
0.0
 40
69.99999999999999
  1
　（幅
100
AcDbText
  0
TEXT
  5
268F7
330
1F
100
AcDbEntity
  8
D-MTR-TXT
100
AcDbText
 10
13603.57592474899
 20
9553.00879311609
 30
0.0
 40
69.99999999999999
  1
×
100
AcDbText
  0
TEXT
  5
268F8
330
1F
100
AcDbEntity
  8
D-MTR-TXT
100
AcDbText
 10
13691.30952464229
 20
9553.00879311609
 30
0.0
 40
69.99999999999999
  1
高
100
AcDbText
  0
TEXT
  5
268F9
330
1F
100
AcDbEntity
  8
D-MTR-TXT
100
AcDbText
 10
13893.44227109568
 20
9553.00879311609
 30
0.0
 40
69.99999999999999
  1
長）
100
AcDbText
  0
TEXT
  5
268FA
330
1F
100
AcDbEntity
  8
D-MTR-MTXT
100
AcDbText
 10
14156.64223077569
 20
9811.675700582728
 30
0.0
 40
69.99999999999999
  1
Ｈ′＝
100
AcDbText
  0
TEXT
  5
268FB
330
1F
100
AcDbEntity
  8
D-MTR-MTXT
100
AcDbText
 10
14156.64223077569
 20
9941.008454316133
 30
0.0
 40
69.99999999999999
  1
ｉ＝0.3
100
AcDbText
  0
TEXT
  5
268FC
330
1F
100
AcDbEntity
  8
D-MTR-MTXT
100
AcDbText
 10
14969.58133115262
 20
9811.675700582728
 30
0.0
 40
69.99999999999999
  1
1.000　ｍ
100
AcDbText
  0
TEXT
  5
268FD
330
1F
100
AcDbEntity
  8
D-MTR-MTXT
100
AcDbText
 10
14733.24231231629
 20
9553.00879311609
 30
0.0
 40
69.99999999999999
  1
1,900
100
AcDbText
  0
TEXT
  5
268FE
330
1F
100
AcDbEntity
  8
D-MTR-MTXT
100
AcDbText
 10
14582.77551482902
 20
9553.00879311609
 30
0.0
 40
69.99999999999999
  1
×
100
AcDbText
  0
TEXT
  5
268FF
330
1F
100
AcDbEntity
  8
D-MTR-MTXT
100
AcDbText
 10
14875.37606911125
 20
9341.683964690906
 30
0.0
 40
49.99999999999999
  1
3
100
AcDbText
  0
TEXT
  5
26900
330
1F
100
AcDbEntity
  8
D-MTR-MTXT
100
AcDbText
 10
14835.18190459256
 20
9811.675700582728
 30
0.0
 40
69.99999999999999
  1
～
100
AcDbText
  0
TEXT
  5
26910
330
1F
100
AcDbEntity
  8
D-MTR-MTXT
100
AcDbText
 10
15216.00603288398
 20
9553.00879311609
 30
0.0
 40
69.99999999999999
  1
1,500
100
AcDbText
  0
TEXT
  5
26911
330
1F
100
AcDbEntity
  8
D-MTR-MTXT
100
AcDbText
 10
15065.53923539671
 20
9553.00879311609
 30
0.0
 40
69.99999999999999
  1
×
100
AcDbText
  0
VIEWPORT
  5
2E
102
{ACAD_XDICTIONARY
360
26926
102
}
330
1B
100
AcDbEntity
 67
     1
  8
0
100
AcDbViewport
 10
473.1810839499198
 20
473.2126938647103
 30
0.0
 40
2443.154659054329
 41
1598.230339464706
 68
     1
 69
     1
 12
473.1810839499198
 22
473.2126938647103
 13
0.0
 23
0.0
 14
10.0
 24
10.0
 15
10.0
 25
10.0
 16
0.0
 26
0.0
 36
1.0
 17
0.0
 27
0.0
 37
0.0
 42
50.0
 43
0.0
 44
0.0
 45
1598.230339464706
 50
0.0
 51
0.0
 72
   100
 90
    32800
  1

281
     0
 71
     1
 74
     0
110
0.0
120
0.0
130
0.0
111
1.0
121
0.0
131
0.0
112
0.0
122
1.0
132
0.0
 79
     0
146
0.0
  0
ENDSEC
  0
SECTION
  2
OBJECTS
  0
DICTIONARY
  5
C
330
0
100
AcDbDictionary
281
     1
  3
ACAD_COLOR
350
2691C
  3
ACAD_GROUP
350
D
  3
ACAD_LAYOUT
350
1A
  3
ACAD_MATERIAL
350
2691B
  3
ACAD_MLINESTYLE
350
17
  3
ACAD_PLOTSETTINGS
350
19
  3
ACAD_PLOTSTYLENAME
350
7E80
  3
ACAD_TABLESTYLE
350
2691D
  3
AcadDim
350
8E27
  3
ACDBHEADERROUNDTRIPXREC
350
26925
  3
AcDbVariableDictionary
350
7E86
1001
ACAD
1000
TREAT_AS_HARD
1070
     0
  0
DICTIONARY
  5
7BCB
330
1F
100
AcDbDictionary
280
     1
281
     1
  3
ACAD_LAYOUTSELFREF
360
7DA3
1001
ACAD
1000
TREAT_AS_HARD
1070
     1
  0
DICTIONARY
  5
7BCD
330
1B
100
AcDbDictionary
280
     1
281
     1
  3
ACAD_LAYOUTSELFREF
360
7DA2
1001
ACAD
1000
TREAT_AS_HARD
1070
     1
  0
DICTIONARY
  5
26926
330
2E
100
AcDbDictionary
280
     1
281
     1
  3
ACAD_XREC_ROUNDTRIP
360
26927
  0
DICTIONARY
  5
2691C
102
{ACAD_REACTORS
330
C
102
}
330
C
100
AcDbDictionary
281
     1
  0
DICTIONARY
  5
D
102
{ACAD_REACTORS
330
C
102
}
330
C
100
AcDbDictionary
281
     1
1001
ACAD
1000
TREAT_AS_HARD
1070
     0
  0
DICTIONARY
  5
1A
102
{ACAD_REACTORS
330
C
102
}
330
C
100
AcDbDictionary
281
     1
  3
Model
350
7E82
  3
ﾚｲｱｳﾄ1
350
7E83
1001
ACAD
1000
TREAT_AS_HARD
1070
     0
  0
DICTIONARY
  5
2691B
102
{ACAD_REACTORS
330
C
102
}
330
C
100
AcDbDictionary
281
     1
  0
DICTIONARY
  5
17
102
{ACAD_REACTORS
330
C
102
}
330
C
100
AcDbDictionary
281
     1
  3
STANDARD
350
18
1001
ACAD
1000
TREAT_AS_HARD
1070
     0
  0
DICTIONARY
  5
19
102
{ACAD_REACTORS
330
C
102
}
330
C
100
AcDbDictionary
281
     1
1001
ACAD
1000
TREAT_AS_HARD
1070
     0
  0
ACDBDICTIONARYWDFLT
  5
7E80
102
{ACAD_REACTORS
330
C
102
}
330
C
100
AcDbDictionary
281
     1
  3
Normal
350
7E81
100
AcDbDictionaryWithDefault
340
7E81
  0
DICTIONARY
  5
2691D
102
{ACAD_REACTORS
330
C
102
}
330
C
100
AcDbDictionary
281
     1
  3
Standard
350
2691E
  0
XRECORD
  5
8E27
102
{ACAD_REACTORS
330
C
102
}
330
C
100
AcDbXrecord
280
     1
 90
   990106
  3

 60
     0
 61
     0
 62
     1
 63
     3
 64
     0
 65
     0
 66
     0
 67
     3
 68
     1
 69
     0
 70
     0
 71
     0
 72
     0
 40
0.0
170
     0
340
0
  0
DICTIONARY
  5
26925
102
{ACAD_REACTORS
330
C
102
}
330
C
100
AcDbDictionary
281
     1
  0
DICTIONARY
  5
7E86
102
{ACAD_REACTORS
330
C
102
}
330
C
100
AcDbDictionary
281
     1
  3
CTABLESTYLE
350
26922
  3
DIMASSOC
350
7E87
  3
PROJECTNAME
350
26923
  3
SORTENTS
350
B6AF
  0
XRECORD
  5
7DA3
102
{ACAD_REACTORS
330
7BCB
102
}
330
7BCB
100
AcDbXrecord
280
     1
340
1F
  0
XRECORD
  5
7DA2
102
{ACAD_REACTORS
330
7BCD
102
}
330
7BCD
100
AcDbXrecord
280
     1
340
1B
  0
XRECORD
  5
26927
102
{ACAD_REACTORS
330
26926
102
}
330
26926
100
AcDbXrecord
280
     1
102
SHADEPLOT
 70
     0
  0
LAYOUT
  5
7E82
102
{ACAD_XDICTIONARY
360
26928
102
}
102
{ACAD_REACTORS
330
1A
102
}
330
1A
100
AcDbPlotSettings
  1

  2
RICOH IPSiO NX730N RPCS
  4
A3
  6

 40
5.873749732971191
 41
5.873747825622558
 42
5.873748779296875
 43
5.873748779296875
 44
296.9259948730469
 45
419.9466552734374
 46
-5.91
 47
-6.15
 48
0.0
 49
0.0
140
16819.99993279995
141
11879.99995240002
142
1.0
143
40.0
 70
 11948
 72
     1
 73
     1
 74
     4
  7
canon国土交通省.ctb
 75
     0
147
0.025
148
0.0
149
0.0
100
AcDbLayout
  1
Model
 70
     1
 71
     0
 10
0.0
 20
0.0
 11
12.0
 21
9.0
 12
0.0
 22
0.0
 32
0.0
 14
0.0
 24
0.0
 34
0.0
 15
0.0
 25
0.0
 35
0.0
146
0.0
 13
0.0
 23
0.0
 33
0.0
 16
1.0
 26
0.0
 36
0.0
 17
0.0
 27
1.0
 37
0.0
 76
     0
330
1F
  0
LAYOUT
  5
7E83
102
{ACAD_XDICTIONARY
360
2692A
102
}
102
{ACAD_REACTORS
330
1A
102
}
330
1A
100
AcDbPlotSettings
  1

  2
Canon LASER SHOT LBP-740
  4

  6

 40
0.0
 41
0.0
 42
0.0
 43
0.0
 44
0.0
 45
0.0
 46
0.0
 47
0.0
 48
0.0
 49
0.0
140
0.0
141
0.0
142
1.0
143
0.000000000000000E+99
 70
   688
 72
     0
 73
     1
 74
     1
  7
国土交通省.ctb
 75
     0
147
0.0
148
182.4834335403793
149
501.366229236586
100
AcDbLayout
  1
ﾚｲｱｳﾄ1
 70
     1
 71
     1
 10
-7.184387147259029
 20
-19.73882792270024
 11
-7.184387147259029
 21
-19.73882792270024
 12
0.0
 22
0.0
 32
0.0
 14
-7.18438714725903
 24
-19.73882792270024
 34
-0.0015258207003583
 15
833.8481947040165
 25
574.2966304217307
 35
0.0000000349246037
146
0.0
 13
0.0
 23
0.0
 33
0.0
 16
1.0
 26
0.0
 36
0.0
 17
0.0
 27
1.0
 37
0.0
 76
     0
330
1B
331
2E
  0
MLINESTYLE
  5
18
102
{ACAD_REACTORS
330
17
102
}
330
17
100
AcDbMlineStyle
  2
STANDARD
 70
     0
  3

 62
   256
 51
90.0
 52
90.0
 71
     2
 49
0.5
 62
   256
  6
BYLAYER
 49
-0.5
 62
   256
  6
BYLAYER
  0
ACDBPLACEHOLDER
  5
7E81
102
{ACAD_REACTORS
330
7E80
102
}
330
7E80
  0
TABLESTYLE
  5
2691E
102
{ACAD_REACTORS
330
2691D
102
}
330
2691D
100
AcDbTableStyle
  3
Standard
 70
     0
 71
     0
 40
0.06
 41
0.06
280
     0
281
     0
  7
STANDARD
140
0.18
170
     2
 62
     0
 63
     7
283
     0
274
    -2
284
     1
 64
     0
275
    -2
285
     1
 65
     0
276
    -2
286
     1
 66
     0
277
    -2
287
     1
 67
     0
278
    -2
288
     1
 68
     0
279
    -2
289
     1
 69
     0
  7
STANDARD
140
0.25
170
     5
 62
     0
 63
     7
283
     0
274
    -2
284
     1
 64
     0
275
    -2
285
     1
 65
     0
276
    -2
286
     1
 66
     0
277
    -2
287
     1
 67
     0
278
    -2
288
     1
 68
     0
279
    -2
289
     1
 69
     0
  7
STANDARD
140
0.18
170
     5
 62
     0
 63
     7
283
     0
274
    -2
284
     1
 64
     0
275
    -2
285
     1
 65
     0
276
    -2
286
     1
 66
     0
277
    -2
287
     1
 67
     0
278
    -2
288
     1
 68
     0
279
    -2
289
     1
 69
     0
  0
DICTIONARYVAR
  5
26922
102
{ACAD_REACTORS
330
7E86
102
}
330
7E86
100
DictionaryVariables
280
     0
  1
STANDARD
  0
DICTIONARYVAR
  5
7E87
102
{ACAD_REACTORS
330
7E86
102
}
330
7E86
100
DictionaryVariables
280
     0
  1
1
  0
DICTIONARYVAR
  5
26923
102
{ACAD_REACTORS
330
7E86
102
}
330
7E86
100
DictionaryVariables
280
     0
  1

  0
DICTIONARYVAR
  5
B6AF
102
{ACAD_REACTORS
330
7E86
102
}
330
7E86
100
DictionaryVariables
280
     0
  1
112
  0
DICTIONARY
  5
26928
330
7E82
100
AcDbDictionary
280
     1
281
     1
  3
ACAD_XREC_ROUNDTRIP
360
26929
  0
DICTIONARY
  5
2692A
330
7E83
100
AcDbDictionary
280
     1
281
     1
  3
ACAD_XREC_ROUNDTRIP
360
2692B
  0
XRECORD
  5
26929
102
{ACAD_REACTORS
330
26928
102
}
330
26928
100
AcDbXrecord
280
     1
102
SHADEPLOT
 70
     2
102
SHADEPLOTRESLEVEL
 70
     2
102
SHADEPLOTCUSTOMDPI
 70
   300
  0
XRECORD
  5
2692B
102
{ACAD_REACTORS
330
2692A
102
}
330
2692A
100
AcDbXrecord
280
     1
102
SHADEPLOT
 70
     0
102
SHADEPLOTRESLEVEL
 70
     2
102
SHADEPLOTCUSTOMDPI
 70
   300
  0
ENDSEC
  0
EOF
