  0
SECTION
  2
HEADER
  9
$ACADVER
  1
AC1015
  9
$ACADMAINTVER
 70
    20
  9
$DWGCODEPAGE
  3
ANSI_932
  9
$INSBASE
 10
0.0
 20
0.0
 30
0.0
  9
$EXTMIN
 10
0.0
 20
0.0
 30
0.0
  9
$EXTMAX
 10
16819.99993279995
 20
11879.99995240002
 30
0.0
  9
$LIMMIN
 10
0.0
 20
0.0
  9
$LIMMAX
 10
420.0
 20
297.0
  9
$ORTHOMODE
 70
     0
  9
$REGENMODE
 70
     1
  9
$FILLMODE
 70
     1
  9
$QTEXTMODE
 70
     0
  9
$MIRRTEXT
 70
     0
  9
$LTSCALE
 40
20.0
  9
$ATTMODE
 70
     1
  9
$TEXTSIZE
 40
2.5
  9
$TRACEWID
 40
1.0
  9
$TEXTSTYLE
  7
STANDARD
  9
$CLAYER
  8
0
  9
$CELTYPE
  6
BYLAYER
  9
$CECOLOR
 62
   256
  9
$CELTSCALE
 40
1.0
  9
$DISPSILH
 70
     0
  9
$DIMSCALE
 40
1.0
  9
$DIMASZ
 40
20.0
  9
$DIMEXO
 40
20.0
  9
$DIMDLI
 40
0.0
  9
$DIMRND
 40
0.0
  9
$DIMDLE
 40
0.0
  9
$DIMEXE
 40
20.0
  9
$DIMTP
 40
0.0
  9
$DIMTM
 40
0.0
  9
$DIMTXT
 40
70.0
  9
$DIMCEN
 40
20.0
  9
$DIMTSZ
 40
0.0
  9
$DIMTOL
 70
     0
  9
$DIMLIM
 70
     0
  9
$DIMTIH
 70
     0
  9
$DIMTOH
 70
     0
  9
$DIMSE1
 70
     0
  9
$DIMSE2
 70
     0
  9
$DIMTAD
 70
     1
  9
$DIMZIN
 70
     8
  9
$DIMBLK
  1
OPEN
  9
$DIMASO
 70
     1
  9
$DIMSHO
 70
     1
  9
$DIMPOST
  1

  9
$DIMAPOST
  1

  9
$DIMALT
 70
     0
  9
$DIMALTD
 70
     3
  9
$DIMALTF
 40
0.03937007874016
  9
$DIMLFAC
 40
1.0
  9
$DIMTOFL
 70
     1
  9
$DIMTVP
 40
0.0
  9
$DIMTIX
 70
     1
  9
$DIMSOXD
 70
     0
  9
$DIMSAH
 70
     0
  9
$DIMBLK1
  1

  9
$DIMBLK2
  1

  9
$DIMSTYLE
  2
20
  9
$DIMCLRD
 70
   256
  9
$DIMCLRE
 70
   256
  9
$DIMCLRT
 70
   256
  9
$DIMTFAC
 40
1.0
  9
$DIMGAP
 40
20.0
  9
$DIMJUST
 70
     0
  9
$DIMSD1
 70
     0
  9
$DIMSD2
 70
     0
  9
$DIMTOLJ
 70
     1
  9
$DIMTZIN
 70
     8
  9
$DIMALTZ
 70
     0
  9
$DIMALTTZ
 70
     0
  9
$DIMUPT
 70
     0
  9
$DIMDEC
 70
     0
  9
$DIMTDEC
 70
     0
  9
$DIMALTU
 70
     2
  9
$DIMALTTD
 70
     3
  9
$DIMTXSTY
  7
STANDARD
  9
$DIMAUNIT
 70
     1
  9
$DIMADEC
 70
     4
  9
$DIMALTRND
 40
0.0
  9
$DIMAZIN
 70
     0
  9
$DIMDSEP
 70
    46
  9
$DIMATFIT
 70
     3
  9
$DIMFRAC
 70
     0
  9
$DIMLDRBLK
  1
OPEN
  9
$DIMLUNIT
 70
     2
  9
$DIMLWD
 70
    -2
  9
$DIMLWE
 70
    -2
  9
$DIMTMOVE
 70
     1
  9
$LUNITS
 70
     2
  9
$LUPREC
 70
     4
  9
$SKETCHINC
 40
1.0
  9
$FILLETRAD
 40
10.0
  9
$AUNITS
 70
     0
  9
$AUPREC
 70
     0
  9
$MENU
  1
.
  9
$ELEVATION
 40
0.0
  9
$PELEVATION
 40
0.0
  9
$THICKNESS
 40
0.0
  9
$LIMCHECK
 70
     0
  9
$CHAMFERA
 40
150.0
  9
$CHAMFERB
 40
150.0
  9
$CHAMFERC
 40
20.0
  9
$CHAMFERD
 40
0.0
  9
$SKPOLY
 70
     0
  9
$TDCREATE
 40
2452404.412662234
  9
$TDUCREATE
 40
2452404.037662234
  9
$TDUPDATE
 40
2454744.613839699
  9
$TDUUPDATE
 40
2454744.238839699
  9
$TDINDWG
 40
1.6864159838
  9
$TDUSRTIMER
 40
1.6864152894
  9
$USRTIMER
 70
     1
  9
$ANGBASE
 50
0.0
  9
$ANGDIR
 70
     0
  9
$PDMODE
 70
     0
  9
$PDSIZE
 40
0.0
  9
$PLINEWID
 40
0.0
  9
$SPLFRAME
 70
     0
  9
$SPLINETYPE
 70
     6
  9
$SPLINESEGS
 70
     8
  9
$HANDSEED
  5
299D4
  9
$SURFTAB1
 70
     6
  9
$SURFTAB2
 70
     6
  9
$SURFTYPE
 70
     6
  9
$SURFU
 70
     6
  9
$SURFV
 70
     6
  9
$UCSBASE
  2

  9
$UCSNAME
  2

  9
$UCSORG
 10
0.0
 20
0.0
 30
0.0
  9
$UCSXDIR
 10
1.0
 20
0.0
 30
0.0
  9
$UCSYDIR
 10
0.0
 20
1.0
 30
0.0
  9
$UCSORTHOREF
  2

  9
$UCSORTHOVIEW
 70
     0
  9
$UCSORGTOP
 10
0.0
 20
0.0
 30
0.0
  9
$UCSORGBOTTOM
 10
0.0
 20
0.0
 30
0.0
  9
$UCSORGLEFT
 10
0.0
 20
0.0
 30
0.0
  9
$UCSORGRIGHT
 10
0.0
 20
0.0
 30
0.0
  9
$UCSORGFRONT
 10
0.0
 20
0.0
 30
0.0
  9
$UCSORGBACK
 10
0.0
 20
0.0
 30
0.0
  9
$PUCSBASE
  2

  9
$PUCSNAME
  2

  9
$PUCSORG
 10
0.0
 20
0.0
 30
0.0
  9
$PUCSXDIR
 10
1.0
 20
0.0
 30
0.0
  9
$PUCSYDIR
 10
0.0
 20
1.0
 30
0.0
  9
$PUCSORTHOREF
  2

  9
$PUCSORTHOVIEW
 70
     0
  9
$PUCSORGTOP
 10
0.0
 20
0.0
 30
0.0
  9
$PUCSORGBOTTOM
 10
0.0
 20
0.0
 30
0.0
  9
$PUCSORGLEFT
 10
0.0
 20
0.0
 30
0.0
  9
$PUCSORGRIGHT
 10
0.0
 20
0.0
 30
0.0
  9
$PUCSORGFRONT
 10
0.0
 20
0.0
 30
0.0
  9
$PUCSORGBACK
 10
0.0
 20
0.0
 30
0.0
  9
$USERI1
 70
     0
  9
$USERI2
 70
     0
  9
$USERI3
 70
     0
  9
$USERI4
 70
     0
  9
$USERI5
 70
     0
  9
$USERR1
 40
0.0
  9
$USERR2
 40
0.0
  9
$USERR3
 40
0.0
  9
$USERR4
 40
0.0
  9
$USERR5
 40
0.0
  9
$WORLDVIEW
 70
     1
  9
$SHADEDGE
 70
     3
  9
$SHADEDIF
 70
    70
  9
$TILEMODE
 70
     1
  9
$MAXACTVP
 70
    48
  9
$PINSBASE
 10
0.0
 20
0.0
 30
0.0
  9
$PLIMCHECK
 70
     0
  9
$PEXTMIN
 10
-7.18438714725903
 20
-19.73882792270024
 30
-0.0015258207003583
  9
$PEXTMAX
 10
833.8481947040165
 20
574.2966304217307
 30
0.0000000349246037
  9
$PLIMMIN
 10
-7.184387147259029
 20
-19.73882792270024
  9
$PLIMMAX
 10
-7.184387147259029
 20
-19.73882792270024
  9
$UNITMODE
 70
     0
  9
$VISRETAIN
 70
     1
  9
$PLINEGEN
 70
     0
  9
$PSLTSCALE
 70
     1
  9
$TREEDEPTH
 70
  3020
  9
$CMLSTYLE
  2
STANDARD
  9
$CMLJUST
 70
     0
  9
$CMLSCALE
 40
20.0
  9
$PROXYGRAPHICS
 70
     1
  9
$MEASUREMENT
 70
     0
  9
$CELWEIGHT
370
    -1
  9
$ENDCAPS
280
     0
  9
$JOINSTYLE
280
     0
  9
$LWDISPLAY
290
     0
  9
$INSUNITS
 70
     0
  9
$HYPERLINKBASE
  1

  9
$STYLESHEET
  1
canon国土交通省.ctb
  9
$XEDIT
290
     1
  9
$CEPSNTYPE
380
     0
  9
$PSTYLEMODE
290
     1
  9
$FINGERPRINTGUID
  2
{2179596F-6415-11D6-8A52-000255ECC0C6}
  9
$VERSIONGUID
  2
{3E403F2E-8E18-11D6-9BFD-000629A6C5B5}
  9
$EXTNAMES
290
     1
  9
$PSVPSCALE
 40
0.0
  9
$OLESTARTUP
290
     0
  0
ENDSEC
  0
SECTION
  2
CLASSES
  0
CLASS
  1
ACDBDICTIONARYWDFLT
  2
AcDbDictionaryWithDefault
  3
ObjectDBX Classes
 90
        0
280
     0
281
     0
  0
CLASS
  1
ACDBPLACEHOLDER
  2
AcDbPlaceHolder
  3
ObjectDBX Classes
 90
        0
280
     0
281
     0
  0
CLASS
  1
LAYOUT
  2
AcDbLayout
  3
ObjectDBX Classes
 90
        0
280
     0
281
     0
  0
CLASS
  1
DICTIONARYVAR
  2
AcDbDictionaryVar
  3
ObjectDBX Classes
 90
        0
280
     0
281
     0
  0
CLASS
  1
PLOTSETTINGS
  2
AcDbPlotSettings
  3
ObjectDBX Classes
 90
    32768
280
     0
281
     0
  0
CLASS
  1
TABLESTYLE
  2
AcDbTableStyle
  3
ObjectDBX Classes
 90
     2047
280
     0
281
     0
  0
ENDSEC
  0
SECTION
  2
TABLES
  0
TABLE
  2
VPORT
  5
8
330
0
100
AcDbSymbolTable
 70
     2
  0
VPORT
  5
299CC
330
8
100
AcDbSymbolTableRecord
100
AcDbViewportTableRecord
  2
*Active
 70
     0
 10
0.0
 20
0.0
 11
1.0
 21
1.0
 12
8410.000044726597
 22
6008.881810022005
 13
0.0
 23
0.0
 14
10.0
 24
10.0
 15
10.0
 25
10.0
 16
0.0
 26
0.0
 36
1.0
 17
0.0
 27
0.0
 37
0.0
 40
12138.62530868256
 41
1.786538461538461
 42
50.0
 43
0.0
 44
0.0
 50
0.0
 51
0.0
 71
     0
 72
   100
 73
     1
 74
     3
 75
     0
 76
     0
 77
     0
 78
     0
281
     0
 65
     1
110
0.0
120
0.0
130
0.0
111
1.0
121
0.0
131
0.0
112
0.0
122
1.0
132
0.0
 79
     0
146
0.0
  0
ENDTAB
  0
TABLE
  2
LTYPE
  5
5
330
0
100
AcDbSymbolTable
 70
     4
  0
LTYPE
  5
14
330
5
100
AcDbSymbolTableRecord
100
AcDbLinetypeTableRecord
  2
BYBLOCK
 70
     0
  3

 72
    65
 73
     0
 40
0.0
  0
LTYPE
  5
15
330
5
100
AcDbSymbolTableRecord
100
AcDbLinetypeTableRecord
  2
BYLAYER
 70
     0
  3

 72
    65
 73
     0
 40
0.0
  0
LTYPE
  5
16
330
5
100
AcDbSymbolTableRecord
100
AcDbLinetypeTableRecord
  2
CONTINUOUS
 70
     0
  3
Solid line
 72
    65
 73
     0
 40
0.0
  0
LTYPE
  5
86
330
5
100
AcDbSymbolTableRecord
100
AcDbLinetypeTableRecord
  2
CENTER
 70
     0
  3
____ _ ____ _ ____ _ ____ _ ____ _ ____ _ ____
 72
    65
 73
     4
 40
17.5
 49
13.0
 74
     0
 49
-1.5
 74
     0
 49
1.5
 74
     0
 49
-1.5
 74
     0
  0
LTYPE
  5
1CC8E
330
5
100
AcDbSymbolTableRecord
100
AcDbLinetypeTableRecord
  2
CENTER2
 70
     0
  3
----------  --  ----------  --  
 72
    65
 73
     4
 40
20.0
 49
12.5
 74
     0
 49
-2.5
 74
     0
 49
2.5
 74
     0
 49
-2.5
 74
     0
  0
LTYPE
  5
2684A
330
5
100
AcDbSymbolTableRecord
100
AcDbLinetypeTableRecord
  2
DASHED1
 70
     0
  3
--  --  --  --  --  --  --  --  
 72
    65
 73
     2
 40
2.5
 49
1.25
 74
     0
 49
-1.25
 74
     0
  0
ENDTAB
  0
TABLE
  2
LAYER
  5
2
330
0
100
AcDbSymbolTable
 70
    16
  0
LAYER
  5
10
330
2
100
AcDbSymbolTableRecord
100
AcDbLayerTableRecord
  2
0
 70
     0
 62
     7
  6
CONTINUOUS
370
    13
390
7E81
  0
LAYER
  5
AC
330
2
100
AcDbSymbolTableRecord
100
AcDbLayerTableRecord
  2
D-STR-DIM
 70
     0
 62
     7
  6
CONTINUOUS
370
    13
390
7E81
  0
LAYER
  5
D6
330
2
100
AcDbSymbolTableRecord
100
AcDbLayerTableRecord
  2
D-TTL-TXT
 70
     0
 62
     7
  6
CONTINUOUS
370
    13
390
7E81
  0
LAYER
  5
3CD
330
2
100
AcDbSymbolTableRecord
100
AcDbLayerTableRecord
  2
DEFPOINTS
 70
     0
 62
     7
  6
CONTINUOUS
290
     0
370
    13
390
7E81
  0
LAYER
  5
3CE
330
2
100
AcDbSymbolTableRecord
100
AcDbLayerTableRecord
  2
D-TTL-LINE
 70
     0
 62
     7
  6
CONTINUOUS
370
    13
390
7E81
  0
LAYER
  5
1408F
330
2
100
AcDbSymbolTableRecord
100
AcDbLayerTableRecord
  2
D-STR
 70
     0
 62
     1
  6
CONTINUOUS
370
    18
390
7E81
  0
LAYER
  5
1620E
330
2
100
AcDbSymbolTableRecord
100
AcDbLayerTableRecord
  2
D-TTL
 70
     0
 62
     2
  6
CONTINUOUS
370
    13
390
7E81
  0
LAYER
  5
1620F
330
2
100
AcDbSymbolTableRecord
100
AcDbLayerTableRecord
  2
D-TTL-FRAM
 70
     0
 62
     2
  6
CONTINUOUS
290
     0
370
    13
390
7E81
  0
LAYER
  5
16212
330
2
100
AcDbSymbolTableRecord
100
AcDbLayerTableRecord
  2
D-BMK
 70
     0
 62
     2
  6
CENTER
370
    13
390
7E81
  0
LAYER
  5
16213
330
2
100
AcDbSymbolTableRecord
100
AcDbLayerTableRecord
  2
D-STR-HTXT
 70
     0
 62
     7
  6
CONTINUOUS
370
    13
390
7E81
  0
LAYER
  5
16216
330
2
100
AcDbSymbolTableRecord
100
AcDbLayerTableRecord
  2
D-MTR-FRAM
 70
     0
 62
     7
  6
CONTINUOUS
370
    13
390
7E81
  0
LAYER
  5
16217
330
2
100
AcDbSymbolTableRecord
100
AcDbLayerTableRecord
  2
D-MTR
 70
     0
 62
     6
  6
CONTINUOUS
370
    13
390
7E81
  0
LAYER
  5
16218
330
2
100
AcDbSymbolTableRecord
100
AcDbLayerTableRecord
  2
D-MTR-TXT
 70
     0
 62
     7
  6
CONTINUOUS
370
    13
390
7E81
  0
LAYER
  5
16219
330
2
100
AcDbSymbolTableRecord
100
AcDbLayerTableRecord
  2
D-MTR-MTXT
 70
     0
 62
     7
  6
CONTINUOUS
370
    13
390
7E81
  0
LAYER
  5
1621C
330
2
100
AcDbSymbolTableRecord
100
AcDbLayerTableRecord
  2
D-STR-STR2
 70
     0
 62
     1
  6
CONTINUOUS
370
    18
390
7E81
  0
LAYER
  5
27151
330
2
100
AcDbSymbolTableRecord
100
AcDbLayerTableRecord
  2
D-DCR-HCH
 70
     0
 62
     5
  6
CONTINUOUS
370
    13
390
7E81
  0
ENDTAB
  0
TABLE
  2
STYLE
  5
3
330
0
100
AcDbSymbolTable
 70
     2
  0
STYLE
  5
11
330
3
100
AcDbSymbolTableRecord
100
AcDbTextStyleTableRecord
  2
STANDARD
 70
     0
 40
0.0
 41
1.0
 50
0.0
 71
     0
 42
2.5
  3
simplex.shx
  4
bigfont.shx
  0
STYLE
  5
1F432
330
3
100
AcDbSymbolTableRecord
100
AcDbTextStyleTableRecord
  2
明朝
 70
     0
 40
0.0
 41
1.0
 50
0.0
 71
     0
 42
10.0
  3
MS PMincho.ttf
  4

1001
ACAD
1000
MS PMincho
1071
    32786
  0
ENDTAB
  0
TABLE
  2
VIEW
  5
6
330
0
100
AcDbSymbolTable
 70
     0
  0
ENDTAB
  0
TABLE
  2
UCS
  5
7
330
0
100
AcDbSymbolTable
 70
     0
  0
ENDTAB
  0
TABLE
  2
APPID
  5
9
330
0
100
AcDbSymbolTable
 70
     2
  0
APPID
  5
12
330
9
100
AcDbSymbolTableRecord
100
AcDbRegAppTableRecord
  2
ACAD
 70
     0
  0
APPID
  5
7C1E
330
9
100
AcDbSymbolTableRecord
100
AcDbRegAppTableRecord
  2
CONTENTBLOCKICON
 70
     0
  0
ENDTAB
  0
TABLE
  2
DIMSTYLE
  5
A
330
0
100
AcDbSymbolTable
 70
     2
100
AcDbDimStyleTable
 71
     1
340
1CA9B
  0
DIMSTYLE
105
1CA9B
330
A
100
AcDbSymbolTableRecord
100
AcDbDimStyleTableRecord
  2
20
 70
     0
 41
20.0
 42
20.0
 43
0.0
 44
20.0
 73
     0
 74
     0
 77
     1
 78
     8
140
70.0
141
20.0
143
0.03937007874016
147
20.0
171
     3
172
     1
174
     1
176
   256
177
   256
178
   256
179
     4
271
     0
272
     0
274
     3
275
     1
279
     1
284
     8
340
11
341
31
342
31
  0
DIMSTYLE
105
1CC90
330
A
100
AcDbSymbolTableRecord
100
AcDbDimStyleTableRecord
  2
Standard
 70
     0
340
11
  0
ENDTAB
  0
TABLE
  2
BLOCK_RECORD
  5
1
330
0
100
AcDbSymbolTable
 70
     1
  0
BLOCK_RECORD
  5
1F
102
{ACAD_XDICTIONARY
360
7BCB
102
}
330
1
100
AcDbSymbolTableRecord
100
AcDbBlockTableRecord
  2
*MODEL_SPACE
340
7E82
  0
BLOCK_RECORD
  5
1B
102
{ACAD_XDICTIONARY
360
7BCD
102
}
330
1
100
AcDbSymbolTableRecord
100
AcDbBlockTableRecord
  2
*PAPER_SPACE
340
7E83
  0
BLOCK_RECORD
  5
31
330
1
100
AcDbSymbolTableRecord
100
AcDbBlockTableRecord
  2
_OPEN
340
0
310
2800000020000000200000000100080000000000000400000000000000000000000000000000000000000000000080000080000000808000800000008000800080800000C0C0C000C0DCC000F0CAA6000020400000206000002080000020A0000020C0000020E00000400000004020000040400000406000004080000040A0
310
000040C0000040E00000600000006020000060400000606000006080000060A0000060C0000060E00000800000008020000080400000806000008080000080A0000080C0000080E00000A0000000A0200000A0400000A0600000A0800000A0A00000A0C00000A0E00000C0000000C0200000C0400000C0600000C0800000C0
310
A00000C0C00000C0E00000E0000000E0200000E0400000E0600000E0800000E0A00000E0C00000E0E00040000000400020004000400040006000400080004000A0004000C0004000E00040200000402020004020400040206000402080004020A0004020C0004020E000404000004040200040404000404060004040800040
310
40A0004040C0004040E00040600000406020004060400040606000406080004060A0004060C0004060E00040800000408020004080400040806000408080004080A0004080C0004080E00040A0000040A0200040A0400040A0600040A0800040A0A00040A0C00040A0E00040C0000040C0200040C0400040C0600040C08000
310
40C0A00040C0C00040C0E00040E0000040E0200040E0400040E0600040E0800040E0A00040E0C00040E0E00080000000800020008000400080006000800080008000A0008000C0008000E00080200000802020008020400080206000802080008020A0008020C0008020E00080400000804020008040400080406000804080
310
008040A0008040C0008040E00080600000806020008060400080606000806080008060A0008060C0008060E00080800000808020008080400080806000808080008080A0008080C0008080E00080A0000080A0200080A0400080A0600080A0800080A0A00080A0C00080A0E00080C0000080C0200080C0400080C0600080C0
310
800080C0A00080C0C00080C0E00080E0000080E0200080E0400080E0600080E0800080E0A00080E0C00080E0E000C0000000C0002000C0004000C0006000C0008000C000A000C000C000C000E000C0200000C0202000C0204000C0206000C0208000C020A000C020C000C020E000C0400000C0402000C0404000C0406000C0
310
408000C040A000C040C000C040E000C0600000C0602000C0604000C0606000C0608000C060A000C060C000C060E000C0800000C0802000C0804000C0806000C0808000C080A000C080C000C080E000C0A00000C0A02000C0A04000C0A06000C0A08000C0A0A000C0A0C000C0A0E000C0C00000C0C02000C0C04000C0C06000
310
C0C08000C0C0A000F0FBFF00A4A0A000808080000000FF0000FF000000FFFF00FF000000FF00FF00FFFF0000FFFFFF0000000000000000000000000000000000000000000000000000000000000000000000000000000000000000000000000000000000000000000000000000000000000000000000000000000000000000
310
00000000000000000000000000000000000000000000000000000000000000000000000000000000000000000000000000000000000000000000000000000000000000000000000000000000000000000000000000000000000000000000000000000000000000000000000000000000000000000000000000000000000000
310
00000000000000000000000000000000000000000000000000000000000000000000000000000000000000000000000000000000000000000000000000000000000000000000000000000000000000000000000000000000000000000000000000000000000000000000000000000000000000000000000000000000000000
310
0000000000000000000000000000000000000000FFFFFF0000000000000000000000000000000000000000000000000000000000000000FFFFFFFFFFFF0000000000000000000000000000000000000000000000000000000000000000FFFFFFFFFFFF00000000000000000000000000000000000000000000000000000000
310
00000000FFFFFFFFFFFF0000000000000000000000000000000000000000000000000000000000000000FFFFFFFFFFFF0000000000FFFFFFFFFFFFFFFFFFFFFFFFFFFFFFFFFFFFFFFFFFFFFFFFFFFFFFFFFFFF000000000000000000000000000000000000000000FFFFFFFFFFFFFF00000000000000000000000000000000
310
00FFFFFFFFFFFFFFFF0000000000000000000000000000000000FFFFFFFFFFFFFF000000000000000000000000000000000000000000FFFFFFFF000000000000000000000000000000000000000000000000000000000000000000000000000000000000000000000000000000000000000000000000000000000000000000
310
00000000000000000000000000000000000000000000000000000000000000000000000000000000000000000000000000000000000000000000000000000000000000000000000000000000000000000000000000000000000000000000000000000000000000000000000000000000000000000000000000000000000000
310
00000000000000000000000000000000000000000000000000000000000000000000000000000000000000000000000000000000000000000000000000000000000000000000000000000000000000000000000000000000000000000000000000000000000000000000000000000000000000000000000000000000000000
310
0000000000000000000000000000000000000000000000000000000000000000000000000000000000000000000000000000000000000000
  0
ENDTAB
  0
ENDSEC
  0
SECTION
  2
BLOCKS
  0
BLOCK
  5
20
330
1F
100
AcDbEntity
  8
0
100
AcDbBlockBegin
  2
*MODEL_SPACE
 70
     0
 10
0.0
 20
0.0
 30
0.0
  3
*MODEL_SPACE
  1

  0
ENDBLK
  5
21
330
1F
100
AcDbEntity
  8
0
100
AcDbBlockEnd
  0
BLOCK
  5
1C
330
1B
100
AcDbEntity
 67
     1
  8
0
100
AcDbBlockBegin
  2
*PAPER_SPACE
 70
     0
 10
0.0
 20
0.0
 30
0.0
  3
*PAPER_SPACE
  1

  0
ENDBLK
  5
1D
330
1B
100
AcDbEntity
 67
     1
  8
0
100
AcDbBlockEnd
  0
BLOCK
  5
35
330
31
100
AcDbEntity
  8
0
100
AcDbBlockBegin
  2
_OPEN
 70
     0
 10
0.0
 20
0.0
 30
0.0
  3
_OPEN
  1

  0
LINE
  5
32
330
31
100
AcDbEntity
  8
0
  6
ByBlock
 62
     0
100
AcDbLine
 10
-1.0
 20
0.1666666666666666
 30
0.0
 11
0.0
 21
0.0
 31
0.0
  0
LINE
  5
33
330
31
100
AcDbEntity
  8
0
  6
ByBlock
 62
     0
100
AcDbLine
 10
-1.0
 20
-0.1666666666666666
 30
0.0
 11
0.0
 21
0.0
 31
0.0
  0
LINE
  5
34
330
31
100
AcDbEntity
  8
0
  6
ByBlock
 62
     0
100
AcDbLine
 10
0.0
 20
0.0
 30
0.0
 11
-1.0
 21
0.0
 31
0.0
  0
ENDBLK
  5
36
330
31
100
AcDbEntity
  8
0
100
AcDbBlockEnd
  0
ENDSEC
  0
SECTION
  2
ENTITIES
  0
MTEXT
  5
74C
330
1F
100
AcDbEntity
  8
D-TTL-LINE
 62
     2
100
AcDbMText
 10
21100.96900863203
 20
11716.83874632694
 30
0.0
 40
140.0
 41
0.0
 71
     4
 72
     5
  1
 
 73
     1
 44
1.0
1001
ACAD
1000
MTEXTBEGIN
1070
    73
1070
     1
1070
    44
1040
1.0
1070
    74
1070
     0
1000
MTEXTEND
  0
MTEXT
  5
140A2
330
1F
100
AcDbEntity
  8
D-STR
 62
     2
100
AcDbMText
 10
133389.7438006938
 20
208126.6376526392
 30
0.0
 40
140.0
 41
0.0
 71
     4
 72
     1
  1
 
 73
     1
 44
1.0
1001
ACAD
1000
MTEXTBEGIN
1070
    73
1070
     1
1070
    44
1040
1.0
1070
    74
1070
     0
1000
MTEXTEND
  0
MTEXT
  5
170AD
330
1F
100
AcDbEntity
  8
D-STR
 62
     2
100
AcDbMText
 10
221722.4650715356
 20
207229.3774545898
 30
0.0
 40
140.0
 41
0.0
 71
     4
 72
     1
  1
 
 73
     1
 44
1.0
1001
ACAD
1000
MTEXTBEGIN
1070
    73
1070
     1
1070
    44
1040
1.0
1070
    74
1070
     0
1000
MTEXTEND
  0
LINE
  5
25A14
330
1F
100
AcDbEntity
  8
D-STR-DIM
  6
Continuous
100
AcDbLine
 10
5877.920390488966
 20
2345.528720333386
 30
0.0
 11
5467.920592306546
 21
2345.528720333386
 31
0.0
  0
LINE
  5
25A15
330
1F
100
AcDbEntity
  8
D-STR-DIM
  6
Continuous
100
AcDbLine
 10
5877.920390488966
 20
1745.528922869547
 30
0.0
 11
5467.920592306546
 21
1745.528922869547
 31
0.0
  0
LINE
  5
25A16
330
1F
100
AcDbEntity
  8
D-STR-DIM
  6
Continuous
100
AcDbLine
 10
5877.920390488966
 20
1145.52912540571
 30
0.0
 11
5467.920592306546
 21
1145.52912540571
 31
0.0
  0
LINE
  5
25A17
330
1F
100
AcDbEntity
  8
D-STR-DIM
  6
Continuous
100
AcDbLine
 10
5877.920390488966
 20
995.5289260397531
 30
0.0
 11
5467.920592306546
 21
995.5289260397531
 31
0.0
  0
LINE
  5
25A18
330
1F
100
AcDbEntity
  8
D-STR-DIM
  6
Continuous
100
AcDbLine
 10
5497.920592179736
 20
1745.528922869547
 30
0.0
 11
5497.920592179736
 21
2045.529321601465
 31
0.0
  0
LINE
  5
25A19
330
1F
100
AcDbEntity
  8
D-STR-DIM
  6
Continuous
100
AcDbLine
 10
5497.920592179736
 20
1145.52912540571
 30
0.0
 11
5497.920592179736
 21
1070.528925722732
 31
0.0
  0
TEXT
  5
25A1A
330
1F
100
AcDbEntity
  8
D-STR-DIM
100
AcDbText
 10
5481.920592247385
 20
983.6693260898828
 30
0.0
 40
70.0
  1
150
 50
90.0
100
AcDbText
  0
CIRCLE
  5
25A1B
330
1F
100
AcDbEntity
  8
D-STR-DIM
  6
Continuous
100
AcDbCircle
 10
5497.920592179736
 20
995.5289260397531
 30
0.0
 40
5.999997974638371
  0
LINE
  5
25A1C
330
1F
100
AcDbEntity
  8
D-STR-DIM
  6
Continuous
100
AcDbLine
 10
5497.920592179736
 20
995.5289260397531
 30
0.0
 11
5497.920592179736
 21
1070.528925722732
 31
0.0
  0
TEXT
  5
25A1D
330
1F
100
AcDbEntity
  8
D-STR-DIM
100
AcDbText
 10
5481.920592247385
 20
1358.668724504783
 30
0.0
 40
70.0
  1
600
 50
90.0
100
AcDbText
  0
LINE
  5
25A1E
330
1F
100
AcDbEntity
  8
D-STR-DIM
  6
Continuous
100
AcDbLine
 10
5497.920592179736
 20
1745.528922869547
 30
0.0
 11
5497.920592179736
 21
1445.52892413763
 31
0.0
  0
CIRCLE
  5
25A1F
330
1F
100
AcDbEntity
  8
D-STR-DIM
  6
Continuous
100
AcDbCircle
 10
5497.920592179736
 20
1145.52912540571
 30
0.0
 40
5.999997974638371
  0
LINE
  5
25A20
330
1F
100
AcDbEntity
  8
D-STR-DIM
  6
Continuous
100
AcDbLine
 10
5497.920592179736
 20
1145.52912540571
 30
0.0
 11
5497.920592179736
 21
1445.52892413763
 31
0.0
  0
CIRCLE
  5
25A21
330
1F
100
AcDbEntity
  8
D-STR-DIM
  6
Continuous
100
AcDbCircle
 10
5497.920592179736
 20
1745.528922869547
 30
0.0
 40
5.999997974638371
  0
TEXT
  5
25A29
330
1F
100
AcDbEntity
  8
D-STR-DIM
100
AcDbText
 10
5481.920592247385
 20
1958.669121968618
 30
0.0
 40
70.0
  1
600
 50
90.0
100
AcDbText
  0
LINE
  5
25A2A
330
1F
100
AcDbEntity
  8
D-STR-DIM
  6
Continuous
100
AcDbLine
 10
5497.920592179736
 20
2345.528720333386
 30
0.0
 11
5497.920592179736
 21
2045.529321601465
 31
0.0
  0
CIRCLE
  5
25A2B
330
1F
100
AcDbEntity
  8
D-STR-DIM
  6
Continuous
100
AcDbCircle
 10
5497.920592179736
 20
2345.528720333386
 30
0.0
 40
5.999997974638371
  0
LINE
  5
25A2F
330
1F
100
AcDbEntity
  8
D-STR-DIM
  6
Continuous
100
AcDbLine
 10
7117.920425332115
 20
595.5289277305292
 30
0.0
 11
6917.920486177449
 21
595.5289277305292
 31
0.0
  0
LINE
  5
25A36
330
1F
100
AcDbEntity
  8
D-STR
  6
Continuous
100
AcDbLine
 10
7537.920383556786
 20
995.5289260397531
 30
0.0
 11
5897.920390488966
 21
995.5289260397531
 31
0.0
  0
LINE
  5
25A37
330
1F
100
AcDbEntity
  8
D-STR
  6
Continuous
100
AcDbLine
 10
6092.920589664707
 20
1845.528722446855
 30
0.0
 11
6092.920589664707
 21
1645.528923292242
 31
0.0
  0
TEXT
  5
25A39
330
1F
100
AcDbEntity
  8
D-STR-DIM
100
AcDbText
 10
6431.0603882354
 20
611.5291276628958
 30
0.0
 40
70.0
  1
400
100
AcDbText
  0
LINE
  5
25A3A
330
1F
100
AcDbEntity
  8
D-STR-DIM
  6
Continuous
100
AcDbLine
 10
6317.920588713649
 20
595.5289277305292
 30
0.0
 11
6517.92058786826
 21
595.5289277305292
 31
0.0
  0
LINE
  5
25A3C
330
1F
100
AcDbEntity
  8
D-STR-STR2
  6
Continuous
100
AcDbLine
 10
6367.9205885023
 20
1095.528725617059
 30
0.0
 11
6467.920588079607
 21
1095.528725617059
 31
0.0
  0
LINE
  5
25A3E
330
1F
100
AcDbEntity
  8
D-STR
  6
Continuous
100
AcDbLine
 10
6117.920389559039
 20
1635.528923334512
 30
0.0
 11
6117.920389559039
 21
1105.52892557479
 31
0.0
  0
LINE
  5
25A3F
330
1F
100
AcDbEntity
  8
D-STR
  6
Continuous
100
AcDbLine
 10
6217.920389136347
 20
1145.52912540571
 30
0.0
 11
6092.920589664707
 21
1095.529325617057
 31
0.0
  0
TEXT
  5
25A40
330
1F
100
AcDbEntity
  8
D-STR-DIM
100
AcDbText
 10
6031.060589926171
 20
611.5291276628958
 30
0.0
 40
70.0
  1
420
100
AcDbText
  0
LINE
  5
25A41
330
1F
100
AcDbEntity
  8
D-STR-DIM
  6
Continuous
100
AcDbLine
 10
6317.920588713649
 20
595.5289277305292
 30
0.0
 11
6107.920589601304
 21
595.5289277305292
 31
0.0
  0
LINE
  5
25A42
330
1F
100
AcDbEntity
  8
D-STR-DIM
  6
Continuous
100
AcDbLine
 10
5897.920390488966
 20
975.528926039753
 30
0.0
 11
5897.920390488966
 21
565.5289278573364
 31
0.0
  0
LINE
  5
25A43
330
1F
100
AcDbEntity
  8
D-STR-DIM
  6
Continuous
100
AcDbLine
 10
5897.920390488966
 20
595.5289277305292
 30
0.0
 11
6107.920589601304
 21
595.5289277305292
 31
0.0
  0
CIRCLE
  5
25A44
330
1F
100
AcDbEntity
  8
D-STR-DIM
  6
Continuous
100
AcDbCircle
 10
5897.920390488966
 20
595.5289277305292
 30
0.0
 40
5.999997974638371
  0
LINE
  5
25A45
330
1F
100
AcDbEntity
  8
D-STR
  6
Continuous
100
AcDbLine
 10
6092.920589664707
 20
1095.528725617059
 30
0.0
 11
6092.920589664707
 21
995.5289260397531
 31
0.0
  0
LINE
  5
25A46
330
1F
100
AcDbEntity
  8
D-STR-DIM
  6
Continuous
100
AcDbLine
 10
6317.920588713649
 20
975.528926039753
 30
0.0
 11
6317.920588713649
 21
565.5289278573364
 31
0.0
  0
CIRCLE
  5
25A47
330
1F
100
AcDbEntity
  8
D-STR-DIM
  6
Continuous
100
AcDbCircle
 10
6317.920588713649
 20
595.5289277305292
 30
0.0
 40
5.999997974638371
  0
LINE
  5
25A48
330
1F
100
AcDbEntity
  8
D-BMK
  6
CENTER2
100
AcDbLine
 10
6417.920588290951
 20
965.5291261665606
 30
0.0
 11
6417.920588290951
 21
1125.528925490251
 31
0.0
  0
LINE
  5
25A49
330
1F
100
AcDbEntity
  8
D-STR-STR2
  6
Continuous
100
AcDbLine
 10
6367.9205885023
 20
995.5289260397531
 30
0.0
 11
6367.9205885023
 21
1095.528725617059
 31
0.0
  0
LINE
  5
25A4A
330
1F
100
AcDbEntity
  8
D-STR
  6
Continuous
100
AcDbLine
 10
6217.920389136347
 20
1595.529123503587
 30
0.0
 11
6092.920589664707
 21
1645.528923292242
 31
0.0
  0
LINE
  5
25A4B
330
1F
100
AcDbEntity
  8
D-STR
  6
Continuous
100
AcDbLine
 10
6217.920389136347
 20
1595.529123503587
 30
0.0
 11
6217.920389136347
 21
1145.52912540571
 31
0.0
  0
LINE
  5
25A4E
330
1F
100
AcDbEntity
  8
D-STR-DIM
  6
Continuous
100
AcDbLine
 10
6717.920427022891
 20
595.5289277305292
 30
0.0
 11
6917.920486177449
 21
595.5289277305292
 31
0.0
  0
LINE
  5
25A4F
330
1F
100
AcDbEntity
  8
D-STR-DIM
  6
Continuous
100
AcDbLine
 10
6717.920427022891
 20
975.528926039753
 30
0.0
 11
6717.920427022891
 21
565.5289278573364
 31
0.0
  0
LINE
  5
25A50
330
1F
100
AcDbEntity
  8
D-STR-DIM
  6
Continuous
100
AcDbLine
 10
6717.920427022891
 20
595.5289277305292
 30
0.0
 11
6517.92058786826
 21
595.5289277305292
 31
0.0
  0
CIRCLE
  5
25A51
330
1F
100
AcDbEntity
  8
D-STR-DIM
  6
Continuous
100
AcDbCircle
 10
6717.920427022891
 20
595.5289277305292
 30
0.0
 40
5.999997974638371
  0
LINE
  5
25A52
330
1F
100
AcDbEntity
  8
D-STR-STR2
  6
Continuous
100
AcDbLine
 10
6467.920588079607
 20
1095.528725617059
 30
0.0
 11
6467.920588079607
 21
995.5289260397531
 31
0.0
  0
TEXT
  5
25A53
330
1F
100
AcDbEntity
  8
D-STR-DIM
100
AcDbText
 10
6831.060466544652
 20
611.5291276628958
 30
0.0
 40
70.0
  1
400
100
AcDbText
  0
LINE
  5
25A55
330
1F
100
AcDbEntity
  8
D-BMK
  6
CENTER2
100
AcDbLine
 10
7017.920445754743
 20
965.5291261665606
 30
0.0
 11
7017.920445754743
 21
1125.528925490251
 31
0.0
  0
LINE
  5
25A56
330
1F
100
AcDbEntity
  8
D-STR-STR2
  6
Continuous
100
AcDbLine
 10
6967.920465966097
 20
995.5289260397531
 30
0.0
 11
6967.920465966097
 21
1095.528725617059
 31
0.0
  0
LINE
  5
25A57
330
1F
100
AcDbEntity
  8
D-STR-STR2
  6
Continuous
100
AcDbLine
 10
7067.92042554346
 20
1095.528725617059
 30
0.0
 11
7067.92042554346
 21
995.5289260397531
 31
0.0
  0
LINE
  5
25A58
330
1F
100
AcDbEntity
  8
D-STR-STR2
  6
Continuous
100
AcDbLine
 10
6967.920465966097
 20
1095.528725617059
 30
0.0
 11
7067.92042554346
 21
1095.528725617059
 31
0.0
  0
LINE
  5
25A61
330
1F
100
AcDbEntity
  8
D-STR
  6
Continuous
100
AcDbLine
 10
6217.920389136347
 20
1895.529122235506
 30
0.0
 11
6092.920589664707
 21
1845.528722446855
 31
0.0
  0
LINE
  5
25A63
330
1F
100
AcDbEntity
  8
D-STR
  6
Continuous
100
AcDbLine
 10
6217.920389136347
 20
2345.528720333386
 30
0.0
 11
6217.920389136347
 21
1895.529122235506
 31
0.0
  0
CIRCLE
  5
25A70
330
1F
100
AcDbEntity
  8
D-STR-STR2
  6
Continuous
100
AcDbCircle
 10
6717.920427022891
 20
2045.529321601465
 30
0.0
 40
169.9999952814203
  0
CIRCLE
  5
25A71
330
1F
100
AcDbEntity
  8
D-STR-STR2
  6
Continuous
100
AcDbCircle
 10
6717.920427022891
 20
2045.529321601465
 30
0.0
 40
149.999995365959
  0
LINE
  5
25A72
330
1F
100
AcDbEntity
  8
D-BMK
  6
CENTER2
100
AcDbLine
 10
6917.920486177449
 20
2045.529321601465
 30
0.0
 11
6517.92058786826
 21
2045.529321601465
 31
0.0
  0
LINE
  5
25A73
330
1F
100
AcDbEntity
  8
D-BMK
  6
CENTER2
100
AcDbLine
 10
6717.920427022891
 20
1845.528722446855
 30
0.0
 11
6717.920427022891
 21
2245.529120756077
 31
0.0
  0
CIRCLE
  5
25A74
330
1F
100
AcDbEntity
  8
D-STR-STR2
  6
Continuous
100
AcDbCircle
 10
6717.920427022891
 20
2045.529321601465
 30
0.0
 40
37.49999784148978
  0
TEXT
  5
25A79
330
1F
100
AcDbEntity
  8
D-STR-DIM
100
AcDbText
 10
8221.920400665506
 20
1626.66892337196
 30
0.0
 40
70.0
  1
1500
 50
90.0
100
AcDbText
  0
LINE
  5
25A7A
330
1F
100
AcDbEntity
  8
D-STR-DIM
  6
Continuous
100
AcDbLine
 10
7937.920441865957
 20
2045.529321601465
 30
0.0
 11
7937.920441865957
 21
1520.529123820608
 31
0.0
  0
LINE
  5
25A7C
330
1F
100
AcDbEntity
  8
D-STR
  6
Continuous
100
AcDbLine
 10
7342.920464380994
 20
1845.528722446855
 30
0.0
 11
7342.920464380994
 21
1645.528923292242
 31
0.0
  0
LINE
  5
25A7E
330
1F
100
AcDbEntity
  8
D-STR-DIM
  6
Continuous
100
AcDbLine
 10
7557.920383556787
 20
995.5289260397531
 30
0.0
 11
8267.920420471135
 21
995.5289260397531
 31
0.0
  0
LINE
  5
25A80
330
1F
100
AcDbEntity
  8
D-STR
  6
Continuous
100
AcDbLine
 10
7317.920484486673
 20
1635.528923334512
 30
0.0
 11
7317.920484486673
 21
1105.52892557479
 31
0.0
  0
LINE
  5
25A81
330
1F
100
AcDbEntity
  8
D-STR
  6
Continuous
100
AcDbLine
 10
7217.919884909385
 20
1145.52912540571
 30
0.0
 11
7342.919844381005
 21
1095.529325617057
 31
0.0
  0
LINE
  5
25A82
330
1F
100
AcDbEntity
  8
D-STR-DIM
  6
Continuous
100
AcDbLine
 10
7537.920383556786
 20
595.5289277305292
 30
0.0
 11
7327.920404444448
 21
595.5289277305292
 31
0.0
  0
LINE
  5
25A83
330
1F
100
AcDbEntity
  8
D-STR-HTXT
  6
Continuous
100
AcDbLine
 10
7517.613731773902
 20
2695.528516066901
 30
0.0
 11
7133.390443657605
 21
2695.528516066901
 31
0.0
  0
LINE
  5
25A84
330
1F
100
AcDbEntity
  8
D-STR-DIM
  6
Continuous
100
AcDbLine
 10
7117.920425332115
 20
975.528926039753
 30
0.0
 11
7117.920425332115
 21
565.5289278573364
 31
0.0
  0
TEXT
  5
25A85
330
1F
100
AcDbEntity
  8
D-STR-DIM
100
AcDbText
 10
7231.060464853875
 20
611.5291276628958
 30
0.0
 40
70.0
  1
420
100
AcDbText
  0
LINE
  5
25A86
330
1F
100
AcDbEntity
  8
D-STR-DIM
  6
Continuous
100
AcDbLine
 10
7117.920425332115
 20
595.5289277305292
 30
0.0
 11
7327.920404444448
 21
595.5289277305292
 31
0.0
  0
CIRCLE
  5
25A87
330
1F
100
AcDbEntity
  8
D-STR-DIM
  6
Continuous
100
AcDbCircle
 10
7117.920425332115
 20
595.5289277305292
 30
0.0
 40
5.999997974638371
  0
TEXT
  5
25A88
330
1F
100
AcDbEntity
  8
D-STR-HTXT
100
AcDbText
 10
7110.530383754213
 20
2711.52871599927
 30
0.0
 40
70.0
  1
　連結金具
100
AcDbText
  0
LINE
  5
25A89
330
1F
100
AcDbEntity
  8
D-STR
  6
Continuous
100
AcDbLine
 10
7342.920464380994
 20
1095.528725617059
 30
0.0
 11
7342.920464380994
 21
995.5289260397531
 31
0.0
  0
LINE
  5
25A8A
330
1F
100
AcDbEntity
  8
D-STR-DIM
  6
Continuous
100
AcDbLine
 10
7537.920383556786
 20
975.528926039753
 30
0.0
 11
7537.920383556786
 21
565.5289278573364
 31
0.0
  0
CIRCLE
  5
25A8B
330
1F
100
AcDbEntity
  8
D-STR-DIM
  6
Continuous
100
AcDbCircle
 10
7537.920383556786
 20
595.5289277305292
 30
0.0
 40
5.999997974638371
  0
LINE
  5
25A8C
330
1F
100
AcDbEntity
  8
D-STR
  6
Continuous
100
AcDbLine
 10
7217.920384909405
 20
1595.529123503587
 30
0.0
 11
7217.920384909405
 21
1145.52912540571
 31
0.0
  0
LINE
  5
25A8E
330
1F
100
AcDbEntity
  8
D-STR
  6
Continuous
100
AcDbLine
 10
7217.919884909385
 20
1595.529123503587
 30
0.0
 11
7342.920464380994
 21
1645.529323292241
 31
0.0
  0
LINE
  5
25A8F
330
1F
100
AcDbEntity
  8
D-STR-DIM
  6
Continuous
100
AcDbLine
 10
7937.920441865957
 20
995.5289260397531
 30
0.0
 11
7937.920441865957
 21
1520.529123820608
 31
0.0
  0
LINE
  5
25A90
330
1F
100
AcDbEntity
  8
D-STR-DIM
  6
Continuous
100
AcDbLine
 10
8237.920400597934
 20
995.5289260397531
 30
0.0
 11
8237.920400597934
 21
1745.528922869547
 31
0.0
  0
CIRCLE
  5
25A91
330
1F
100
AcDbEntity
  8
D-STR-DIM
  6
Continuous
100
AcDbCircle
 10
7937.920441865957
 20
995.5289260397531
 30
0.0
 40
5.999997974638371
  0
CIRCLE
  5
25A92
330
1F
100
AcDbEntity
  8
D-STR-DIM
  6
Continuous
100
AcDbCircle
 10
8237.920400597934
 20
995.5289260397531
 30
0.0
 40
5.999997974638371
  0
TEXT
  5
25A93
330
1F
100
AcDbEntity
  8
D-STR-DIM
100
AcDbText
 10
7921.920381933654
 20
1401.669124323023
 30
0.0
 40
70.0
  1
1050
 50
90.0
100
AcDbText
  0
LINE
  5
25A95
330
1F
100
AcDbEntity
  8
D-STR-DIM
  6
Continuous
100
AcDbLine
 10
7557.920383556787
 20
2045.529321601465
 30
0.0
 11
7967.920381739201
 21
2045.529321601465
 31
0.0
  0
LINE
  5
25A9A
330
1F
100
AcDbEntity
  8
D-STR
  6
Continuous
100
AcDbLine
 10
7217.920384909405
 20
2345.528720333386
 30
0.0
 11
7217.920384909405
 21
1895.529122235506
 31
0.0
  0
LINE
  5
25A9C
330
1F
100
AcDbEntity
  8
D-STR
  6
Continuous
100
AcDbLine
 10
7217.920384909405
 20
1895.529122235506
 30
0.0
 11
7342.920464380994
 21
1845.528722446855
 31
0.0
  0
LINE
  5
25AA6
330
1F
100
AcDbEntity
  8
D-STR-DIM
  6
Continuous
100
AcDbLine
 10
7937.920441865957
 20
2045.529321601465
 30
0.0
 11
7937.920441865957
 21
2270.529120650405
 31
0.0
  0
CIRCLE
  5
25AA7
330
1F
100
AcDbEntity
  8
D-STR-DIM
  6
Continuous
100
AcDbCircle
 10
7937.920441865957
 20
2045.529321601465
 30
0.0
 40
5.999997974638371
  0
TEXT
  5
25AA8
330
1F
100
AcDbEntity
  8
D-STR-DIM
100
AcDbText
 10
7921.920381933654
 20
2183.668921017558
 30
0.0
 40
70.0
  1
450
 50
90.0
100
AcDbText
  0
LINE
  5
25B16
330
1F
100
AcDbEntity
  8
D-STR-DIM
  6
Continuous
100
AcDbLine
 10
8237.920400597934
 20
8295.528892000453
 30
0.0
 11
8237.920400597934
 21
9045.528888830245
 31
0.0
  0
LINE
  5
25B17
330
1F
100
AcDbEntity
  8
D-STR
  6
Continuous
100
AcDbLine
 10
7537.920383556786
 20
8295.528892000453
 30
0.0
 11
7537.920383556786
 21
9795.528885660042
 31
0.0
  0
LINE
  5
25B18
330
1F
100
AcDbEntity
  8
D-STR
  6
Continuous
100
AcDbLine
 10
5897.920390488966
 20
8295.528892000453
 30
0.0
 11
5897.920390488966
 21
9795.528885660042
 31
0.0
  0
LINE
  5
25BFA
330
1F
100
AcDbEntity
  8
D-STR
  6
Continuous
100
AcDbLine
 10
5897.920390488966
 20
8295.528892000453
 30
0.0
 11
7537.920383556786
 21
8295.528892000453
 31
0.0
  0
LINE
  5
25BFE
330
1F
100
AcDbEntity
  8
D-STR-DIM
  6
Continuous
100
AcDbLine
 10
5897.920390488966
 20
8265.52929212726
 30
0.0
 11
5897.920390488966
 21
6725.528499059445
 31
0.0
  0
LINE
  5
25C17
330
1F
100
AcDbEntity
  8
D-STR-DIM
  6
Continuous
100
AcDbLine
 10
7537.920383556786
 20
8265.52929212726
 30
0.0
 11
7537.920383556786
 21
6725.528499059445
 31
0.0
  0
LINE
  5
25C53
330
1F
100
AcDbEntity
  8
D-STR-DIM
  6
Continuous
100
AcDbLine
 10
7557.920383556787
 20
8295.528892000453
 30
0.0
 11
8267.920420471135
 21
8295.528892000453
 31
0.0
  0
CIRCLE
  5
25C59
330
1F
100
AcDbEntity
  8
D-STR-DIM
  6
Continuous
100
AcDbCircle
 10
8237.920400597934
 20
8295.528892000453
 30
0.0
 40
5.999997974638371
  0
LINE
  5
25C72
330
1F
100
AcDbEntity
  8
D-STR
  6
Continuous
100
AcDbLine
 10
5897.920390488966
 20
9795.528885660042
 30
0.0
 11
7537.920383556786
 21
9795.528885660042
 31
0.0
  0
LINE
  5
25C8A
330
1F
100
AcDbEntity
  8
D-STR-DIM
  6
Continuous
100
AcDbLine
 10
8237.920400597934
 20
9795.528885660042
 30
0.0
 11
8237.920400597934
 21
9045.528888830245
 31
0.0
  0
TEXT
  5
25C8B
330
1F
100
AcDbEntity
  8
D-STR-DIM
100
AcDbText
 10
8221.920400665506
 20
8926.668889332662
 30
0.0
 40
70.0
  1
1500
 50
90.0
100
AcDbText
  0
LINE
  5
25C8C
330
1F
100
AcDbEntity
  8
D-STR-DIM
  6
Continuous
100
AcDbLine
 10
7557.920383556787
 20
9795.528885660042
 30
0.0
 11
8267.920420471135
 21
9795.528885660042
 31
0.0
  0
CIRCLE
  5
25C94
330
1F
100
AcDbEntity
  8
D-STR-DIM
  6
Continuous
100
AcDbCircle
 10
8237.920400597934
 20
9795.528885660042
 30
0.0
 40
5.999997974638371
  0
TEXT
  5
26CB5
330
1F
100
AcDbEntity
  8
D-STR-HTXT
100
AcDbText
 10
7763.542982603081
 20
8111.528492778212
 30
0.0
 40
70.0
  1
　蓋取付インサート
100
AcDbText
  0
TEXT
  5
26CB6
330
1F
100
AcDbEntity
  8
D-STR-HTXT
100
AcDbText
 10
7715.060442808044
 20
10211.52848390164
 30
0.0
 40
70.0
  1
　吊り用インサート
100
AcDbText
  0
LINE
  5
26CBF
330
1F
100
AcDbEntity
  8
D-STR-HTXT
  6
Continuous
100
AcDbLine
 10
7786.402982506451
 20
8095.528892845843
 30
0.0
 11
8530.009975749031
 21
8095.528892845843
 31
0.0
  0
LINE
  5
26CC0
330
1F
100
AcDbEntity
  8
D-STR-HTXT
  6
Continuous
100
AcDbLine
 10
7737.920442711416
 20
10195.52868396927
 30
0.0
 11
8466.734131113474
 21
10195.52868396927
 31
0.0
  0
TEXT
  5
26DA3
330
1F
100
AcDbEntity
  8
D-STR-DIM
100
AcDbText
 10
5481.920592247381
 20
8333.669091839238
 30
0.0
 40
70.0
  1
250
 50
90.0
100
AcDbText
  0
LINE
  5
26DA4
330
1F
100
AcDbEntity
  8
D-STR-DIM
  6
Continuous
100
AcDbLine
 10
5497.920592179736
 20
8295.528892000453
 30
0.0
 11
5497.920592179736
 21
8420.528691472089
 31
0.0
  0
LINE
  5
26DA5
330
1F
100
AcDbEntity
  8
D-STR-DIM
  6
Continuous
100
AcDbLine
 10
7937.920441866033
 20
8295.528892000453
 30
0.0
 11
7937.920441866033
 21
8670.528290415353
 31
0.0
  0
LINE
  5
26DA6
330
1F
100
AcDbEntity
  8
D-STR-HTXT
  6
Continuous
100
AcDbLine
 10
6727.109886984024
 20
8541.585490960384
 30
0.0
 11
7786.403602506442
 21
8095.52989284584
 31
0.0
  0
LINE
  5
26DA7
330
1F
100
AcDbEntity
  8
D-STR-HTXT
  6
Continuous
100
AcDbLine
 10
7222.919784888287
 20
9036.869088866854
 30
0.0
 11
7786.402422506482
 21
8095.52989284584
 31
0.0
  0
LINE
  5
26DAA
330
1F
100
AcDbEntity
  8
D-STR-DIM
  6
Continuous
100
AcDbLine
 10
5877.920390488966
 20
8295.528892000453
 30
0.0
 11
5467.920592306546
 21
8295.528892000453
 31
0.0
  0
CIRCLE
  5
26E1A
330
1F
100
AcDbEntity
  8
D-STR-DIM
  6
Continuous
100
AcDbCircle
 10
5497.920592179736
 20
8295.528892000453
 30
0.0
 40
5.999997974638371
  0
LINE
  5
26E98
330
1F
100
AcDbEntity
  8
D-STR-DIM
  6
Continuous
100
AcDbLine
 10
6717.920427022888
 20
7895.52889369123
 30
0.0
 11
7127.920465289856
 21
7895.52889369123
 31
0.0
  0
LINE
  5
26E9B
330
1F
100
AcDbEntity
  8
D-DCR-HCH
  6
Continuous
100
AcDbLine
 10
6715.137507034629
 20
6495.528907830546
 30
0.0
 11
6915.13706618924
 21
6695.528906985159
 31
0.0
  0
LINE
  5
26E9C
330
1F
100
AcDbEntity
  8
D-DCR-HCH
  6
Continuous
100
AcDbLine
 10
6804.940106655078
 20
6495.528907830546
 30
0.0
 11
7004.939665809688
 21
6695.528906985159
 31
0.0
  0
LINE
  5
26EB5
330
1F
100
AcDbEntity
  8
D-DCR-HCH
  6
Continuous
100
AcDbLine
 10
6355.927788552988
 20
6495.528907830546
 30
0.0
 11
6555.927187707617
 21
6695.528906985159
 31
0.0
  0
LINE
  5
26EB6
330
1F
100
AcDbEntity
  8
D-DCR-HCH
  6
Continuous
100
AcDbLine
 10
6445.729988173447
 20
6495.528907830546
 30
0.0
 11
6645.729627328012
 21
6695.528906985159
 31
0.0
  0
LINE
  5
26EB7
330
1F
100
AcDbEntity
  8
D-DCR-HCH
  6
Continuous
100
AcDbLine
 10
6312.920588734781
 20
6632.126707253156
 30
0.0
 11
6376.322388466778
 21
6695.528906985159
 31
0.0
  0
LINE
  5
26EB8
330
1F
100
AcDbEntity
  8
D-DCR-HCH
  6
Continuous
100
AcDbLine
 10
6312.920588734781
 20
6542.324107632748
 30
0.0
 11
6466.12498808723
 21
6695.528906985159
 31
0.0
  0
LINE
  5
26EB9
330
1F
100
AcDbEntity
  8
D-STR
  6
DASHED1
100
AcDbLine
 10
6312.920588734781
 20
6495.528907830546
 30
0.0
 11
6312.920588734781
 21
6695.528906985159
 31
0.0
  0
LINE
  5
26EBA
330
1F
100
AcDbEntity
  8
D-DCR-HCH
  6
Continuous
100
AcDbLine
 10
6535.532787793818
 20
6495.528907830546
 30
0.0
 11
6735.53222694846
 21
6695.528906985159
 31
0.0
  0
LINE
  5
26EBB
330
1F
100
AcDbEntity
  8
D-DCR-HCH
  6
Continuous
100
AcDbLine
 10
6625.335187414272
 20
6495.528907830546
 30
0.0
 11
6825.334586568827
 21
6695.528906985159
 31
0.0
  0
LINE
  5
26EBD
330
1F
100
AcDbEntity
  8
D-STR-DIM
  6
Continuous
100
AcDbLine
 10
5897.920390488966
 20
7895.52889369123
 30
0.0
 11
6307.920588755915
 21
7895.52889369123
 31
0.0
  0
CIRCLE
  5
26EC6
330
1F
100
AcDbEntity
  8
D-STR-DIM
  6
Continuous
100
AcDbCircle
 10
5897.920390488966
 20
7895.52889369123
 30
0.0
 40
5.999997974638371
  0
LINE
  5
26ECA
330
1F
100
AcDbEntity
  8
D-STR-DIM
  6
Continuous
100
AcDbLine
 10
6717.920427022888
 20
7895.52889369123
 30
0.0
 11
6307.920588755915
 21
7895.52889369123
 31
0.0
  0
TEXT
  5
26ECB
330
1F
100
AcDbEntity
  8
D-STR-DIM
100
AcDbText
 10
6231.060589080782
 20
7911.5286936236
 30
0.0
 40
70.0
  1
820
100
AcDbText
  0
LINE
  5
26ECC
330
1F
100
AcDbEntity
  8
D-STR-DIM
  6
Continuous
100
AcDbLine
 10
6717.920427022888
 20
8275.528892000453
 30
0.0
 11
6717.920427022888
 21
7865.529293818035
 31
0.0
  0
CIRCLE
  5
26ECD
330
1F
100
AcDbEntity
  8
D-STR-DIM
  6
Continuous
100
AcDbCircle
 10
6717.920427022888
 20
7895.52889369123
 30
0.0
 40
5.999997974638371
  0
LINE
  5
26EEF
330
1F
100
AcDbEntity
  8
D-DCR-HCH
  6
Continuous
100
AcDbLine
 10
6894.742446275438
 20
6495.528907830546
 30
0.0
 11
7094.742025430057
 21
6695.528906985159
 31
0.0
  0
LINE
  5
26EF0
330
1F
100
AcDbEntity
  8
D-DCR-HCH
  6
Continuous
100
AcDbLine
 10
6984.544805895883
 20
6495.528907830546
 30
0.0
 11
7122.920445310988
 21
6633.904507245637
 31
0.0
  0
LINE
  5
26EF2
330
1F
100
AcDbEntity
  8
D-STR
  6
DASHED1
100
AcDbLine
 10
7122.920445310988
 20
6495.528907830546
 30
0.0
 11
7122.920445310988
 21
6695.528906985159
 31
0.0
  0
LINE
  5
26F07
330
1F
100
AcDbEntity
  8
D-STR-DIM
  6
Continuous
100
AcDbLine
 10
7537.920383556782
 20
7895.52889369123
 30
0.0
 11
7127.920465289856
 21
7895.52889369123
 31
0.0
  0
TEXT
  5
26F0F
330
1F
100
AcDbEntity
  8
D-STR-DIM
100
AcDbText
 10
7031.060405699242
 20
7911.5286936236
 30
0.0
 40
70.0
  1
820
100
AcDbText
  0
CIRCLE
  5
26F12
330
1F
100
AcDbEntity
  8
D-STR-DIM
  6
Continuous
100
AcDbCircle
 10
7537.920383556782
 20
7895.52889369123
 30
0.0
 40
5.999997974638371
  0
TEXT
  5
26F13
330
1F
100
AcDbEntity
  8
D-STR-HTXT
100
AcDbText
 10
7987.543001656267
 20
8015.528493184
 30
0.0
 40
70.0
  1
Ｍ16
100
AcDbText
  0
CIRCLE
  5
26F14
330
1F
100
AcDbEntity
  8
D-STR-DIM
  6
Continuous
100
AcDbCircle
 10
7937.920441866033
 20
8295.528892000453
 30
0.0
 40
5.999997974638371
  0
LINE
  5
26F15
330
1F
100
AcDbEntity
  8
D-STR-DIM
  6
Continuous
100
AcDbLine
 10
5877.920390488966
 20
9795.528885660042
 30
0.0
 11
5467.920592306546
 21
9795.528885660042
 31
0.0
  0
LINE
  5
26F16
330
1F
100
AcDbEntity
  8
D-STR-DIM
  6
Continuous
100
AcDbLine
 10
5877.920390488966
 20
9545.529086716779
 30
0.0
 11
5467.920592306546
 21
9545.529086716779
 31
0.0
  0
LINE
  5
26F17
330
1F
100
AcDbEntity
  8
D-STR-DIM
  6
Continuous
100
AcDbLine
 10
5877.920390488966
 20
9045.528888830249
 30
0.0
 11
5467.920592306546
 21
9045.528888830249
 31
0.0
  0
LINE
  5
26F18
330
1F
100
AcDbEntity
  8
D-STR-DIM
  6
Continuous
100
AcDbLine
 10
5877.920390488966
 20
8545.528490943722
 30
0.0
 11
5467.920592306546
 21
8545.528490943722
 31
0.0
  0
TEXT
  5
26F19
330
1F
100
AcDbEntity
  8
D-STR-DIM
100
AcDbText
 10
5481.920592247381
 20
9583.668286555568
 30
0.0
 40
70.0
  1
250
 50
90.0
100
AcDbText
  0
LINE
  5
26F1A
330
1F
100
AcDbEntity
  8
D-STR-DIM
  6
Continuous
100
AcDbLine
 10
5497.920592179736
 20
9795.528885660042
 30
0.0
 11
5497.920592179736
 21
9670.529086188409
 31
0.0
  0
LINE
  5
26F1B
330
1F
100
AcDbEntity
  8
D-STR-DIM
  6
Continuous
100
AcDbLine
 10
5497.920592179736
 20
9045.528888830249
 30
0.0
 11
5497.920592179736
 21
8795.529089886983
 31
0.0
  0
LINE
  5
26F1C
330
1F
100
AcDbEntity
  8
D-STR-DIM
  6
Continuous
100
AcDbLine
 10
5497.920592179736
 20
8545.528490943722
 30
0.0
 11
5497.920592179736
 21
8795.529089886983
 31
0.0
  0
CIRCLE
  5
26F1D
330
1F
100
AcDbEntity
  8
D-STR-DIM
  6
Continuous
100
AcDbCircle
 10
5497.920592179736
 20
8545.528490943722
 30
0.0
 40
5.999997974638371
  0
LINE
  5
26F1E
330
1F
100
AcDbEntity
  8
D-STR-DIM
  6
Continuous
100
AcDbLine
 10
5497.920592179736
 20
8545.528490943722
 30
0.0
 11
5497.920592179736
 21
8420.528691472089
 31
0.0
  0
TEXT
  5
26F1F
330
1F
100
AcDbEntity
  8
D-STR-DIM
100
AcDbText
 10
5481.920592247381
 20
8708.668490254135
 30
0.0
 40
70.0
  1
500
 50
90.0
100
AcDbText
  0
LINE
  5
26F20
330
1F
100
AcDbEntity
  8
D-STR-DIM
  6
Continuous
100
AcDbLine
 10
5497.920592179736
 20
9545.529086716779
 30
0.0
 11
5497.920592179736
 21
9295.528487773514
 31
0.0
  0
TEXT
  5
26F21
330
1F
100
AcDbEntity
  8
D-STR-DIM
100
AcDbText
 10
5481.920592247381
 20
9208.668888140666
 30
0.0
 40
70.0
  1
500
 50
90.0
100
AcDbText
  0
CIRCLE
  5
26F22
330
1F
100
AcDbEntity
  8
D-STR-DIM
  6
Continuous
100
AcDbCircle
 10
5497.920592179736
 20
9045.528888830249
 30
0.0
 40
5.999997974638371
  0
LINE
  5
26F23
330
1F
100
AcDbEntity
  8
D-STR-DIM
  6
Continuous
100
AcDbLine
 10
5497.920592179736
 20
9045.528888830249
 30
0.0
 11
5497.920592179736
 21
9295.528487773514
 31
0.0
  0
CIRCLE
  5
26F24
330
1F
100
AcDbEntity
  8
D-STR-DIM
  6
Continuous
100
AcDbCircle
 10
5497.920592179736
 20
9545.529086716779
 30
0.0
 40
5.999997974638371
  0
LINE
  5
26F25
330
1F
100
AcDbEntity
  8
D-STR-DIM
  6
Continuous
100
AcDbLine
 10
5497.920592179736
 20
9545.529086716779
 30
0.0
 11
5497.920592179736
 21
9670.529086188409
 31
0.0
  0
CIRCLE
  5
26F2A
330
1F
100
AcDbEntity
  8
D-STR-DIM
  6
Continuous
100
AcDbCircle
 10
5497.920592179736
 20
9795.528885660042
 30
0.0
 40
5.999997974638371
  0
TEXT
  5
26F2C
330
1F
100
AcDbEntity
  8
D-STR-DIM
100
AcDbText
 10
6806.060486650331
 20
10211.52848390164
 30
0.0
 40
70.0
  1
350
100
AcDbText
  0
CIRCLE
  5
26F2D
330
1F
100
AcDbEntity
  8
D-STR-STR2
  6
Continuous
100
AcDbCircle
 10
6717.920427022888
 20
9045.528888830249
 30
0.0
 40
404.9999782880894
  0
LINE
  5
26F2E
330
1F
100
AcDbEntity
  8
D-STR-DIM
  6
Continuous
100
AcDbLine
 10
6717.920427022888
 20
10195.52868396927
 30
0.0
 11
6892.920486283194
 21
10195.52868396927
 31
0.0
  0
LINE
  5
26F2F
330
1F
100
AcDbEntity
  8
D-STR-HTXT
  6
Continuous
100
AcDbLine
 10
6376.9303884642
 20
9549.865486698447
 30
0.0
 11
7737.921002711388
 21
10195.52768396927
 31
0.0
  0
LINE
  5
26F30
330
1F
100
AcDbEntity
  8
D-BMK
  6
CENTER2
100
AcDbLine
 10
7152.920465184182
 20
9045.528888830249
 30
0.0
 11
6282.920388861596
 21
9045.528888830249
 31
0.0
  0
LINE
  5
26F32
330
1F
100
AcDbEntity
  8
D-BMK
  6
CENTER2
100
AcDbLine
 10
6177.920589305417
 20
9045.528888830249
 30
0.0
 11
6257.920588967259
 21
9045.528888830249
 31
0.0
  0
LINE
  5
26F33
330
1F
100
AcDbEntity
  8
D-BMK
  6
CENTER2
100
AcDbLine
 10
6717.920427022888
 20
9480.528686991531
 30
0.0
 11
6717.920427022888
 21
8610.529090668967
 31
0.0
  0
LINE
  5
26F34
330
1F
100
AcDbEntity
  8
D-BMK
  6
CENTER2
100
AcDbLine
 10
6217.920389136343
 20
9005.528688999325
 30
0.0
 11
6217.920389136343
 21
9085.529088661173
 31
0.0
  0
CIRCLE
  5
26F35
330
1F
100
AcDbEntity
  8
D-STR-STR2
  6
Continuous
100
AcDbCircle
 10
6367.920588502297
 20
8545.528490943722
 30
0.0
 40
9.999997957730611
  0
LINE
  5
26F36
330
1F
100
AcDbEntity
  8
D-BMK
  6
CENTER2
100
AcDbLine
 10
6407.920588333222
 20
8545.528490943722
 30
0.0
 11
6327.92038867138
 21
8545.528490943722
 31
0.0
  0
LINE
  5
26F37
330
1F
100
AcDbEntity
  8
D-BMK
  6
CENTER2
100
AcDbLine
 10
6367.920588502297
 20
8505.529291112795
 30
0.0
 11
6367.920588502297
 21
8585.528690774642
 31
0.0
  0
LINE
  5
26F38
330
1F
100
AcDbEntity
  8
D-BMK
  6
CENTER2
100
AcDbLine
 10
6757.92048685383
 20
8545.528490943722
 30
0.0
 11
6677.920487191986
 21
8545.528490943722
 31
0.0
  0
CIRCLE
  5
26F39
330
1F
100
AcDbEntity
  8
D-STR-STR2
  6
Continuous
100
AcDbCircle
 10
6717.920427022888
 20
8545.528490943722
 30
0.0
 40
9.999997957730611
  0
LINE
  5
26F3A
330
1F
100
AcDbEntity
  8
D-STR-HTXT
  6
Continuous
100
AcDbLine
 10
6766.649286816885
 20
8532.289690999681
 30
0.0
 11
6727.109886984024
 21
8541.584490960392
 31
0.0
  0
LINE
  5
26F3B
330
1F
100
AcDbEntity
  8
D-BMK
  6
CENTER2
100
AcDbLine
 10
6717.920427022888
 20
8505.529291112795
 30
0.0
 11
6717.920427022888
 21
8585.528690774642
 31
0.0
  0
CIRCLE
  5
26F3C
330
1F
100
AcDbEntity
  8
D-STR-STR2
  6
Continuous
100
AcDbCircle
 10
6217.920389136343
 20
9045.528888830249
 30
0.0
 40
9.999997957730611
  0
CIRCLE
  5
26F3D
330
1F
100
AcDbEntity
  8
D-STR-STR2
  6
Continuous
100
AcDbCircle
 10
6367.920588502297
 20
9545.529086716779
 30
0.0
 40
9.999997957730611
  0
LINE
  5
26F3E
330
1F
100
AcDbEntity
  8
D-BMK
  6
CENTER2
100
AcDbLine
 10
6407.920588333222
 20
9545.529086716779
 30
0.0
 11
6327.92038867138
 21
9545.529086716779
 31
0.0
  0
LINE
  5
26F3F
330
1F
100
AcDbEntity
  8
D-BMK
  6
CENTER2
100
AcDbLine
 10
6367.920588502297
 20
9585.528286547706
 30
0.0
 11
6367.920588502297
 21
9505.529086885857
 31
0.0
  0
LINE
  5
26F40
330
1F
100
AcDbEntity
  8
D-STR-HTXT
  6
Continuous
100
AcDbLine
 10
6409.910788324807
 20
9573.574686598233
 30
0.0
 11
6376.9303884642
 21
9549.86748669844
 31
0.0
  0
TEXT
  5
26F41
330
1F
100
AcDbEntity
  8
D-STR-HTXT
100
AcDbText
 10
6581.685111703897
 20
9061.528488762618
 30
0.0
 40
70.0
  1
φ810
100
AcDbText
  0
LINE
  5
26F42
330
1F
100
AcDbEntity
  8
D-BMK
  6
CENTER2
100
AcDbLine
 10
6677.920487191986
 20
9545.529086716779
 30
0.0
 11
6757.92048685383
 21
9545.529086716779
 31
0.0
  0
CIRCLE
  5
26F43
330
1F
100
AcDbEntity
  8
D-STR-STR2
  6
Continuous
100
AcDbCircle
 10
6717.920427022888
 20
9545.529086716779
 30
0.0
 40
9.999997957730611
  0
LINE
  5
26F44
330
1F
100
AcDbEntity
  8
D-BMK
  6
CENTER2
100
AcDbLine
 10
6717.920427022888
 20
9585.528286547706
 30
0.0
 11
6717.920427022888
 21
9505.529086885857
 31
0.0
  0
TEXT
  5
26F45
330
1F
100
AcDbEntity
  8
D-STR-DIM
100
AcDbText
 10
6166.661189353028
 20
10099.20868437641
 30
0.0
 40
70.0
  1
150
100
AcDbText
  0
LINE
  5
26F46
330
1F
100
AcDbEntity
  8
D-STR-DIM
  6
Continuous
100
AcDbLine
 10
6217.920389136343
 20
10195.52868396927
 30
0.0
 11
6057.920389812654
 21
10195.52868396927
 31
0.0
  0
LINE
  5
26F47
330
1F
100
AcDbEntity
  8
D-STR-DIM
  6
Continuous
100
AcDbLine
 10
5897.920390488966
 20
9815.528885660043
 30
0.0
 11
5897.920390488966
 21
10225.52828384246
 31
0.0
  0
TEXT
  5
26F48
330
1F
100
AcDbEntity
  8
D-STR-DIM
100
AcDbText
 10
5981.060590137516
 20
10211.52848390164
 30
0.0
 40
70.0
  1
320
100
AcDbText
  0
LINE
  5
26F49
330
1F
100
AcDbEntity
  8
D-STR-DIM
  6
Continuous
100
AcDbLine
 10
5897.920390488966
 20
10195.52868396927
 30
0.0
 11
6057.920389812654
 21
10195.52868396927
 31
0.0
  0
TEXT
  5
26F4B
330
1F
100
AcDbEntity
  8
D-STR-DIM
100
AcDbText
 10
6456.060588129719
 20
10211.52848390164
 30
0.0
 40
70.0
  1
350
100
AcDbText
  0
LINE
  5
26F4C
330
1F
100
AcDbEntity
  8
D-STR-DIM
  6
Continuous
100
AcDbLine
 10
6367.920588502297
 20
10195.52868396927
 30
0.0
 11
6542.920387762591
 21
10195.52868396927
 31
0.0
  0
LINE
  5
26F4D
330
1F
100
AcDbEntity
  8
D-STR-DIM
  6
Continuous
100
AcDbLine
 10
6367.920588502297
 20
9815.528885660043
 30
0.0
 11
6367.920588502297
 21
10225.52828384246
 31
0.0
  0
LINE
  5
26F4E
330
1F
100
AcDbEntity
  8
D-STR-DIM
  6
Continuous
100
AcDbLine
 10
6217.920389136343
 20
9815.528885660043
 30
0.0
 11
6217.920389136343
 21
10225.52828384246
 31
0.0
  0
CIRCLE
  5
26F4F
330
1F
100
AcDbEntity
  8
D-STR-DIM
  6
Continuous
100
AcDbCircle
 10
6367.920588502297
 20
10195.52868396927
 30
0.0
 40
5.999997974638371
  0
CIRCLE
  5
26F50
330
1F
100
AcDbEntity
  8
D-STR-DIM
  6
Continuous
100
AcDbCircle
 10
6217.920389136343
 20
10195.52868396927
 30
0.0
 40
5.999997974638371
  0
LINE
  5
26F51
330
1F
100
AcDbEntity
  8
D-STR-DIM
  6
Continuous
100
AcDbLine
 10
6367.920588502297
 20
10195.52868396927
 30
0.0
 11
6292.920588819317
 21
10195.52868396927
 31
0.0
  0
LINE
  5
26F52
330
1F
100
AcDbEntity
  8
D-STR-DIM
  6
Continuous
100
AcDbLine
 10
6217.920389136343
 20
10195.52868396927
 30
0.0
 11
6292.920588819317
 21
10195.52868396927
 31
0.0
  0
LINE
  5
26F53
330
1F
100
AcDbEntity
  8
D-STR-DIM
  6
Continuous
100
AcDbLine
 10
6717.920427022888
 20
9815.528885660043
 30
0.0
 11
6717.920427022888
 21
10225.52828384246
 31
0.0
  0
LINE
  5
26F54
330
1F
100
AcDbEntity
  8
D-STR-DIM
  6
Continuous
100
AcDbLine
 10
6717.920427022888
 20
10195.52868396927
 30
0.0
 11
6542.920387762591
 21
10195.52868396927
 31
0.0
  0
CIRCLE
  5
26F55
330
1F
100
AcDbEntity
  8
D-STR-DIM
  6
Continuous
100
AcDbCircle
 10
6717.920427022888
 20
10195.52868396927
 30
0.0
 40
5.999997974638371
  0
LINE
  5
26F56
330
1F
100
AcDbEntity
  8
D-STR-DIM
  6
Continuous
100
AcDbLine
 10
7937.920441866033
 20
9795.528885660042
 30
0.0
 11
7937.920441866033
 21
9420.528287245151
 31
0.0
  0
LINE
  5
26F57
330
1F
100
AcDbEntity
  8
D-STR-HTXT
  6
Continuous
100
AcDbLine
 10
7074.992625513532
 20
9552.598486686894
 30
0.0
 11
7737.921622711375
 21
10195.52768396927
 31
0.0
  0
LINE
  5
26F58
330
1F
100
AcDbEntity
  8
D-STR-HTXT
  6
Continuous
100
AcDbLine
 10
7249.028644777951
 20
9005.753688998378
 30
0.0
 11
7222.920404888279
 21
9036.869088866854
 31
0.0
  0
LINE
  5
26F59
330
1F
100
AcDbEntity
  8
D-BMK
  6
CENTER2
100
AcDbLine
 10
7217.920384909405
 20
9085.529088661173
 30
0.0
 11
7217.920384909405
 21
9005.528688999325
 31
0.0
  0
CIRCLE
  5
26F5A
330
1F
100
AcDbEntity
  8
D-STR-STR2
  6
Continuous
100
AcDbCircle
 10
7067.92042554346
 20
8545.528490943722
 30
0.0
 40
9.999997957730611
  0
LINE
  5
26F5B
330
1F
100
AcDbEntity
  8
D-BMK
  6
CENTER2
100
AcDbLine
 10
7107.920365374361
 20
8545.528490943722
 30
0.0
 11
7027.920365712517
 21
8545.528490943722
 31
0.0
  0
LINE
  5
26F5C
330
1F
100
AcDbEntity
  8
D-BMK
  6
CENTER2
100
AcDbLine
 10
7067.92042554346
 20
8505.529291112795
 30
0.0
 11
7067.92042554346
 21
8585.528690774642
 31
0.0
  0
LINE
  5
26F5D
330
1F
100
AcDbEntity
  8
D-BMK
  6
CENTER2
100
AcDbLine
 10
7257.920444740347
 20
9045.528888830249
 30
0.0
 11
7177.920445078505
 21
9045.528888830249
 31
0.0
  0
CIRCLE
  5
26F5E
330
1F
100
AcDbEntity
  8
D-STR-STR2
  6
Continuous
100
AcDbCircle
 10
7067.92042554346
 20
9545.529086716779
 30
0.0
 40
9.999997957730611
  0
LINE
  5
26F5F
330
1F
100
AcDbEntity
  8
D-STR-HTXT
  6
Continuous
100
AcDbLine
 10
7098.288465415127
 20
9585.871286546256
 30
0.0
 11
7074.991385513553
 21
9552.59948668689
 31
0.0
  0
LINE
  5
26F60
330
1F
100
AcDbEntity
  8
D-BMK
  6
CENTER2
100
AcDbLine
 10
7067.92042554346
 20
9585.528286547706
 30
0.0
 11
7067.92042554346
 21
9505.529086885857
 31
0.0
  0
LINE
  5
26F61
330
1F
100
AcDbEntity
  8
D-BMK
  6
CENTER2
100
AcDbLine
 10
7107.920365374361
 20
9545.529086716779
 30
0.0
 11
7027.920365712517
 21
9545.529086716779
 31
0.0
  0
CIRCLE
  5
26F62
330
1F
100
AcDbEntity
  8
D-STR-STR2
  6
Continuous
100
AcDbCircle
 10
7217.920384909405
 20
9045.528888830249
 30
0.0
 40
9.999997957730611
  0
LINE
  5
26F63
330
1F
100
AcDbEntity
  8
D-STR-DIM
  6
Continuous
100
AcDbLine
 10
7937.920441866033
 20
9045.528888830249
 30
0.0
 11
7937.920441866033
 21
8670.528290415353
 31
0.0
  0
TEXT
  5
26F64
330
1F
100
AcDbEntity
  8
D-STR-DIM
100
AcDbText
 10
7921.920381933658
 20
8583.668690782502
 30
0.0
 40
70.0
  1
750
 50
90.0
100
AcDbText
  0
LINE
  5
26F65
330
1F
100
AcDbEntity
  8
D-STR-DIM
  6
Continuous
100
AcDbLine
 10
7557.920383556787
 20
9045.528888830249
 30
0.0
 11
7967.920381739205
 21
9045.528888830249
 31
0.0
  0
TEXT
  5
26F66
330
1F
100
AcDbEntity
  8
D-STR-DIM
100
AcDbText
 10
7921.920381933658
 20
9333.668687612302
 30
0.0
 40
70.0
  1
750
 50
90.0
100
AcDbText
  0
LINE
  5
26F67
330
1F
100
AcDbEntity
  8
D-STR-DIM
  6
Continuous
100
AcDbLine
 10
7937.920441866033
 20
9045.528888830249
 30
0.0
 11
7937.920441866033
 21
9420.528287245151
 31
0.0
  0
CIRCLE
  5
26F68
330
1F
100
AcDbEntity
  8
D-STR-DIM
  6
Continuous
100
AcDbCircle
 10
7937.920441866033
 20
9045.528888830249
 30
0.0
 40
5.999997974638371
  0
LINE
  5
26F69
330
1F
100
AcDbEntity
  8
D-STR-DIM
  6
Continuous
100
AcDbLine
 10
7537.920383556782
 20
10195.52868396927
 30
0.0
 11
7377.920384233094
 21
10195.52868396927
 31
0.0
  0
TEXT
  5
26F6A
330
1F
100
AcDbEntity
  8
D-STR-DIM
100
AcDbText
 10
7097.288965419316
 20
10099.20868437641
 30
0.0
 40
70.0
  1
150
100
AcDbText
  0
LINE
  5
26F6B
330
1F
100
AcDbEntity
  8
D-STR-DIM
  6
Continuous
100
AcDbLine
 10
7217.920384909405
 20
10195.52868396927
 30
0.0
 11
7142.920405226433
 21
10195.52868396927
 31
0.0
  0
LINE
  5
26F6C
330
1F
100
AcDbEntity
  8
D-STR-DIM
  6
Continuous
100
AcDbLine
 10
7067.92042554346
 20
9815.528885660043
 30
0.0
 11
7067.92042554346
 21
10225.52828384246
 31
0.0
  0
LINE
  5
26F6D
330
1F
100
AcDbEntity
  8
D-STR-DIM
  6
Continuous
100
AcDbLine
 10
7067.92042554346
 20
10195.52868396927
 30
0.0
 11
6892.920486283194
 21
10195.52868396927
 31
0.0
  0
CIRCLE
  5
26F6E
330
1F
100
AcDbEntity
  8
D-STR-DIM
  6
Continuous
100
AcDbCircle
 10
7067.92042554346
 20
10195.52868396927
 30
0.0
 40
5.999997974638371
  0
LINE
  5
26F6F
330
1F
100
AcDbEntity
  8
D-STR-DIM
  6
Continuous
100
AcDbLine
 10
7067.92042554346
 20
10195.52868396927
 30
0.0
 11
7142.920405226433
 21
10195.52868396927
 31
0.0
  0
LINE
  5
26F70
330
1F
100
AcDbEntity
  8
D-STR-DIM
  6
Continuous
100
AcDbLine
 10
7217.920384909405
 20
9815.528885660043
 30
0.0
 11
7217.920384909405
 21
10225.52828384246
 31
0.0
  0
TEXT
  5
26F71
330
1F
100
AcDbEntity
  8
D-STR-DIM
100
AcDbText
 10
7281.06044464252
 20
10211.52848390164
 30
0.0
 40
70.0
  1
320
100
AcDbText
  0
LINE
  5
26F72
330
1F
100
AcDbEntity
  8
D-STR-DIM
  6
Continuous
100
AcDbLine
 10
7217.920384909405
 20
10195.52868396927
 30
0.0
 11
7377.920384233094
 21
10195.52868396927
 31
0.0
  0
CIRCLE
  5
26F73
330
1F
100
AcDbEntity
  8
D-STR-DIM
  6
Continuous
100
AcDbCircle
 10
7217.920384909405
 20
10195.52868396927
 30
0.0
 40
5.999997974638371
  0
LINE
  5
26F75
330
1F
100
AcDbEntity
  8
D-STR-DIM
  6
Continuous
100
AcDbLine
 10
7537.920383556782
 20
9815.528885660043
 30
0.0
 11
7537.920383556782
 21
10225.52828384246
 31
0.0
  0
CIRCLE
  5
26F76
330
1F
100
AcDbEntity
  8
D-STR-DIM
  6
Continuous
100
AcDbCircle
 10
7537.920383556782
 20
10195.52868396927
 30
0.0
 40
5.999997974638371
  0
CIRCLE
  5
26F77
330
1F
100
AcDbEntity
  8
D-STR-DIM
  6
Continuous
100
AcDbCircle
 10
7937.920441866033
 20
9795.528885660042
 30
0.0
 40
5.999997974638371
  0
TEXT
  5
26F78
330
1F
100
AcDbEntity
  8
D-STR-HTXT
100
AcDbText
 10
7939.060381861203
 20
10115.52828430742
 30
0.0
 40
70.0
  1
Ｍ20
100
AcDbText
  0
LINE
  5
2762D
330
1F
100
AcDbEntity
  8
D-STR-DIM
  6
Continuous
100
AcDbLine
 10
8237.920400597865
 20
1995.52891947556
 30
0.0
 11
8567.920381202981
 21
1995.52891947556
 31
0.0
  0
LINE
  5
2762E
330
1F
100
AcDbEntity
  8
D-STR-HTXT
  6
Continuous
100
AcDbLine
 10
7687.91122292274
 20
595.5289253932769
 30
0.0
 11
8495.686759094333
 21
595.5289253932769
 31
0.0
  0
LINE
  5
2762F
330
1F
100
AcDbEntity
  8
D-STR-DIM
  6
Continuous
100
AcDbLine
 10
7557.920383556787
 20
2495.528917362091
 30
0.0
 11
8567.920381202981
 21
2495.528917362091
 31
0.0
  0
LINE
  5
27630
330
1F
100
AcDbEntity
  8
D-STR-DIM
  6
Continuous
100
AcDbLine
 10
7557.920383556787
 20
995.5289237025008
 30
0.0
 11
8567.920381202981
 21
995.5289237025008
 31
0.0
  0
TEXT
  5
27631
330
1F
100
AcDbEntity
  8
D-STR-HTXT
100
AcDbText
 10
7665.051223019367
 20
515.5291257314311
 30
0.0
 40
70.0
  1
　インサート　Ｍ20
100
AcDbText
  0
TEXT
  5
276A2
330
1F
100
AcDbEntity
  8
D-STR-DIM
100
AcDbText
 10
7921.920381933654
 20
2183.668918680305
 30
0.0
 40
70.0
  1
450
 50
90.0
100
AcDbText
  0
LINE
  5
276A3
330
1F
100
AcDbEntity
  8
D-STR-DIM
  6
Continuous
100
AcDbLine
 10
7937.920441865957
 20
2045.529319264213
 30
0.0
 11
7937.920441865957
 21
2270.529118313152
 31
0.0
  0
LINE
  5
276A4
330
1F
100
AcDbEntity
  8
D-STR
  6
Continuous
100
AcDbLine
 10
7317.920484486673
 20
2385.528917827054
 30
0.0
 11
7317.920484486673
 21
1855.528920067332
 31
0.0
  0
LINE
  5
276A5
330
1F
100
AcDbEntity
  8
D-STR
  6
Continuous
100
AcDbLine
 10
7217.920384909405
 20
2345.528717996134
 30
0.0
 11
7217.920384909405
 21
2025.52883601531
 31
0.0
  0
LINE
  5
276A6
330
1F
100
AcDbEntity
  8
D-STR-DIM
  6
Continuous
100
AcDbLine
 10
8237.920400597934
 20
2495.528917362091
 30
0.0
 11
8237.920400597934
 21
1745.528920532295
 31
0.0
  0
LINE
  5
276A7
330
1F
100
AcDbEntity
  8
D-BMK
  6
CENTER2
100
AcDbLine
 10
6717.920427022891
 20
1845.528720109603
 30
0.0
 11
6717.920427022891
 21
2245.529118418824
 31
0.0
  0
LINE
  5
276A8
330
1F
100
AcDbEntity
  8
D-STR
  6
Continuous
100
AcDbLine
 10
6117.920389559039
 20
2385.528917827054
 30
0.0
 11
6117.920389559039
 21
1855.528920067332
 31
0.0
  0
LINE
  5
276A9
330
1F
100
AcDbEntity
  8
D-STR
  6
Continuous
100
AcDbLine
 10
6217.920389136347
 20
2345.528717996134
 30
0.0
 11
6217.920389136347
 21
1895.529119898254
 31
0.0
  0
LINE
  5
276AA
330
1F
100
AcDbEntity
  8
D-STR-DIM
  6
Continuous
100
AcDbLine
 10
5497.920592179736
 20
2345.528717996134
 30
0.0
 11
5497.920592179736
 21
2045.529319264213
 31
0.0
  0
LINE
  5
276AB
330
1F
100
AcDbEntity
  8
D-STR
  6
Continuous
100
AcDbLine
 10
7537.920383556786
 20
2495.528917362091
 30
0.0
 11
7537.920383556786
 21
995.5289237025008
 31
0.0
  0
LINE
  5
276AC
330
1F
100
AcDbEntity
  8
D-STR
  6
Continuous
100
AcDbLine
 10
5897.920390488966
 20
2495.528917362091
 30
0.0
 11
5897.920390488966
 21
995.5289237025008
 31
0.0
  0
LINE
  5
276AD
330
1F
100
AcDbEntity
  8
D-STR-DIM
  6
Continuous
100
AcDbLine
 10
5877.920390488966
 20
1745.528920532295
 30
0.0
 11
5467.920592306546
 21
1745.528920532295
 31
0.0
  0
LINE
  5
276AE
330
1F
100
AcDbEntity
  8
D-STR-DIM
  6
Continuous
100
AcDbLine
 10
5877.920390488966
 20
1145.529123068458
 30
0.0
 11
5467.920592306546
 21
1145.529123068458
 31
0.0
  0
LINE
  5
276AF
330
1F
100
AcDbEntity
  8
D-STR-DIM
  6
Continuous
100
AcDbLine
 10
5877.920390488966
 20
995.5289237025008
 30
0.0
 11
5467.920592306546
 21
995.5289237025008
 31
0.0
  0
LINE
  5
276B0
330
1F
100
AcDbEntity
  8
D-STR-DIM
  6
Continuous
100
AcDbLine
 10
5497.920592179736
 20
1145.529123068458
 30
0.0
 11
5497.920592179736
 21
1445.528921800378
 31
0.0
  0
TEXT
  5
276B1
330
1F
100
AcDbEntity
  8
D-STR-DIM
100
AcDbText
 10
5481.920592247385
 20
983.6693237526306
 30
0.0
 40
70.0
  1
150
 50
90.0
100
AcDbText
  0
LINE
  5
276B2
330
1F
100
AcDbEntity
  8
D-STR-DIM
  6
Continuous
100
AcDbLine
 10
5497.920592179736
 20
995.5289237025008
 30
0.0
 11
5497.920592179736
 21
1070.52892338548
 31
0.0
  0
CIRCLE
  5
276B3
330
1F
100
AcDbEntity
  8
D-STR-DIM
  6
Continuous
100
AcDbCircle
 10
5497.920592179736
 20
995.5289237025008
 30
0.0
 40
5.999997974638371
  0
CIRCLE
  5
276B4
330
1F
100
AcDbEntity
  8
D-STR-DIM
  6
Continuous
100
AcDbCircle
 10
5497.920592179736
 20
1145.529123068458
 30
0.0
 40
5.999997974638371
  0
LINE
  5
276B5
330
1F
100
AcDbEntity
  8
D-STR-DIM
  6
Continuous
100
AcDbLine
 10
5497.920592179736
 20
1145.529123068458
 30
0.0
 11
5497.920592179736
 21
1070.52892338548
 31
0.0
  0
LINE
  5
276B6
330
1F
100
AcDbEntity
  8
D-STR-DIM
  6
Continuous
100
AcDbLine
 10
5497.920592179736
 20
1745.528920532295
 30
0.0
 11
5497.920592179736
 21
2045.529319264213
 31
0.0
  0
TEXT
  5
276B7
330
1F
100
AcDbEntity
  8
D-STR-DIM
100
AcDbText
 10
5481.920592247385
 20
1358.668722167531
 30
0.0
 40
70.0
  1
600
 50
90.0
100
AcDbText
  0
LINE
  5
276B8
330
1F
100
AcDbEntity
  8
D-STR-DIM
  6
Continuous
100
AcDbLine
 10
5497.920592179736
 20
1745.528920532295
 30
0.0
 11
5497.920592179736
 21
1445.528921800378
 31
0.0
  0
CIRCLE
  5
276B9
330
1F
100
AcDbEntity
  8
D-STR-DIM
  6
Continuous
100
AcDbCircle
 10
5497.920592179736
 20
1745.528920532295
 30
0.0
 40
5.999997974638371
  0
TEXT
  5
276BA
330
1F
100
AcDbEntity
  8
D-STR-DIM
100
AcDbText
 10
5481.920592247385
 20
1958.669119631366
 30
0.0
 40
70.0
  1
600
 50
90.0
100
AcDbText
  0
LINE
  5
276BC
330
1F
100
AcDbEntity
  8
D-STR
  6
Continuous
100
AcDbLine
 10
7537.920383556786
 20
995.5289237025008
 30
0.0
 11
5897.920390488966
 21
995.5289237025008
 31
0.0
  0
LINE
  5
276BF
330
1F
100
AcDbEntity
  8
D-STR-DIM
  6
Continuous
100
AcDbLine
 10
7117.920425332115
 20
595.5289253932769
 30
0.0
 11
6917.920486177449
 21
595.5289253932769
 31
0.0
  0
LINE
  5
276C0
330
1F
100
AcDbEntity
  8
D-STR
  6
Continuous
100
AcDbLine
 10
6217.920389136347
 20
1595.529121166335
 30
0.0
 11
6217.920389136347
 21
1145.529123068458
 31
0.0
  0
LINE
  5
276C1
330
1F
100
AcDbEntity
  8
D-STR
  6
Continuous
100
AcDbLine
 10
6117.920389559039
 20
1635.528920997259
 30
0.0
 11
6117.920389559039
 21
1105.528923237538
 31
0.0
  0
LINE
  5
276C2
330
1F
100
AcDbEntity
  8
D-STR-STR2
  6
Continuous
100
AcDbLine
 10
6367.9205885023
 20
1095.528723279807
 30
0.0
 11
6467.920588079607
 21
1095.528723279807
 31
0.0
  0
LINE
  5
276C4
330
1F
100
AcDbEntity
  8
D-STR-DIM
  6
Continuous
100
AcDbLine
 10
6317.920588713649
 20
595.5289253932769
 30
0.0
 11
6517.92058786826
 21
595.5289253932769
 31
0.0
  0
TEXT
  5
276C5
330
1F
100
AcDbEntity
  8
D-STR-DIM
100
AcDbText
 10
6431.0603882354
 20
611.5291253256437
 30
0.0
 40
70.0
  1
400
100
AcDbText
  0
LINE
  5
276C6
330
1F
100
AcDbEntity
  8
D-STR-DIM
  6
Continuous
100
AcDbLine
 10
6317.920588713649
 20
975.5289237025008
 30
0.0
 11
6317.920588713649
 21
565.5289255200841
 31
0.0
  0
LINE
  5
276C7
330
1F
100
AcDbEntity
  8
D-STR-DIM
  6
Continuous
100
AcDbLine
 10
5897.920390488966
 20
975.5289237025008
 30
0.0
 11
5897.920390488966
 21
565.5289255200841
 31
0.0
  0
LINE
  5
276C8
330
1F
100
AcDbEntity
  8
D-STR-DIM
  6
Continuous
100
AcDbLine
 10
6317.920588713649
 20
595.5289253932769
 30
0.0
 11
6107.920589601304
 21
595.5289253932769
 31
0.0
  0
TEXT
  5
276C9
330
1F
100
AcDbEntity
  8
D-STR-DIM
100
AcDbText
 10
6031.060589926171
 20
611.5291253256437
 30
0.0
 40
70.0
  1
420
100
AcDbText
  0
LINE
  5
276CA
330
1F
100
AcDbEntity
  8
D-STR-DIM
  6
Continuous
100
AcDbLine
 10
5897.920390488966
 20
595.5289253932769
 30
0.0
 11
6107.920589601304
 21
595.5289253932769
 31
0.0
  0
CIRCLE
  5
276CB
330
1F
100
AcDbEntity
  8
D-STR-DIM
  6
Continuous
100
AcDbCircle
 10
5897.920390488966
 20
595.5289253932769
 30
0.0
 40
5.999997974638371
  0
CIRCLE
  5
276CC
330
1F
100
AcDbEntity
  8
D-STR-DIM
  6
Continuous
100
AcDbCircle
 10
6317.920588713649
 20
595.5289253932769
 30
0.0
 40
5.999997974638371
  0
LINE
  5
276CD
330
1F
100
AcDbEntity
  8
D-STR
  6
Continuous
100
AcDbLine
 10
6217.920389136347
 20
1145.529123068458
 30
0.0
 11
6092.920589664707
 21
1095.529323279805
 31
0.0
  0
LINE
  5
276CE
330
1F
100
AcDbEntity
  8
D-STR
  6
Continuous
100
AcDbLine
 10
6092.920589664707
 20
1095.528723279807
 30
0.0
 11
6092.920589664707
 21
995.5289237025008
 31
0.0
  0
LINE
  5
276CF
330
1F
100
AcDbEntity
  8
D-STR-STR2
  6
Continuous
100
AcDbLine
 10
6367.9205885023
 20
995.5289237025008
 30
0.0
 11
6367.9205885023
 21
1095.528723279807
 31
0.0
  0
LINE
  5
276D0
330
1F
100
AcDbEntity
  8
D-BMK
  6
CENTER2
100
AcDbLine
 10
6417.920588290951
 20
965.5291238293084
 30
0.0
 11
6417.920588290951
 21
1125.528923152999
 31
0.0
  0
LINE
  5
276D4
330
1F
100
AcDbEntity
  8
D-STR-DIM
  6
Continuous
100
AcDbLine
 10
6717.920427022891
 20
975.5289237025008
 30
0.0
 11
6717.920427022891
 21
565.5289255200841
 31
0.0
  0
LINE
  5
276D5
330
1F
100
AcDbEntity
  8
D-STR-DIM
  6
Continuous
100
AcDbLine
 10
6717.920427022891
 20
595.5289253932769
 30
0.0
 11
6917.920486177449
 21
595.5289253932769
 31
0.0
  0
LINE
  5
276D6
330
1F
100
AcDbEntity
  8
D-STR-DIM
  6
Continuous
100
AcDbLine
 10
6717.920427022891
 20
595.5289253932769
 30
0.0
 11
6517.92058786826
 21
595.5289253932769
 31
0.0
  0
CIRCLE
  5
276D7
330
1F
100
AcDbEntity
  8
D-STR-DIM
  6
Continuous
100
AcDbCircle
 10
6717.920427022891
 20
595.5289253932769
 30
0.0
 40
5.999997974638371
  0
TEXT
  5
276D8
330
1F
100
AcDbEntity
  8
D-STR-DIM
100
AcDbText
 10
6831.060466544652
 20
611.5291253256437
 30
0.0
 40
70.0
  1
400
100
AcDbText
  0
LINE
  5
276D9
330
1F
100
AcDbEntity
  8
D-STR-STR2
  6
Continuous
100
AcDbLine
 10
6467.920588079607
 20
1095.528723279807
 30
0.0
 11
6467.920588079607
 21
995.5289237025008
 31
0.0
  0
LINE
  5
276DA
330
1F
100
AcDbEntity
  8
D-STR-STR2
  6
Continuous
100
AcDbLine
 10
7067.92042554346
 20
1095.528723279807
 30
0.0
 11
7067.92042554346
 21
995.5289237025008
 31
0.0
  0
LINE
  5
276DB
330
1F
100
AcDbEntity
  8
D-STR-STR2
  6
Continuous
100
AcDbLine
 10
6967.920465966097
 20
995.5289237025008
 30
0.0
 11
6967.920465966097
 21
1095.528723279807
 31
0.0
  0
LINE
  5
276DC
330
1F
100
AcDbEntity
  8
D-BMK
  6
CENTER2
100
AcDbLine
 10
7017.920445754743
 20
965.5291238293084
 30
0.0
 11
7017.920445754743
 21
1125.528923152999
 31
0.0
  0
LINE
  5
276DE
330
1F
100
AcDbEntity
  8
D-STR-STR2
  6
Continuous
100
AcDbLine
 10
6967.920465966097
 20
1095.528723279807
 30
0.0
 11
7067.92042554346
 21
1095.528723279807
 31
0.0
  0
LINE
  5
276DF
330
1F
100
AcDbEntity
  8
D-STR
  6
Continuous
100
AcDbLine
 10
6092.920589664707
 20
1845.528720109603
 30
0.0
 11
6092.920589664707
 21
1645.52892095499
 31
0.0
  0
LINE
  5
276E0
330
1F
100
AcDbEntity
  8
D-STR
  6
Continuous
100
AcDbLine
 10
6217.920389136347
 20
1595.529121166335
 30
0.0
 11
6092.920589664707
 21
1645.52892095499
 31
0.0
  0
LINE
  5
276E1
330
1F
100
AcDbEntity
  8
D-STR
  6
Continuous
100
AcDbLine
 10
6217.920389136347
 20
1895.529119898254
 30
0.0
 11
6092.920589664707
 21
1845.528720109603
 31
0.0
  0
LINE
  5
276E5
330
1F
100
AcDbEntity
  8
D-BMK
  6
CENTER2
100
AcDbLine
 10
6917.920486177449
 20
2045.529319264213
 30
0.0
 11
6517.92058786826
 21
2045.529319264213
 31
0.0
  0
CIRCLE
  5
276E6
330
1F
100
AcDbEntity
  8
D-STR-STR2
  6
Continuous
100
AcDbCircle
 10
6717.920427022891
 20
2045.529319264213
 30
0.0
 40
149.999995365959
  0
CIRCLE
  5
276E7
330
1F
100
AcDbEntity
  8
D-STR-STR2
  6
Continuous
100
AcDbCircle
 10
6717.920427022891
 20
2045.529319264213
 30
0.0
 40
169.9999952814203
  0
CIRCLE
  5
276E8
330
1F
100
AcDbEntity
  8
D-STR-STR2
  6
Continuous
100
AcDbCircle
 10
6717.920427022891
 20
2045.529319264213
 30
0.0
 40
37.49999784148978
  0
LINE
  5
276E9
330
1F
100
AcDbEntity
  8
D-STR-HTXT
  6
Continuous
100
AcDbLine
 10
7317.92096448669
 20
1945.529319686906
 30
0.0
 11
7687.91122292274
 21
595.5289253932769
 31
0.0
  0
LINE
  5
276EA
330
1F
100
AcDbEntity
  8
D-STR
  6
Continuous
100
AcDbLine
 10
7217.920384909405
 20
1595.529121166335
 30
0.0
 11
7217.920384909405
 21
1145.529123068458
 31
0.0
  0
LINE
  5
276EB
330
1F
100
AcDbEntity
  8
D-STR
  6
Continuous
100
AcDbLine
 10
7317.920484486673
 20
1635.528920997259
 30
0.0
 11
7317.920484486673
 21
1105.528923237538
 31
0.0
  0
LINE
  5
276EC
330
1F
100
AcDbEntity
  8
D-STR-DIM
  6
Continuous
100
AcDbLine
 10
8237.920400597934
 20
995.5289237025008
 30
0.0
 11
8237.920400597934
 21
1745.528920532295
 31
0.0
  0
LINE
  5
276ED
330
1F
100
AcDbEntity
  8
D-STR-DIM
  6
Continuous
100
AcDbLine
 10
7937.920441865957
 20
995.5289237025008
 30
0.0
 11
7937.920441865957
 21
1520.529121483356
 31
0.0
  0
TEXT
  5
276EE
330
1F
100
AcDbEntity
  8
D-STR-HTXT
100
AcDbText
 10
7110.530383754213
 20
2711.528713662017
 30
0.0
 40
70.0
  1
　連結金具
100
AcDbText
  0
LINE
  5
276EF
330
1F
100
AcDbEntity
  8
D-STR-DIM
  6
Continuous
100
AcDbLine
 10
7537.920383556786
 20
975.5289237025008
 30
0.0
 11
7537.920383556786
 21
565.5289255200841
 31
0.0
  0
LINE
  5
276F0
330
1F
100
AcDbEntity
  8
D-STR-DIM
  6
Continuous
100
AcDbLine
 10
7117.920425332115
 20
975.5289237025008
 30
0.0
 11
7117.920425332115
 21
565.5289255200841
 31
0.0
  0
LINE
  5
276F1
330
1F
100
AcDbEntity
  8
D-STR-HTXT
  6
Continuous
100
AcDbLine
 10
7517.613731773902
 20
2695.528513729649
 30
0.0
 11
7133.390443657605
 21
2695.528513729649
 31
0.0
  0
LINE
  5
276F2
330
1F
100
AcDbEntity
  8
D-STR-DIM
  6
Continuous
100
AcDbLine
 10
7537.920383556786
 20
595.5289253932769
 30
0.0
 11
7327.920404444448
 21
595.5289253932769
 31
0.0
  0
LINE
  5
276F3
330
1F
100
AcDbEntity
  8
D-STR-DIM
  6
Continuous
100
AcDbLine
 10
7117.920425332115
 20
595.5289253932769
 30
0.0
 11
7327.920404444448
 21
595.5289253932769
 31
0.0
  0
CIRCLE
  5
276F4
330
1F
100
AcDbEntity
  8
D-STR-DIM
  6
Continuous
100
AcDbCircle
 10
7117.920425332115
 20
595.5289253932769
 30
0.0
 40
5.999997974638371
  0
TEXT
  5
276F5
330
1F
100
AcDbEntity
  8
D-STR-DIM
100
AcDbText
 10
7231.060464853875
 20
611.5291253256437
 30
0.0
 40
70.0
  1
420
100
AcDbText
  0
CIRCLE
  5
276F6
330
1F
100
AcDbEntity
  8
D-STR-DIM
  6
Continuous
100
AcDbCircle
 10
7537.920383556786
 20
595.5289253932769
 30
0.0
 40
5.999997974638371
  0
LINE
  5
276F7
330
1F
100
AcDbEntity
  8
D-STR
  6
Continuous
100
AcDbLine
 10
7342.920464380994
 20
1095.528723279807
 30
0.0
 11
7342.920464380994
 21
995.5289237025008
 31
0.0
  0
LINE
  5
276F8
330
1F
100
AcDbEntity
  8
D-STR
  6
Continuous
100
AcDbLine
 10
7217.919884909385
 20
1145.529123068458
 30
0.0
 11
7342.919844381005
 21
1095.529323279805
 31
0.0
  0
TEXT
  5
276FB
330
1F
100
AcDbEntity
  8
D-STR-HTXT
100
AcDbText
 10
7889.051242072554
 20
611.5291253256437
 30
0.0
 40
70.0
  1
引込金具
100
AcDbText
  0
CIRCLE
  5
276FC
330
1F
100
AcDbEntity
  8
D-STR-DIM
  6
Continuous
100
AcDbCircle
 10
7937.920441865957
 20
995.5289237025008
 30
0.0
 40
5.999997974638371
  0
CIRCLE
  5
276FD
330
1F
100
AcDbEntity
  8
D-STR-DIM
  6
Continuous
100
AcDbCircle
 10
8237.920400597934
 20
995.5289237025008
 30
0.0
 40
5.999997974638371
  0
LINE
  5
276FE
330
1F
100
AcDbEntity
  8
D-STR-DIM
  6
Continuous
100
AcDbLine
 10
7567.92040342991
 20
1995.52891947556
 30
0.0
 11
7907.92042199276
 21
1995.52891947556
 31
0.0
  0
LINE
  5
276FF
330
1F
100
AcDbEntity
  8
D-STR-DIM
  6
Continuous
100
AcDbLine
 10
7557.920383556787
 20
2045.529319264213
 30
0.0
 11
7967.920381739201
 21
2045.529319264213
 31
0.0
  0
LINE
  5
27700
330
1F
100
AcDbEntity
  8
D-STR
  6
Continuous
100
AcDbLine
 10
7342.920464380994
 20
1845.528720109603
 30
0.0
 11
7342.920464380994
 21
1645.52892095499
 31
0.0
  0
LINE
  5
27701
330
1F
100
AcDbEntity
  8
D-STR
  6
Continuous
100
AcDbLine
 10
7217.919884909385
 20
1595.529121166335
 30
0.0
 11
7342.920464380994
 21
1645.529320954989
 31
0.0
  0
LINE
  5
27702
330
1F
100
AcDbEntity
  8
D-STR-STR2
  6
Continuous
100
AcDbLine
 10
7317.920484486673
 20
2005.52911943329
 30
0.0
 11
7467.920423852611
 21
2005.52911943329
 31
0.0
  0
LINE
  5
27703
330
1F
100
AcDbEntity
  8
D-STR-STR2
  6
Continuous
100
AcDbLine
 10
7317.920484486673
 20
1985.52891951783
 30
0.0
 11
7467.920423852611
 21
1985.52891951783
 31
0.0
  0
LINE
  5
27704
330
1F
100
AcDbEntity
  8
D-STR
  6
Continuous
100
AcDbLine
 10
7297.92038457125
 20
2012.473519403938
 30
0.0
 11
7297.92038457125
 21
1978.584519547185
 31
0.0
  0
ARC
  5
27705
330
1F
100
AcDbEntity
  8
D-STR
  6
Continuous
100
AcDbCircle
 10
7257.920444740277
 20
1995.52891947556
 30
0.0
 40
29.99999787319182
100
AcDbArc
 50
83.97441100002668
 51
276.0255499999233
  0
LINE
  5
27706
330
1F
100
AcDbEntity
  8
D-STR
  6
Continuous
100
AcDbLine
 10
7307.920424528922
 20
2045.529319264213
 30
0.0
 11
7307.920424528922
 21
1945.529319686906
 31
0.0
  0
ARC
  5
27707
330
1F
100
AcDbEntity
  8
D-STR
  6
Continuous
100
AcDbCircle
 10
7257.920444740277
 20
1995.52891947556
 30
0.0
 40
49.99999778865302
100
AcDbArc
 50
83.97441100002668
 51
276.0255499999233
  0
LINE
  5
27708
330
1F
100
AcDbEntity
  8
D-STR
  6
Continuous
100
AcDbLine
 10
7217.920384909405
 20
1895.529119898254
 30
0.0
 11
7342.920464380994
 21
1845.528720109603
 31
0.0
  0
LINE
  5
27709
330
1F
100
AcDbEntity
  8
D-STR
  6
Continuous
100
AcDbLine
 10
7217.920384909405
 20
1965.529002935811
 30
0.0
 11
7217.920384909405
 21
1895.529119898254
 31
0.0
  0
LINE
  5
2770A
330
1F
100
AcDbEntity
  8
D-STR
  6
Continuous
100
AcDbLine
 10
7317.920484486673
 20
1945.529319686906
 30
0.0
 11
7307.920424528922
 21
1945.529319686906
 31
0.0
  0
LINE
  5
2770B
330
1F
100
AcDbEntity
  8
D-STR
  6
Continuous
100
AcDbLine
 10
7307.92104452891
 20
1950.529519665771
 30
0.0
 11
7263.169444718129
 21
1945.805719685739
 31
0.0
  0
LINE
  5
2770C
330
1F
100
AcDbEntity
  8
D-STR
  6
Continuous
100
AcDbLine
 10
7288.970244609071
 20
1968.640319589218
 30
0.0
 11
7261.069764726977
 21
1965.694919601667
 31
0.0
  0
LINE
  5
2770D
330
1F
100
AcDbEntity
  8
D-STR-HTXT
  6
Continuous
100
AcDbLine
 10
7335.295444413245
 20
1908.816119842091
 30
0.0
 11
7317.920484486673
 21
1945.529319686906
 31
0.0
  0
ARC
  5
2770E
330
1F
100
AcDbEntity
  8
D-STR
  6
Continuous
100
AcDbCircle
 10
7287.920464613475
 20
1978.584519547185
 30
0.0
 40
9.999997957730611
100
AcDbArc
 50
276.0255700000477
 51
0.0
  0
LINE
  5
2770F
330
1F
100
AcDbEntity
  8
D-STR
  6
Continuous
100
AcDbLine
 10
7307.920424528922
 20
2045.529319264213
 30
0.0
 11
7317.920484486673
 21
2045.529319264213
 31
0.0
  0
LINE
  5
27710
330
1F
100
AcDbEntity
  8
D-STR
  6
Continuous
100
AcDbLine
 10
7307.919804528935
 20
2040.528919285349
 30
0.0
 11
7263.168824718142
 21
2045.252719265381
 31
0.0
  0
LINE
  5
27711
330
1F
100
AcDbEntity
  8
D-STR
  6
Continuous
100
AcDbLine
 10
7288.969624609079
 20
2022.418119361901
 30
0.0
 11
7261.069264726953
 21
2025.363119349455
 31
0.0
  0
ARC
  5
27712
330
1F
100
AcDbEntity
  8
D-STR
  6
Continuous
100
AcDbCircle
 10
7287.920464613475
 20
2012.473519403938
 30
0.0
 40
9.999997957730611
100
AcDbArc
 50
0.0
 51
83.97441100002668
  0
LINE
  5
27713
330
1F
100
AcDbEntity
  8
D-STR-STR2
  6
Continuous
100
AcDbLine
 10
7467.920423852611
 20
2005.52911943329
 30
0.0
 11
7467.920423852611
 21
1985.52891951783
 31
0.0
  0
TEXT
  5
27714
330
1F
100
AcDbEntity
  8
D-STR-DIM
100
AcDbText
 10
8221.920400665506
 20
1626.668921034708
 30
0.0
 40
70.0
  1
1500
 50
90.0
100
AcDbText
  0
LINE
  5
27715
330
1F
100
AcDbEntity
  8
D-STR-DIM
  6
Continuous
100
AcDbLine
 10
7937.920441865957
 20
2045.529319264213
 30
0.0
 11
7937.920441865957
 21
1520.529121483356
 31
0.0
  0
TEXT
  5
27716
330
1F
100
AcDbEntity
  8
D-STR-DIM
100
AcDbText
 10
7921.920381933654
 20
1401.669121985771
 30
0.0
 40
70.0
  1
1050
 50
90.0
100
AcDbText
  0
LINE
  5
27717
330
1F
100
AcDbEntity
  8
D-STR-DIM
  6
Continuous
100
AcDbLine
 10
7967.920381739201
 20
1995.52891947556
 30
0.0
 11
8207.920420724677
 21
1995.52891947556
 31
0.0
  0
CIRCLE
  5
27718
330
1F
100
AcDbEntity
  8
D-STR-DIM
  6
Continuous
100
AcDbCircle
 10
7937.920441865957
 20
2045.529319264213
 30
0.0
 40
5.999997974638371
  0
LEADER
  5
27719
330
1F
100
AcDbEntity
  8
D-STR-HTXT
100
AcDbLeader
  3
20
 73
     0
 74
     0
 40
70.00000000000001
 41
219.3333333333334
 76
     3
 10
5985.603572893858
 20
2495.528917362091
 30
0.0
 10
5835.603572893859
 20
2755.336538497422
 30
0.0
 10
5781.201069974566
 20
2755.336538497422
 30
0.0
211
-1.0
221
0.0
231
0.0
210
0.0
220
0.0
230
-1.0
213
-34.40250291929169
223
0.0
233
0.0
1001
ACAD
1000
DSTYLE
1002
{
1070
    41
1040
30.0
1002
}
  0
MTEXT
  5
2771A
330
1F
100
AcDbEntity
  8
D-STR-HTXT
100
AcDbMText
 10
5561.462862977362
 20
2775.336538497422
 30
0.0
 40
70.0
 41
0.0
 71
     7
 72
     1
  1
\A1;目地側
 73
     1
 44
1.0
1001
ACAD
1000
MTEXTBEGIN
1070
    73
1070
     1
1070
    44
1040
1.0
1070
    74
1070
     0
1000
MTEXTEND
  0
LINE
  5
2771B
330
1F
100
AcDbEntity
  8
D-STR-DIM
  6
Continuous
100
AcDbLine
 10
5877.920390488966
 20
2345.528717996134
 30
0.0
 11
5467.920592306546
 21
2345.528717996134
 31
0.0
  0
LINE
  5
2771C
330
1F
100
AcDbEntity
  8
D-STR-DIM
  6
Continuous
100
AcDbLine
 10
5877.920390488966
 20
2495.528917362091
 30
0.0
 11
5467.920592306546
 21
2495.528917362091
 31
0.0
  0
TEXT
  5
27726
330
1F
100
AcDbEntity
  8
D-STR-DIM
100
AcDbText
 10
5481.920592247385
 20
2333.669118046262
 30
0.0
 40
70.0
  1
150
 50
90.0
100
AcDbText
  0
LINE
  5
27727
330
1F
100
AcDbEntity
  8
D-STR-DIM
  6
Continuous
100
AcDbLine
 10
5497.920592179736
 20
2495.528917362091
 30
0.0
 11
5497.920592179736
 21
2420.528717679113
 31
0.0
  0
LINE
  5
27728
330
1F
100
AcDbEntity
  8
D-STR-DIM
  6
Continuous
100
AcDbLine
 10
5497.920592179736
 20
2345.528717996134
 30
0.0
 11
5497.920592179736
 21
2420.528717679113
 31
0.0
  0
CIRCLE
  5
27729
330
1F
100
AcDbEntity
  8
D-STR-DIM
  6
Continuous
100
AcDbCircle
 10
5497.920592179736
 20
2345.528717996134
 30
0.0
 40
5.999997974638371
  0
CIRCLE
  5
2772A
330
1F
100
AcDbEntity
  8
D-STR-DIM
  6
Continuous
100
AcDbCircle
 10
5497.920592179736
 20
2495.528917362091
 30
0.0
 40
5.999997974638371
  0
TEXT
  5
2772B
330
1F
100
AcDbEntity
  8
D-TTL-TXT
100
AcDbText
 10
5155.559073286502
 20
2960.98524494457
 30
0.0
 40
140.0
  1
 底　版　
100
AcDbText
  0
LINE
  5
27768
330
1F
100
AcDbEntity
  8
D-STR-DIM
  6
Continuous
100
AcDbLine
 10
5897.920390488966
 20
4365.528509035022
 30
0.0
 11
5897.920390488966
 21
2525.52951723528
 31
0.0
  0
LINE
  5
27769
330
1F
100
AcDbEntity
  8
D-STR-DIM
  6
Continuous
100
AcDbLine
 10
7537.920383556786
 20
4365.528509035022
 30
0.0
 11
7537.920383556786
 21
2525.52951723528
 31
0.0
  0
LINE
  5
2776A
330
1F
100
AcDbEntity
  8
D-STR-DIM
  6
Continuous
100
AcDbLine
 10
7537.920383556786
 20
3695.52891186707
 30
0.0
 11
6717.920427022891
 21
3695.52891186707
 31
0.0
  0
LINE
  5
2776B
330
1F
100
AcDbEntity
  8
D-STR-DIM
  6
Continuous
100
AcDbLine
 10
7017.920445754743
 20
3195.529114403234
 30
0.0
 11
7277.920424655803
 21
3195.529114403234
 31
0.0
  0
LINE
  5
2776C
330
1F
100
AcDbEntity
  8
D-STR
  6
Continuous
100
AcDbLine
 10
7537.920383556786
 20
2495.528917362091
 30
0.0
 11
5897.920390488966
 21
2495.528917362091
 31
0.0
  0
LINE
  5
2776D
330
1F
100
AcDbEntity
  8
D-BMK
  6
CENTER2
100
AcDbLine
 10
7157.920485162984
 20
2345.528717996134
 30
0.0
 11
7077.920485501142
 21
2345.528717996134
 31
0.0
  0
LINE
  5
2776E
330
1F
100
AcDbEntity
  8
D-STR-DIM
  6
Continuous
100
AcDbLine
 10
6717.920427022891
 20
2895.528715671316
 30
0.0
 11
7127.920465289786
 21
2895.528715671316
 31
0.0
  0
TEXT
  5
2776F
330
1F
100
AcDbEntity
  8
D-STR-DIM
100
AcDbText
 10
7031.060405699246
 20
2911.529315603683
 30
0.0
 40
70.0
  1
820
100
AcDbText
  0
LINE
  5
27770
330
1F
100
AcDbEntity
  8
D-STR-DIM
  6
Continuous
100
AcDbLine
 10
7017.920445754743
 20
3001.275715224331
 30
0.0
 11
7017.920445754743
 21
3225.528714276427
 31
0.0
  0
LINE
  5
27771
330
1F
100
AcDbEntity
  8
D-STR-DIM
  6
Continuous
100
AcDbLine
 10
6417.920588290951
 20
3001.275715224331
 30
0.0
 11
6417.920588290951
 21
3225.528714276427
 31
0.0
  0
LINE
  5
27772
330
1F
100
AcDbEntity
  8
D-STR-STR2
  6
Continuous
100
AcDbLine
 10
6367.9205885023
 20
2395.529317784784
 30
0.0
 11
6467.920588079607
 21
2395.529317784784
 31
0.0
  0
LINE
  5
27773
330
1F
100
AcDbEntity
  8
D-STR-DIM
  6
Continuous
100
AcDbLine
 10
6717.920427022891
 20
2895.528715671316
 30
0.0
 11
6307.920588755915
 21
2895.528715671316
 31
0.0
  0
LINE
  5
27774
330
1F
100
AcDbEntity
  8
D-STR-DIM
  6
Continuous
100
AcDbLine
 10
6417.920588290951
 20
2865.529115798123
 30
0.0
 11
6417.920588290951
 21
2545.52951723528
 31
0.0
  0
LINE
  5
27775
330
1F
100
AcDbEntity
  8
D-STR
  6
Continuous
100
AcDbLine
 10
6217.920389136347
 20
2345.528717996134
 30
0.0
 11
6092.920589664707
 21
2395.528317784789
 31
0.0
  0
LINE
  5
27776
330
1F
100
AcDbEntity
  8
D-STR
  6
Continuous
100
AcDbLine
 10
6092.920589664707
 20
2495.528917362091
 30
0.0
 11
6092.920589664707
 21
2395.529317784784
 31
0.0
  0
LINE
  5
27777
330
1F
100
AcDbEntity
  8
D-STR-STR2
  6
Continuous
100
AcDbLine
 10
6367.9205885023
 20
2495.528917362091
 30
0.0
 11
6367.9205885023
 21
2395.529317784784
 31
0.0
  0
LINE
  5
27778
330
1F
100
AcDbEntity
  8
D-BMK
  6
CENTER2
100
AcDbLine
 10
6417.920588290951
 20
2525.52951723528
 30
0.0
 11
6417.920588290951
 21
2365.528717911595
 31
0.0
  0
LINE
  5
27779
330
1F
100
AcDbEntity
  8
D-BMK
  6
CENTER2
100
AcDbLine
 10
6357.92058854457
 20
2345.528717996134
 30
0.0
 11
6277.920388882733
 21
2345.528717996134
 31
0.0
  0
LINE
  5
2777A
330
1F
100
AcDbEntity
  8
D-BMK
  6
CENTER2
100
AcDbLine
 10
6317.920588713649
 20
2305.52891816521
 30
0.0
 11
6317.920588713649
 21
2385.528917827054
 31
0.0
  0
CIRCLE
  5
2777B
330
1F
100
AcDbEntity
  8
D-STR-STR2
  6
Continuous
100
AcDbCircle
 10
6317.920588713649
 20
2345.528717996134
 30
0.0
 40
9.999997957730611
  0
LINE
  5
2777C
330
1F
100
AcDbEntity
  8
D-STR-DIM
  6
Continuous
100
AcDbLine
 10
5897.920390488966
 20
2895.528715671316
 30
0.0
 11
6307.920588755915
 21
2895.528715671316
 31
0.0
  0
CIRCLE
  5
2777D
330
1F
100
AcDbEntity
  8
D-STR-DIM
  6
Continuous
100
AcDbCircle
 10
5897.920390488966
 20
2895.528715671316
 30
0.0
 40
5.999997974638371
  0
TEXT
  5
2777E
330
1F
100
AcDbEntity
  8
D-STR-DIM
100
AcDbText
 10
6231.060589080786
 20
2911.529315603683
 30
0.0
 40
70.0
  1
820
100
AcDbText
  0
LINE
  5
2777F
330
1F
100
AcDbEntity
  8
D-STR-DIM
  6
Continuous
100
AcDbLine
 10
7017.920445754743
 20
2865.529115798123
 30
0.0
 11
7017.920445754743
 21
2545.52951723528
 31
0.0
  0
LINE
  5
27780
330
1F
100
AcDbEntity
  8
D-STR-DIM
  6
Continuous
100
AcDbLine
 10
6717.920427022891
 20
2515.528917362092
 30
0.0
 11
6717.920427022891
 21
2925.529315544505
 31
0.0
  0
LINE
  5
27781
330
1F
100
AcDbEntity
  8
D-STR-STR2
  6
Continuous
100
AcDbLine
 10
6467.920588079607
 20
2395.529317784784
 30
0.0
 11
6467.920588079607
 21
2495.528917362091
 31
0.0
  0
LINE
  5
27782
330
1F
100
AcDbEntity
  8
D-STR-STR2
  6
Continuous
100
AcDbLine
 10
7067.92042554346
 20
2395.529317784784
 30
0.0
 11
7067.92042554346
 21
2495.528917362091
 31
0.0
  0
LINE
  5
27783
330
1F
100
AcDbEntity
  8
D-STR-STR2
  6
Continuous
100
AcDbLine
 10
6967.920465966097
 20
2495.528917362091
 30
0.0
 11
6967.920465966097
 21
2395.529317784784
 31
0.0
  0
LINE
  5
27784
330
1F
100
AcDbEntity
  8
D-BMK
  6
CENTER2
100
AcDbLine
 10
7017.920445754743
 20
2525.52951723528
 30
0.0
 11
7017.920445754743
 21
2365.528717911595
 31
0.0
  0
LINE
  5
27785
330
1F
100
AcDbEntity
  8
D-STR-STR2
  6
Continuous
100
AcDbLine
 10
6967.920465966097
 20
2395.529317784784
 30
0.0
 11
7067.92042554346
 21
2395.529317784784
 31
0.0
  0
CIRCLE
  5
27786
330
1F
100
AcDbEntity
  8
D-STR-DIM
  6
Continuous
100
AcDbCircle
 10
6717.920427022891
 20
2895.528715671316
 30
0.0
 40
5.999997974638371
  0
LINE
  5
27787
330
1F
100
AcDbEntity
  8
D-STR-DIM
  6
Continuous
100
AcDbLine
 10
5897.920390488966
 20
3695.52891186707
 30
0.0
 11
6717.920427022891
 21
3695.52891186707
 31
0.0
  0
LINE
  5
27788
330
1F
100
AcDbEntity
  8
D-STR-DIM
  6
Continuous
100
AcDbLine
 10
6417.920588290951
 20
3195.529114403234
 30
0.0
 11
6717.920427022891
 21
3195.529114403234
 31
0.0
  0
LINE
  5
27789
330
1F
100
AcDbEntity
  8
D-STR-DIM
  6
Continuous
100
AcDbLine
 10
5897.920390488966
 20
3195.529114403234
 30
0.0
 11
6157.920589389956
 21
3195.529114403234
 31
0.0
  0
TEXT
  5
2778A
330
1F
100
AcDbEntity
  8
D-STR-DIM
100
AcDbText
 10
6081.060589714823
 20
3211.528714335603
 30
0.0
 40
70.0
  1
520
100
AcDbText
  0
CIRCLE
  5
2778B
330
1F
100
AcDbEntity
  8
D-STR-DIM
  6
Continuous
100
AcDbCircle
 10
5897.920390488966
 20
3195.529114403234
 30
0.0
 40
5.999997974638371
  0
LINE
  5
2778C
330
1F
100
AcDbEntity
  8
D-STR-DIM
  6
Continuous
100
AcDbLine
 10
6417.920588290951
 20
3195.529114403234
 30
0.0
 11
6157.920589389956
 21
3195.529114403234
 31
0.0
  0
CIRCLE
  5
2778D
330
1F
100
AcDbEntity
  8
D-STR-DIM
  6
Continuous
100
AcDbCircle
 10
6417.920588290951
 20
3195.529114403234
 30
0.0
 40
5.999997974638371
  0
CIRCLE
  5
2778E
330
1F
100
AcDbEntity
  8
D-STR-DIM
  6
Continuous
100
AcDbCircle
 10
5897.920390488966
 20
3695.52891186707
 30
0.0
 40
5.999997974638371
  0
LINE
  5
2778F
330
1F
100
AcDbEntity
  8
D-STR-DIM
  6
Continuous
100
AcDbLine
 10
7017.920445754743
 20
3195.529114403234
 30
0.0
 11
6717.920427022891
 21
3195.529114403234
 31
0.0
  0
TEXT
  5
27790
330
1F
100
AcDbEntity
  8
D-STR-DIM
100
AcDbText
 10
6631.060587390006
 20
3211.528714335603
 30
0.0
 40
70.0
  1
600
100
AcDbText
  0
CIRCLE
  5
27791
330
1F
100
AcDbEntity
  8
D-STR-DIM
  6
Continuous
100
AcDbCircle
 10
7017.920445754743
 20
3195.529114403234
 30
0.0
 40
5.999997974638371
  0
TEXT
  5
27792
330
1F
100
AcDbEntity
  8
D-STR-DIM
100
AcDbText
 10
6599.060587525298
 20
3711.528511799439
 30
0.0
 40
70.0
  1
1640
100
AcDbText
  0
LINE
  5
27794
330
1F
100
AcDbEntity
  8
D-STR
  6
Continuous
100
AcDbLine
 10
7342.920464380994
 20
2495.528917362091
 30
0.0
 11
7342.920464380994
 21
2395.529317784784
 31
0.0
  0
LINE
  5
27795
330
1F
100
AcDbEntity
  8
D-STR
  6
Continuous
100
AcDbLine
 10
7217.920384909405
 20
2345.528717996134
 30
0.0
 11
7342.920464380994
 21
2395.529317784784
 31
0.0
  0
LINE
  5
27796
330
1F
100
AcDbEntity
  8
D-BMK
  6
CENTER2
100
AcDbLine
 10
7117.920425332115
 20
2305.52891816521
 30
0.0
 11
7117.920425332115
 21
2385.528917827054
 31
0.0
  0
CIRCLE
  5
27798
330
1F
100
AcDbEntity
  8
D-STR-STR2
  6
Continuous
100
AcDbCircle
 10
7117.920425332115
 20
2345.528717996134
 30
0.0
 40
9.999997957730611
  0
LINE
  5
27799
330
1F
100
AcDbEntity
  8
D-STR-DIM
  6
Continuous
100
AcDbLine
 10
7537.920383556786
 20
2895.528715671316
 30
0.0
 11
7127.920465289786
 21
2895.528715671316
 31
0.0
  0
CIRCLE
  5
2779A
330
1F
100
AcDbEntity
  8
D-STR-DIM
  6
Continuous
100
AcDbCircle
 10
7537.920383556786
 20
2895.528715671316
 30
0.0
 40
5.999997974638371
  0
LINE
  5
2779B
330
1F
100
AcDbEntity
  8
D-STR-DIM
  6
Continuous
100
AcDbLine
 10
7937.920441865957
 20
2495.528917362091
 30
0.0
 11
7937.920441865957
 21
2270.529118313152
 31
0.0
  0
CIRCLE
  5
2779C
330
1F
100
AcDbEntity
  8
D-STR-DIM
  6
Continuous
100
AcDbCircle
 10
7937.920441865957
 20
2495.528917362091
 30
0.0
 40
5.999997974638371
  0
CIRCLE
  5
2779D
330
1F
100
AcDbEntity
  8
D-STR-DIM
  6
Continuous
100
AcDbCircle
 10
8237.920400597934
 20
2495.528917362091
 30
0.0
 40
5.999997974638371
  0
LINE
  5
2779F
330
1F
100
AcDbEntity
  8
D-STR-DIM
  6
Continuous
100
AcDbLine
 10
7537.920383556786
 20
3195.529114403234
 30
0.0
 11
7277.920424655803
 21
3195.529114403234
 31
0.0
  0
TEXT
  5
277A0
330
1F
100
AcDbEntity
  8
D-STR-DIM
100
AcDbText
 10
7181.060485065159
 20
3211.528714335603
 30
0.0
 40
70.0
  1
520
100
AcDbText
  0
CIRCLE
  5
277A1
330
1F
100
AcDbEntity
  8
D-STR-DIM
  6
Continuous
100
AcDbCircle
 10
7537.920383556786
 20
3195.529114403234
 30
0.0
 40
5.999997974638371
  0
CIRCLE
  5
277A2
330
1F
100
AcDbEntity
  8
D-STR-DIM
  6
Continuous
100
AcDbCircle
 10
7537.920383556786
 20
3695.52891186707
 30
0.0
 40
5.999997974638371
  0
TEXT
  5
2792D
330
1F
100
AcDbEntity
  8
D-TTL-TXT
100
AcDbText
 10
5155.559073286502
 20
10105.36420676157
 30
0.0
 40
140.0
  1
 頂　版　
100
AcDbText
  0
CIRCLE
  5
2793D
330
1F
100
AcDbEntity
  8
D-STR-DIM
  6
Continuous
100
AcDbCircle
 10
5897.920390488966
 20
10195.52868396927
 30
0.0
 40
5.999997974638371
  0
TEXT
  5
27961
330
1F
100
AcDbEntity
  8
D-STR-DIM
100
AcDbText
 10
8521.920387397408
 20
2158.669118785978
 30
0.0
 40
59.99999974638362
  1
500
 50
90.0
100
AcDbText
  0
LINE
  5
27962
330
1F
100
AcDbEntity
  8
D-STR-DIM
  6
Continuous
100
AcDbLine
 10
8537.92038132979
 20
1995.52891947556
 30
0.0
 11
8537.92038132979
 21
2245.529118418824
 31
0.0
  0
LINE
  5
27963
330
1F
100
AcDbEntity
  8
D-STR-DIM
  6
Continuous
100
AcDbLine
 10
8537.92038132979
 20
995.5289237025008
 30
0.0
 11
8537.92038132979
 21
1495.52912158903
 31
0.0
  0
CIRCLE
  5
27964
330
1F
100
AcDbEntity
  8
D-STR-DIM
  6
Continuous
100
AcDbCircle
 10
8537.92038132979
 20
995.5289237025008
 30
0.0
 40
5.999997974638371
  0
LINE
  5
27965
330
1F
100
AcDbEntity
  8
D-STR-DIM
  6
Continuous
100
AcDbLine
 10
8537.92038132979
 20
1995.52891947556
 30
0.0
 11
8537.92038132979
 21
1495.52912158903
 31
0.0
  0
TEXT
  5
27966
330
1F
100
AcDbEntity
  8
D-STR-DIM
100
AcDbText
 10
8521.920387397408
 20
1376.669122091443
 30
0.0
 40
59.99999974638362
  1
1000
 50
90.0
100
AcDbText
  0
CIRCLE
  5
27967
330
1F
100
AcDbEntity
  8
D-STR-DIM
  6
Continuous
100
AcDbCircle
 10
8537.92038132979
 20
1995.52891947556
 30
0.0
 40
5.999997974638371
  0
CIRCLE
  5
27968
330
1F
100
AcDbEntity
  8
D-STR-DIM
  6
Continuous
100
AcDbCircle
 10
8537.92038132979
 20
1995.52891947556
 30
0.0
 40
5.999997974638371
  0
LINE
  5
2797A
330
1F
100
AcDbEntity
  8
D-STR-DIM
  6
Continuous
100
AcDbLine
 10
8537.92038132979
 20
2495.528917362091
 30
0.0
 11
8537.92038132979
 21
2245.529118418824
 31
0.0
  0
CIRCLE
  5
2797B
330
1F
100
AcDbEntity
  8
D-STR-DIM
  6
Continuous
100
AcDbCircle
 10
8537.92038132979
 20
2495.528917362091
 30
0.0
 40
5.999997974638371
  0
LINE
  5
28041
330
1F
100
AcDbEntity
  8
D-STR-HTXT
  6
Continuous
100
AcDbLine
 10
6364.225387376468
 20
1126.664123275732
 30
0.0
 11
7687.909983068632
 21
595.528525004267
 31
0.0
  0
CIRCLE
  5
28055
330
1F
100
AcDbEntity
  8
D-STR
  6
Continuous
100
AcDbCircle
 10
6317.920587527162
 20
1145.529123214337
 30
0.0
 40
49.99999783727942
  0
LINE
  5
28067
330
1F
100
AcDbEntity
  8
D-STR
  6
Continuous
100
AcDbLine
 10
6366.909587367736
 20
1135.528923246884
 30
0.0
 11
6268.9313876866
 21
1135.528923246884
 31
0.0
  0
LINE
  5
28068
330
1F
100
AcDbEntity
  8
D-STR
  6
Continuous
100
AcDbLine
 10
6366.909587367736
 20
1155.529123181794
 30
0.0
 11
6268.9313876866
 21
1155.529123181794
 31
0.0
  0
LINE
  5
28069
330
1F
100
AcDbEntity
  8
D-STR-HTXT
  6
Continuous
100
AcDbLine
 10
6404.017187246987
 20
1118.524523302223
 30
0.0
 11
6364.224387376424
 21
1126.664123275732
 31
0.0
  0
CIRCLE
  5
28085
330
1F
100
AcDbEntity
  8
D-STR
  6
Continuous
100
AcDbCircle
 10
6717.920426225417
 20
1745.528921261692
 30
0.0
 40
49.99999783727942
  0
LINE
  5
2808A
330
1F
100
AcDbEntity
  8
D-STR-HTXT
  6
Continuous
100
AcDbLine
 10
7187.402224697525
 20
1088.152723401064
 30
0.0
 11
7153.267044808602
 21
1110.164523329429
 31
0.0
  0
LINE
  5
2808B
330
1F
100
AcDbEntity
  8
D-STR-HTXT
  6
Continuous
100
AcDbLine
 10
7153.271364808595
 20
1110.168923329414
 30
0.0
 11
7687.911223068607
 21
595.528925004266
 31
0.0
  0
LINE
  5
2808C
330
1F
100
AcDbEntity
  8
D-STR-HTXT
  6
Continuous
100
AcDbLine
 10
6749.763586121774
 20
1706.980921387143
 30
0.0
 11
7687.91060306862
 21
595.528925004266
 31
0.0
  0
CIRCLE
  5
2808D
330
1F
100
AcDbEntity
  8
D-STR
  6
Continuous
100
AcDbCircle
 10
7117.920424923653
 20
1145.529123214337
 30
0.0
 40
49.99999783727942
  0
LINE
  5
28099
330
1F
100
AcDbEntity
  8
D-STR
  6
Continuous
100
AcDbLine
 10
6766.90964606599
 20
1735.528721294237
 30
0.0
 11
6668.931206384844
 21
1735.528721294237
 31
0.0
  0
LINE
  5
2809A
330
1F
100
AcDbEntity
  8
D-STR
  6
Continuous
100
AcDbLine
 10
6766.90964606599
 20
1755.528921229148
 30
0.0
 11
6668.931206384844
 21
1755.528921229148
 31
0.0
  0
LINE
  5
2809B
330
1F
100
AcDbEntity
  8
D-STR-HTXT
  6
Continuous
100
AcDbLine
 10
6781.229446019326
 20
1681.295721470733
 30
0.0
 11
6749.764826121754
 21
1706.981321387142
 31
0.0
  0
LINE
  5
2809C
330
1F
100
AcDbEntity
  8
D-STR
  6
Continuous
100
AcDbLine
 10
7166.910264764213
 20
1155.529123181794
 30
0.0
 11
7068.930705083058
 21
1155.529123181794
 31
0.0
  0
LINE
  5
2809D
330
1F
100
AcDbEntity
  8
D-STR
  6
Continuous
100
AcDbLine
 10
7166.910264764213
 20
1135.528923246884
 30
0.0
 11
7068.930705083058
 21
1135.528923246884
 31
0.0
  0
LINE
  5
2853D
330
1F
100
AcDbEntity
  8
D-STR-HTXT
  6
Continuous
100
AcDbLine
 10
6417.919388290918
 20
2495.528517362092
 30
0.0
 11
7133.390445266716
 21
2695.528516516704
 31
0.0
  0
LINE
  5
2853E
330
1F
100
AcDbEntity
  8
D-STR-HTXT
  6
Continuous
100
AcDbLine
 10
6417.919388290918
 20
2495.52851502484
 30
0.0
 11
7133.390445266716
 21
2695.528514179452
 31
0.0
  0
LINE
  5
28540
330
1F
100
AcDbEntity
  8
D-STR-HTXT
  6
Continuous
100
AcDbLine
 10
6454.545099093888
 20
2513.088615934103
 30
0.0
 11
6417.920972563734
 21
2495.527140380092
 31
0.0
  0
LINE
  5
28541
330
1F
100
AcDbEntity
  8
D-STR-HTXT
  6
Continuous
100
AcDbLine
 10
7017.920445754743
 20
2495.528917362091
 30
0.0
 11
7133.390445266716
 21
2695.528516516704
 31
0.0
  0
LINE
  5
28542
330
1F
100
AcDbEntity
  8
D-STR-HTXT
  6
Continuous
100
AcDbLine
 10
7017.920445754743
 20
2495.528915024839
 30
0.0
 11
7133.390445266716
 21
2695.528514179452
 31
0.0
  0
LINE
  5
28544
330
1F
100
AcDbEntity
  8
D-STR-HTXT
  6
Continuous
100
AcDbLine
 10
7031.81255222571
 20
2533.696055194389
 30
0.0
 11
7017.920583362185
 21
2495.528539288745
 31
0.0
  0
TEXT
  5
28F18
330
1F
100
AcDbEntity
  8
D-TTL-TXT
100
AcDbText
 10
2599.704733589307
 20
11035.6901673296
 30
0.0
 40
200.0
  1
Ｃ．Ｃ．ＢＯＸ　1,200×1,900×1,500　ＢＬ-Ｍタイプ（マンホール付）　構造図　
100
AcDbText
  0
TEXT
  5
28F19
330
1F
100
AcDbEntity
  8
D-TTL-TXT
100
AcDbText
 10
7015.840054270608
 20
10724.60112948968
 30
0.0
 40
200.0
  1
（横断管路用タイプ）
100
AcDbText
  0
TEXT
  5
28F1A
330
1F
100
AcDbEntity
  8
D-TTL-TXT
100
AcDbText
 10
12632.91848000854
 20
11027.68936812968
 30
0.0
 40
99.99999000000102
  1
S = 1/20
100
AcDbText
  0
LINE
  5
29416
330
1F
100
AcDbEntity
  8
D-STR-DIM
  6
Continuous
100
AcDbLine
 10
7567.92040342991
 20
4395.529116707121
 30
0.0
 11
9507.920375229714
 21
4395.529116707121
 31
0.0
  0
LINE
  5
29417
330
1F
100
AcDbEntity
  8
D-STR-DIM
  6
Continuous
100
AcDbLine
 10
7567.92040342991
 20
6695.528906985159
 30
0.0
 11
9507.920375229714
 21
6695.528906985159
 31
0.0
  0
LWPOLYLINE
  5
2941C
330
1F
100
AcDbEntity
  8
D-TTL
  6
Continuous
100
AcDbPolyline
 90
        4
 70
     1
 43
0.0
 10
800.0
 20
11479.99995240003
 10
16419.99993279995
 20
11479.99995240003
 10
16419.99993279995
 20
400.0
 10
800.0
 20
400.0
  0
LWPOLYLINE
  5
2941D
330
1F
100
AcDbEntity
  8
D-TTL
  6
Continuous
100
AcDbPolyline
 90
        4
 70
     1
 43
0.0
 10
0.0
 20
11879.99995240002
 10
16819.99993279995
 20
11879.99995240002
 10
16819.99993279995
 20
0.0
 10
0.0
 20
0.0
  0
LINE
  5
2941E
330
1F
100
AcDbEntity
  8
D-STR-DIM
  6
Continuous
100
AcDbLine
 10
5497.920592001985
 20
6345.528709331139
 30
0.0
 11
5497.920592001985
 21
5820.529111316981
 31
0.0
  0
TEXT
  5
2941F
330
1F
100
AcDbEntity
  8
D-STR-DIM
100
AcDbText
 10
5481.920592062517
 20
5701.669111766575
 30
0.0
 40
70.0
  1
1050
 50
90.0
100
AcDbText
  0
LINE
  5
29420
330
1F
100
AcDbEntity
  8
D-STR
  6
Continuous
100
AcDbLine
 10
3037.920802529119
 20
5245.52871349195
 30
0.0
 11
3037.920802529119
 21
6495.528908763755
 31
0.0
  0
LINE
  5
29421
330
1F
100
AcDbEntity
  8
D-STR
  6
Continuous
100
AcDbLine
 10
3257.920801696957
 20
5245.52871349195
 30
0.0
 11
3257.920801696957
 21
6495.528908763755
 31
0.0
  0
LINE
  5
29422
330
1F
100
AcDbEntity
  8
D-STR
  6
Continuous
100
AcDbLine
 10
3247.920801734781
 20
5255.529113454124
 30
0.0
 11
3247.920801734781
 21
6485.528508801583
 31
0.0
  0
LINE
  5
29423
330
1F
100
AcDbEntity
  8
D-STR
  6
Continuous
100
AcDbLine
 10
3047.920802491295
 20
5255.529113454124
 30
0.0
 11
3047.920802491295
 21
6485.528508801583
 31
0.0
  0
LINE
  5
29424
330
1F
100
AcDbEntity
  8
D-STR-DIM
  6
Continuous
100
AcDbLine
 10
4297.920797763101
 20
5370.528513019131
 30
0.0
 11
4297.920797763101
 21
6033.028710513187
 31
0.0
  0
LINE
  5
29425
330
1F
100
AcDbEntity
  8
D-STR-DIM
  6
Continuous
100
AcDbLine
 10
2937.920802907374
 20
5255.529113454124
 30
0.0
 11
2937.920802907374
 21
5870.528911127852
 31
0.0
  0
TEXT
  5
29426
330
1F
100
AcDbEntity
  8
D-STR-DIM
100
AcDbText
 10
2988.060802717744
 20
5799.209111397624
 30
0.0
 40
70.0
  1
10
100
AcDbText
  0
TEXT
  5
29427
330
1F
100
AcDbEntity
  8
D-STR-DIM
100
AcDbText
 10
3198.06080192341
 20
5799.209111397624
 30
0.0
 40
70.0
  1
10
100
AcDbText
  0
TEXT
  5
29428
330
1F
100
AcDbEntity
  8
D-STR-DIM
100
AcDbText
 10
2921.920602967916
 20
5751.668911577446
 30
0.0
 40
70.0
  1
1230
 50
90.0
100
AcDbText
  0
LINE
  5
29429
330
1F
100
AcDbEntity
  8
D-STR-DIM
  6
Continuous
100
AcDbLine
 10
8337.920400175171
 20
6495.528907830546
 30
0.0
 11
8337.920400175171
 21
5545.529111846141
 31
0.0
  0
LINE
  5
2942A
330
1F
100
AcDbEntity
  8
D-STR-DIM
  6
Continuous
100
AcDbLine
 10
8037.920401443249
 20
6395.528508253244
 30
0.0
 11
8037.920401443249
 21
5545.529111846141
 31
0.0
  0
LINE
  5
2942B
330
1F
100
AcDbEntity
  8
D-STR
  6
Continuous
100
AcDbLine
 10
7342.920464380994
 20
4595.529115861733
 30
0.0
 11
7342.920464380994
 21
6495.528907830546
 31
0.0
  0
LINE
  5
2942C
330
1F
100
AcDbEntity
  8
D-STR
  6
Continuous
100
AcDbLine
 10
6092.920589664707
 20
4595.529115861733
 30
0.0
 11
6092.920589664707
 21
6495.528907830546
 31
0.0
  0
LINE
  5
2942D
330
1F
100
AcDbEntity
  8
D-STR
  6
Continuous
100
AcDbLine
 10
5897.920390488966
 20
4395.529116707121
 30
0.0
 11
5897.920390488966
 21
6695.528906985159
 31
0.0
  0
LINE
  5
2942E
330
1F
100
AcDbEntity
  8
D-STR
  6
Continuous
100
AcDbLine
 10
7537.920383556786
 20
4395.529116707121
 30
0.0
 11
7537.920383556786
 21
6695.528906985159
 31
0.0
  0
LINE
  5
2942F
330
1F
100
AcDbEntity
  8
D-STR
  6
Continuous
100
AcDbLine
 10
6117.920389559039
 20
4695.528515439042
 30
0.0
 11
6117.920389559039
 21
6395.528508253244
 31
0.0
  0
LINE
  5
29430
330
1F
100
AcDbEntity
  8
D-STR
  6
Continuous
100
AcDbLine
 10
7317.920484486673
 20
4695.528515439042
 30
0.0
 11
7317.920484486673
 21
6395.528508253244
 31
0.0
  0
LINE
  5
29431
330
1F
100
AcDbEntity
  8
D-STR-DIM
  6
Continuous
100
AcDbLine
 10
7787.920422499992
 20
6419.529108151796
 30
0.0
 11
7787.920422499992
 21
5549.029111831348
 31
0.0
  0
LINE
  5
29432
330
1F
100
AcDbEntity
  8
D-STR
  6
Continuous
100
AcDbLine
 10
3787.920799407799
 20
6495.528907830546
 30
0.0
 11
3787.920799407799
 21
4595.529115861733
 31
0.0
  0
LINE
  5
29433
330
1F
100
AcDbEntity
  8
D-STR
  6
Continuous
100
AcDbLine
 10
3897.920798942836
 20
6695.528906985159
 30
0.0
 11
3897.920798942836
 21
4395.529116707121
 31
0.0
  0
LINE
  5
29434
330
1F
100
AcDbEntity
  8
D-STR
  6
Continuous
100
AcDbLine
 10
3797.92039936554
 20
6485.52850787282
 30
0.0
 11
3797.92039936554
 21
4605.528715819464
 31
0.0
  0
LINE
  5
29435
330
1F
100
AcDbEntity
  8
D-STR-DIM
  6
Continuous
100
AcDbLine
 10
5097.920793870508
 20
6695.528906985159
 30
0.0
 11
5097.920793870508
 21
5545.529111846141
 31
0.0
  0
LINE
  5
29436
330
1F
100
AcDbEntity
  8
D-STR
  6
Continuous
100
AcDbLine
 10
2497.920804860551
 20
6485.52850787282
 30
0.0
 11
2497.920804860551
 21
4605.528715819464
 31
0.0
  0
LINE
  5
29437
330
1F
100
AcDbEntity
  8
D-STR
  6
Continuous
100
AcDbLine
 10
2397.920805283244
 20
6695.528906985159
 30
0.0
 11
2397.920805283244
 21
4395.529116707121
 31
0.0
  0
LINE
  5
29438
330
1F
100
AcDbEntity
  8
D-STR
  6
Continuous
100
AcDbLine
 10
2507.920804818281
 20
6495.528907830546
 30
0.0
 11
2507.920804818281
 21
4595.529115861733
 31
0.0
  0
LINE
  5
29439
330
1F
100
AcDbEntity
  8
D-STR
  6
Continuous
100
AcDbLine
 10
3047.920802491295
 20
5255.529113454124
 30
0.0
 11
3247.920801734781
 21
5255.529113454124
 31
0.0
  0
LINE
  5
2943A
330
1F
100
AcDbEntity
  8
D-STR
  6
Continuous
100
AcDbLine
 10
3037.920802529119
 20
5245.52871349195
 30
0.0
 11
3257.920801696957
 21
5245.52871349195
 31
0.0
  0
TEXT
  5
2943B
330
1F
100
AcDbEntity
  8
D-STR-DIM
100
AcDbText
 10
3061.060802441574
 20
4974.208914518232
 30
0.0
 40
70.0
  1
700
100
AcDbText
  0
LINE
  5
2943C
330
1F
100
AcDbEntity
  8
D-STR-STR2
  6
Continuous
100
AcDbLine
 10
2797.920803436933
 20
5195.528913681076
 30
0.0
 11
3497.920400789154
 21
5195.528913681076
 31
0.0
  0
LINE
  5
2943D
330
1F
100
AcDbEntity
  8
D-STR-DIM
  6
Continuous
100
AcDbLine
 10
3497.920400789154
 20
5070.529114153896
 30
0.0
 11
3147.920802113036
 21
5070.529114153896
 31
0.0
  0
LINE
  5
2943E
330
1F
100
AcDbEntity
  8
D-STR-DIM
  6
Continuous
100
AcDbLine
 10
3212.920401867184
 20
3995.529318220143
 30
0.0
 11
3147.920802113036
 21
3995.529318220143
 31
0.0
  0
TEXT
  5
2943F
330
1F
100
AcDbEntity
  8
D-STR-DIM
100
AcDbText
 10
3061.060802441574
 20
3899.20911858448
 30
0.0
 40
70.0
  1
130
100
AcDbText
  0
TEXT
  5
29440
330
1F
100
AcDbEntity
  8
D-STR-DIM
100
AcDbText
 10
3029.060802562646
 20
3711.52851929439
 30
0.0
 40
70.0
  1
1500
100
AcDbText
  0
LINE
  5
29441
330
1F
100
AcDbEntity
  8
D-STR-DIM
  6
Continuous
100
AcDbLine
 10
3897.920799276123
 20
3695.52891935491
 30
0.0
 11
3147.920802113036
 21
3695.52891935491
 31
0.0
  0
LINE
  5
29442
330
1F
100
AcDbEntity
  8
D-STR-HTXT
  6
Continuous
100
AcDbLine
 10
3572.740200506185
 20
4195.529317463631
 30
0.0
 11
2807.141803402086
 21
4516.661316248931
 31
0.0
  0
LINE
  5
29443
330
1F
100
AcDbEntity
  8
D-STR
  6
Continuous
100
AcDbLine
 10
2397.920805283244
 20
4395.529116707121
 30
0.0
 11
3897.920798942836
 21
4395.529116707121
 31
0.0
  0
LINE
  5
29444
330
1F
100
AcDbEntity
  8
D-STR
  6
Continuous
100
AcDbLine
 10
2397.920805283244
 20
4595.529115861733
 30
0.0
 11
3897.920798942836
 21
4595.529115861733
 31
0.0
  0
LINE
  5
29445
330
1F
100
AcDbEntity
  8
D-STR-DIM
  6
Continuous
100
AcDbLine
 10
3082.920802358902
 20
4375.529116707122
 30
0.0
 11
3082.920802358902
 21
3965.528718333621
 31
0.0
  0
LINE
  5
29446
330
1F
100
AcDbEntity
  8
D-STR-DIM
  6
Continuous
100
AcDbLine
 10
2462.920804704089
 20
4375.529116707122
 30
0.0
 11
2462.920804704089
 21
3965.528718333621
 31
0.0
  0
LINE
  5
29447
330
1F
100
AcDbEntity
  8
D-STR-DIM
  6
Continuous
100
AcDbLine
 10
2397.920804949954
 20
4375.529116707122
 30
0.0
 11
2397.920804949954
 21
3665.529319468386
 31
0.0
  0
LINE
  5
29448
330
1F
100
AcDbEntity
  8
D-STR-DIM
  6
Continuous
100
AcDbLine
 10
2397.920804949954
 20
3695.52891935491
 30
0.0
 11
3147.920802113036
 21
3695.52891935491
 31
0.0
  0
CIRCLE
  5
29449
330
1F
100
AcDbEntity
  8
D-STR-DIM
  6
Continuous
100
AcDbCircle
 10
2397.920804949954
 20
3695.52891935491
 30
0.0
 40
5.999997977304677
  0
TEXT
  5
2944A
330
1F
100
AcDbEntity
  8
D-STR-DIM
100
AcDbText
 10
2343.060605157498
 20
3899.20911858448
 30
0.0
 40
70.0
  1
65
100
AcDbText
  0
LINE
  5
2944B
330
1F
100
AcDbEntity
  8
D-STR-HTXT
  6
Continuous
100
AcDbLine
 10
2147.920606339983
 20
4395.529116707121
 30
0.0
 11
1428.507331526794
 21
4395.529116707121
 31
0.0
  0
TEXT
  5
2944C
330
1F
100
AcDbEntity
  8
D-STR-HTXT
100
AcDbText
 10
1358.011141417228
 20
4411.528916639489
 30
0.0
 40
70.0
  1
　インサート　Ｍ16
100
AcDbText
  0
TEXT
  5
2944D
330
1F
100
AcDbEntity
  8
D-STR-HTXT
100
AcDbText
 10
1365.759608711545
 20
4315.528717045277
 30
0.0
 40
70.0
  1
　　（セラミック）
100
AcDbText
  0
LINE
  5
2944E
330
1F
100
AcDbEntity
  8
D-STR-STR2
  6
Continuous
100
AcDbLine
 10
2797.920803436933
 20
4595.52911595061
 30
0.0
 11
2797.920803436933
 21
5195.528913681076
 31
0.0
  0
LINE
  5
2944F
330
1F
100
AcDbEntity
  8
D-BMK
  6
CENTER2
100
AcDbLine
 10
2672.920803909751
 20
4905.529114778018
 30
0.0
 11
2672.920803909751
 21
4985.529514475412
 31
0.0
  0
LINE
  5
29450
330
1F
100
AcDbEntity
  8
D-STR-DIM
  6
Continuous
100
AcDbLine
 10
2462.920804704089
 20
3995.529318220143
 30
0.0
 11
2772.920803531495
 21
3995.529318220143
 31
0.0
  0
LINE
  5
29451
330
1F
100
AcDbEntity
  8
D-BMK
  6
CENTER2
100
AcDbLine
 10
2502.920604839423
 20
4745.529315227691
 30
0.0
 11
2422.920805177572
 21
4745.529315227691
 31
0.0
  0
LINE
  5
29452
330
1F
100
AcDbEntity
  8
D-STR
  6
Continuous
100
AcDbLine
 10
2397.920805283244
 20
4605.528715819464
 30
0.0
 11
2497.920804860551
 21
4605.528715819464
 31
0.0
  0
LINE
  5
29453
330
1F
100
AcDbEntity
  8
D-STR
  6
Continuous
100
AcDbLine
 10
2397.920805283244
 20
4595.529115861733
 30
0.0
 11
2507.920804818281
 21
4595.529115861733
 31
0.0
  0
LINE
  5
29454
330
1F
100
AcDbEntity
  8
D-STR-HTXT
  6
Continuous
100
AcDbLine
 10
2147.920606339983
 20
4395.529116707121
 30
0.0
 11
2456.231005036749
 21
4738.096315259109
 31
0.0
  0
LINE
  5
29455
330
1F
100
AcDbEntity
  8
D-STR-DIM
  6
Continuous
100
AcDbLine
 10
2462.920804704089
 20
3995.529318220143
 30
0.0
 11
2430.420604827028
 21
3995.529318220143
 31
0.0
  0
CIRCLE
  5
29456
330
1F
100
AcDbEntity
  8
D-STR-DIM
  6
Continuous
100
AcDbCircle
 10
2462.920804704089
 20
3995.529318220143
 30
0.0
 40
5.999997977304677
  0
CIRCLE
  5
29457
330
1F
100
AcDbEntity
  8
D-STR-DIM
  6
Continuous
100
AcDbCircle
 10
2397.920804949954
 20
3995.529318220143
 30
0.0
 40
5.999997977304677
  0
LINE
  5
29458
330
1F
100
AcDbEntity
  8
D-STR-DIM
  6
Continuous
100
AcDbLine
 10
2397.920804949954
 20
3995.529318220143
 30
0.0
 11
2430.420604827028
 21
3995.529318220143
 31
0.0
  0
LINE
  5
29459
330
1F
100
AcDbEntity
  8
D-BMK
  6
CENTER2
100
AcDbLine
 10
2462.920805008493
 20
4785.528515058617
 30
0.0
 11
2462.920805008493
 21
4705.52911539677
 31
0.0
  0
CIRCLE
  5
2945A
330
1F
100
AcDbEntity
  8
D-STR-STR2
  6
Continuous
100
AcDbCircle
 10
2462.920805008493
 20
4745.529315227691
 30
0.0
 40
9.999997957730611
  0
LINE
  5
2945B
330
1F
100
AcDbEntity
  8
D-STR-HTXT
  6
Continuous
100
AcDbLine
 10
2424.230205171989
 20
4713.083115364837
 30
0.0
 11
2456.231005036749
 21
4738.096315259109
 31
0.0
  0
LINE
  5
2945C
330
1F
100
AcDbEntity
  8
D-STR-DIM
  6
Continuous
100
AcDbLine
 10
3082.920802358902
 20
3995.529318220143
 30
0.0
 11
2772.920803531495
 21
3995.529318220143
 31
0.0
  0
TEXT
  5
2945D
330
1F
100
AcDbEntity
  8
D-STR-DIM
100
AcDbText
 10
2686.060803860033
 20
4011.528918159622
 30
0.0
 40
70.0
  1
620
100
AcDbText
  0
LINE
  5
2945E
330
1F
100
AcDbEntity
  8
D-STR-DIM
  6
Continuous
100
AcDbLine
 10
3082.920802358902
 20
3995.529318220143
 30
0.0
 11
3147.920802113036
 21
3995.529318220143
 31
0.0
  0
CIRCLE
  5
2945F
330
1F
100
AcDbEntity
  8
D-STR-DIM
  6
Continuous
100
AcDbCircle
 10
3082.920802358902
 20
3995.529318220143
 30
0.0
 40
5.999997977304677
  0
LINE
  5
29460
330
1F
100
AcDbEntity
  8
D-BMK
  6
CENTER2
100
AcDbLine
 10
2757.920603588238
 20
4520.529116234302
 30
0.0
 11
2837.920403285643
 21
4520.529116234302
 31
0.0
  0
LINE
  5
29461
330
1F
100
AcDbEntity
  8
D-STR-HTXT
  6
Continuous
100
AcDbLine
 10
2846.756603252223
 20
4507.69431628285
 30
0.0
 11
2807.141803402086
 21
4516.661316248931
 31
0.0
  0
LINE
  5
29462
330
1F
100
AcDbEntity
  8
D-STR
  6
Continuous
100
AcDbLine
 10
2507.920804818281
 20
4695.528515439042
 30
0.0
 11
3037.920802578003
 21
4695.528515439042
 31
0.0
  0
LINE
  5
29463
330
1F
100
AcDbEntity
  8
D-STR
  6
Continuous
100
AcDbLine
 10
2497.920804860551
 20
4605.528715819464
 30
0.0
 11
2507.920804818281
 21
4595.529115861733
 31
0.0
  0
LINE
  5
29464
330
1F
100
AcDbEntity
  8
D-BMK
  6
CENTER2
100
AcDbLine
 10
2797.920803436933
 20
4480.528916385603
 30
0.0
 11
2797.920803436933
 21
4560.529116082999
 31
0.0
  0
CIRCLE
  5
29465
330
1F
100
AcDbEntity
  8
D-STR-STR2
  6
Continuous
100
AcDbCircle
 10
2797.920803436933
 20
4520.529116234302
 30
0.0
 40
9.999997962174456
  0
LINE
  5
29466
330
1F
100
AcDbEntity
  8
D-STR-DIM
  6
Continuous
100
AcDbLine
 10
2397.920804949954
 20
5070.529114153896
 30
0.0
 11
2597.920804193444
 21
5070.529114153896
 31
0.0
  0
CIRCLE
  5
29467
330
1F
100
AcDbEntity
  8
D-STR-DIM
  6
Continuous
100
AcDbCircle
 10
2397.920804949954
 20
5070.529114153896
 30
0.0
 40
5.999997977304677
  0
LINE
  5
29468
330
1F
100
AcDbEntity
  8
D-BMK
  6
CENTER2
100
AcDbLine
 10
2797.920803436933
 20
5330.529313170431
 30
0.0
 11
2797.920803436933
 21
5410.528712867828
 31
0.0
  0
CIRCLE
  5
29469
330
1F
100
AcDbEntity
  8
D-STR-STR2
  6
Continuous
100
AcDbCircle
 10
2797.920803436933
 20
5370.528513019131
 30
0.0
 40
9.999997962174456
  0
LINE
  5
2946A
330
1F
100
AcDbEntity
  8
D-BMK
  6
CENTER2
100
AcDbLine
 10
2757.920603588238
 20
5370.528513019131
 30
0.0
 11
2837.920403285643
 21
5370.528513019131
 31
0.0
  0
LINE
  5
2946B
330
1F
100
AcDbEntity
  8
D-STR-DIM
  6
Continuous
100
AcDbLine
 10
2797.920803436933
 20
5070.529114153896
 30
0.0
 11
3147.920802113036
 21
5070.529114153896
 31
0.0
  0
TEXT
  5
2946C
330
1F
100
AcDbEntity
  8
D-STR-DIM
100
AcDbText
 10
2561.812404330013
 20
5086.528714093378
 30
0.0
 40
70.0
  1
400
100
AcDbText
  0
LINE
  5
2946D
330
1F
100
AcDbEntity
  8
D-BMK
  6
CENTER2
100
AcDbLine
 10
2632.920604061059
 20
4945.529314626715
 30
0.0
 11
2712.920603758456
 21
4945.529314626715
 31
0.0
  0
LINE
  5
2946E
330
1F
100
AcDbEntity
  8
D-STR-DIM
  6
Continuous
100
AcDbLine
 10
2797.920803436933
 20
5070.529114153896
 30
0.0
 11
2597.920804193444
 21
5070.529114153896
 31
0.0
  0
CIRCLE
  5
2946F
330
1F
100
AcDbEntity
  8
D-STR-DIM
  6
Continuous
100
AcDbCircle
 10
2797.920803436933
 20
5070.529114153896
 30
0.0
 40
5.999997977304677
  0
CIRCLE
  5
29470
330
1F
100
AcDbEntity
  8
D-STR-STR2
  6
Continuous
100
AcDbCircle
 10
2672.920803909751
 20
4945.529314626715
 30
0.0
 40
9.999997962174456
  0
LINE
  5
29471
330
1F
100
AcDbEntity
  8
D-STR-DIM
  6
Continuous
100
AcDbLine
 10
3017.920802529119
 20
5245.52871349195
 30
0.0
 11
2907.92080302085
 21
5245.52871349195
 31
0.0
  0
LINE
  5
29472
330
1F
100
AcDbEntity
  8
D-STR-DIM
  6
Continuous
100
AcDbLine
 10
3017.920802529119
 20
5255.529113454124
 30
0.0
 11
2907.92080302085
 21
5255.529113454124
 31
0.0
  0
LINE
  5
29473
330
1F
100
AcDbEntity
  8
D-STR-DIM
  6
Continuous
100
AcDbLine
 10
2937.920802907374
 20
5245.52871349195
 30
0.0
 11
2937.920802907374
 21
5250.528913473035
 31
0.0
  0
LINE
  5
29474
330
1F
100
AcDbEntity
  8
D-STR-DIM
  6
Continuous
100
AcDbLine
 10
2937.920802907374
 20
5255.529113454124
 30
0.0
 11
2937.920802907374
 21
5250.528913473035
 31
0.0
  0
CIRCLE
  5
29475
330
1F
100
AcDbEntity
  8
D-STR-DIM
  6
Continuous
100
AcDbCircle
 10
2937.920802907374
 20
5245.52871349195
 30
0.0
 40
5.999997977304677
  0
CIRCLE
  5
29476
330
1F
100
AcDbEntity
  8
D-STR-DIM
  6
Continuous
100
AcDbCircle
 10
2937.920802907374
 20
5255.529113454124
 30
0.0
 40
5.999997977304677
  0
TEXT
  5
29477
330
1F
100
AcDbEntity
  8
D-STR-DIM
100
AcDbText
 10
2921.920602967916
 20
5195.66871368055
 30
0.0
 40
70.0
  1
10
 50
90.0
100
AcDbText
  0
LINE
  5
29478
330
1F
100
AcDbEntity
  8
D-BMK
  6
CENTER2
100
AcDbLine
 10
3082.920802358902
 20
5255.529113454124
 30
0.0
 11
3082.920802358902
 21
5335.528513151521
 31
0.0
  0
LINE
  5
29479
330
1F
100
AcDbEntity
  8
D-STR
  6
Continuous
100
AcDbLine
 10
3037.919402529158
 20
5245.52871349195
 30
0.0
 11
3047.919402491334
 21
5255.529113454124
 31
0.0
  0
LINE
  5
2947A
330
1F
100
AcDbEntity
  8
D-BMK
  6
CENTER2
100
AcDbLine
 10
3122.920402207612
 20
5295.529313302821
 30
0.0
 11
3042.920602510211
 21
5295.529313302821
 31
0.0
  0
CIRCLE
  5
2947B
330
1F
100
AcDbEntity
  8
D-STR-STR2
  6
Continuous
100
AcDbCircle
 10
3082.920802358902
 20
5295.529313302821
 30
0.0
 40
9.999997962174456
  0
LINE
  5
294F3
330
1F
100
AcDbEntity
  8
D-STR-DIM
  6
Continuous
100
AcDbLine
 10
5877.920390488966
 20
5295.529313302821
 30
0.0
 11
5467.920592115461
 21
5295.529313302821
 31
0.0
  0
LINE
  5
294F4
330
1F
100
AcDbEntity
  8
D-STR-DIM
  6
Continuous
100
AcDbLine
 10
5877.920390488966
 20
4595.52911595061
 30
0.0
 11
5467.920592115461
 21
4595.52911595061
 31
0.0
  0
LINE
  5
294F5
330
1F
100
AcDbEntity
  8
D-STR-DIM
  6
Continuous
100
AcDbLine
 10
5877.920390488966
 20
4745.529315383226
 30
0.0
 11
5467.920592115461
 21
4745.529315383226
 31
0.0
  0
LINE
  5
294FA
330
1F
100
AcDbEntity
  8
D-STR-DIM
  6
Continuous
100
AcDbLine
 10
5867.92059061577
 20
4395.529116707121
 30
0.0
 11
3927.920398816037
 21
4395.529116707121
 31
0.0
  0
LINE
  5
294FB
330
1F
100
AcDbEntity
  8
D-STR-DIM
  6
Continuous
100
AcDbLine
 10
3832.920799521988
 20
4111.389717781895
 30
0.0
 11
3832.920799521988
 21
3965.528718333621
 31
0.0
  0
LINE
  5
294FC
330
1F
100
AcDbEntity
  8
D-STR-DIM
  6
Continuous
100
AcDbLine
 10
3897.920799276123
 20
4111.389717781895
 30
0.0
 11
3897.920799276123
 21
3665.529319468386
 31
0.0
  0
LINE
  5
294FD
330
1F
100
AcDbEntity
  8
D-STR-DIM
  6
Continuous
100
AcDbLine
 10
3212.920401867184
 20
4375.529116707122
 30
0.0
 11
3212.920401867184
 21
3965.528718333621
 31
0.0
  0
CIRCLE
  5
294FE
330
1F
100
AcDbEntity
  8
D-STR-DIM
  6
Continuous
100
AcDbCircle
 10
3897.920799276123
 20
3695.52891935491
 30
0.0
 40
5.999997977304677
  0
TEXT
  5
294FF
330
1F
100
AcDbEntity
  8
D-STR-DIM
100
AcDbText
 10
3843.060599483666
 20
3899.20911858448
 30
0.0
 40
70.0
  1
65
100
AcDbText
  0
LINE
  5
29506
330
1F
100
AcDbEntity
  8
D-STR-DIM
  6
Continuous
100
AcDbLine
 10
4297.920797763101
 20
4945.529314626715
 30
0.0
 11
4297.920797763101
 21
4733.028715430509
 31
0.0
  0
LINE
  5
29507
330
1F
100
AcDbEntity
  8
D-BMK
  6
CENTER2
100
AcDbLine
 10
3622.920800316322
 20
4905.529114778018
 30
0.0
 11
3622.920800316322
 21
4985.529514475412
 31
0.0
  0
LINE
  5
29508
330
1F
100
AcDbEntity
  8
D-STR-STR2
  6
Continuous
100
AcDbLine
 10
3497.920400789154
 20
4595.52911595061
 30
0.0
 11
3497.920400789154
 21
5195.528913681076
 31
0.0
  0
LINE
  5
29509
330
1F
100
AcDbEntity
  8
D-STR-DIM
  6
Continuous
100
AcDbLine
 10
3832.920799521988
 20
3995.529318220143
 30
0.0
 11
3522.920800694581
 21
3995.529318220143
 31
0.0
  0
LINE
  5
2950A
330
1F
100
AcDbEntity
  8
D-STR-HTXT
  6
Continuous
100
AcDbLine
 10
4363.655125552555
 20
4195.529317463631
 30
0.0
 11
3572.740200506185
 21
4195.529317463631
 31
0.0
  0
TEXT
  5
2950B
330
1F
100
AcDbEntity
  8
D-STR-HTXT
100
AcDbText
 10
3549.879800592593
 20
4211.528917403112
 30
0.0
 40
70.0
  1
　インサート　Ｍ16
100
AcDbText
  0
TEXT
  5
2950C
330
1F
100
AcDbEntity
  8
D-STR-HTXT
100
AcDbText
 10
3549.879800592593
 20
4115.528917766237
 30
0.0
 40
70.0
  1
　（取付ボックス用）
100
AcDbText
  0
LINE
  5
2950D
330
1F
100
AcDbEntity
  8
D-BMK
  6
CENTER2
100
AcDbLine
 10
3872.920399048518
 20
4745.529315227691
 30
0.0
 11
3792.920599386671
 21
4745.529315227691
 31
0.0
  0
LINE
  5
2950E
330
1F
100
AcDbEntity
  8
D-STR
  6
Continuous
100
AcDbLine
 10
3897.920798942836
 20
4595.529115861733
 30
0.0
 11
3787.920799407799
 21
4595.529115861733
 31
0.0
  0
LINE
  5
2950F
330
1F
100
AcDbEntity
  8
D-STR
  6
Continuous
100
AcDbLine
 10
3897.920798942836
 20
4605.528715819464
 30
0.0
 11
3797.92039936554
 21
4605.528715819464
 31
0.0
  0
LINE
  5
29510
330
1F
100
AcDbEntity
  8
D-STR-HTXT
  6
Continuous
100
AcDbLine
 10
3572.741200506156
 20
4195.529317463631
 30
0.0
 11
3500.165400780701
 21
4510.784116271163
 31
0.0
  0
TEXT
  5
29511
330
1F
100
AcDbEntity
  8
D-STR-DIM
100
AcDbText
 10
3436.060801023116
 20
4011.528918159622
 30
0.0
 40
70.0
  1
620
100
AcDbText
  0
LINE
  5
29512
330
1F
100
AcDbEntity
  8
D-STR-DIM
  6
Continuous
100
AcDbLine
 10
3212.920401867184
 20
3995.529318220143
 30
0.0
 11
3522.920800694581
 21
3995.529318220143
 31
0.0
  0
CIRCLE
  5
29513
330
1F
100
AcDbEntity
  8
D-STR-DIM
  6
Continuous
100
AcDbCircle
 10
3212.920401867184
 20
3995.529318220143
 30
0.0
 40
5.999997977304677
  0
LINE
  5
29514
330
1F
100
AcDbEntity
  8
D-BMK
  6
CENTER2
100
AcDbLine
 10
3537.920600637848
 20
4520.529116234302
 30
0.0
 11
3457.920800940447
 21
4520.529116234302
 31
0.0
  0
LINE
  5
29515
330
1F
100
AcDbEntity
  8
D-STR
  6
Continuous
100
AcDbLine
 10
3257.920801648077
 20
4695.528515439042
 30
0.0
 11
3787.920799407799
 21
4695.528515439042
 31
0.0
  0
LINE
  5
29516
330
1F
100
AcDbEntity
  8
D-BMK
  6
CENTER2
100
AcDbLine
 10
3497.920400789154
 20
4480.528916385603
 30
0.0
 11
3497.920400789154
 21
4560.529116082999
 31
0.0
  0
LINE
  5
29517
330
1F
100
AcDbEntity
  8
D-STR-HTXT
  6
Continuous
100
AcDbLine
 10
3516.013000720737
 20
4473.386116412624
 30
0.0
 11
3500.165400780701
 21
4510.784116271163
 31
0.0
  0
CIRCLE
  5
29518
330
1F
100
AcDbEntity
  8
D-STR-STR2
  6
Continuous
100
AcDbCircle
 10
3497.920400789154
 20
4520.529116234302
 30
0.0
 40
9.999997962174456
  0
LINE
  5
29519
330
1F
100
AcDbEntity
  8
D-STR
  6
Continuous
100
AcDbLine
 10
3797.92039936554
 20
4605.529715819463
 30
0.0
 11
3787.920799407799
 21
4595.529115861733
 31
0.0
  0
LINE
  5
2951A
330
1F
100
AcDbEntity
  8
D-STR-DIM
  6
Continuous
100
AcDbLine
 10
4297.920797763101
 20
4395.529116707121
 30
0.0
 11
4297.920797763101
 21
4458.028516470712
 31
0.0
  0
TEXT
  5
2951B
330
1F
100
AcDbEntity
  8
D-STR-DIM
100
AcDbText
 10
4394.240797398816
 20
4394.410316711351
 30
0.0
 40
70.0
  1
125
 50
90.0
100
AcDbText
  0
LINE
  5
2951C
330
1F
100
AcDbEntity
  8
D-STR-DIM
  6
Continuous
100
AcDbLine
 10
3832.920799521988
 20
3995.529318220143
 30
0.0
 11
3865.420599399062
 21
3995.529318220143
 31
0.0
  0
LINE
  5
2951D
330
1F
100
AcDbEntity
  8
D-STR-DIM
  6
Continuous
100
AcDbLine
 10
3897.920799276123
 20
3995.529318220143
 30
0.0
 11
3865.420599399062
 21
3995.529318220143
 31
0.0
  0
CIRCLE
  5
2951E
330
1F
100
AcDbEntity
  8
D-STR-DIM
  6
Continuous
100
AcDbCircle
 10
3832.920799521988
 20
3995.529318220143
 30
0.0
 40
5.999997977304677
  0
CIRCLE
  5
2951F
330
1F
100
AcDbEntity
  8
D-STR-DIM
  6
Continuous
100
AcDbCircle
 10
3897.920799276123
 20
3995.529318220143
 30
0.0
 40
5.999997977304677
  0
LINE
  5
29520
330
1F
100
AcDbEntity
  8
D-STR-DIM
  6
Continuous
100
AcDbLine
 10
3897.920799276123
 20
4365.528516820599
 30
0.0
 11
3897.920799276123
 21
4299.584717070035
 31
0.0
  0
LINE
  5
29521
330
1F
100
AcDbEntity
  8
D-STR-DIM
  6
Continuous
100
AcDbLine
 10
3832.920799521988
 20
4365.528516820599
 30
0.0
 11
3832.920799521988
 21
4299.584717070035
 31
0.0
  0
CIRCLE
  5
29522
330
1F
100
AcDbEntity
  8
D-STR-DIM
  6
Continuous
100
AcDbCircle
 10
4297.920797763101
 20
4395.529116707121
 30
0.0
 40
5.999997977304677
  0
LINE
  5
29523
330
1F
100
AcDbEntity
  8
D-STR-DIM
  6
Continuous
100
AcDbLine
 10
3917.920799276122
 20
4520.529116234302
 30
0.0
 11
4327.920397649635
 21
4520.529116234302
 31
0.0
  0
LINE
  5
29524
330
1F
100
AcDbEntity
  8
D-BMK
  6
CENTER2
100
AcDbLine
 10
3832.920799217588
 20
4785.528515058617
 30
0.0
 11
3832.920799217588
 21
4705.52911539677
 31
0.0
  0
CIRCLE
  5
29525
330
1F
100
AcDbEntity
  8
D-STR-STR2
  6
Continuous
100
AcDbCircle
 10
3832.920799217588
 20
4745.529315227691
 30
0.0
 40
9.999997957730611
  0
LINE
  5
29526
330
1F
100
AcDbEntity
  8
D-STR-DIM
  6
Continuous
100
AcDbLine
 10
4297.920797763101
 20
4520.529116234302
 30
0.0
 11
4297.920797763101
 21
4733.028715430509
 31
0.0
  0
TEXT
  5
29527
330
1F
100
AcDbEntity
  8
D-STR-DIM
100
AcDbText
 10
4281.920597823642
 20
4646.168915759061
 30
0.0
 40
70.0
  1
425
 50
90.0
100
AcDbText
  0
CIRCLE
  5
29528
330
1F
100
AcDbEntity
  8
D-STR-DIM
  6
Continuous
100
AcDbCircle
 10
4297.920797763101
 20
4520.529116234302
 30
0.0
 40
5.999997977304677
  0
LINE
  5
29529
330
1F
100
AcDbEntity
  8
D-STR-DIM
  6
Continuous
100
AcDbLine
 10
4297.920797763101
 20
4520.529116234302
 30
0.0
 11
4297.920797763101
 21
4458.028516470712
 31
0.0
  0
LINE
  5
2952A
330
1F
100
AcDbEntity
  8
D-STR-DIM
  6
Continuous
100
AcDbLine
 10
3897.920799276123
 20
5070.529114153896
 30
0.0
 11
3697.920400032643
 21
5070.529114153896
 31
0.0
  0
LINE
  5
2952B
330
1F
100
AcDbEntity
  8
D-BMK
  6
CENTER2
100
AcDbLine
 10
3497.920400789154
 20
5330.529313170431
 30
0.0
 11
3497.920400789154
 21
5410.528712867828
 31
0.0
  0
CIRCLE
  5
2952C
330
1F
100
AcDbEntity
  8
D-STR-STR2
  6
Continuous
100
AcDbCircle
 10
3497.920400789154
 20
5370.528513019131
 30
0.0
 40
9.999997962174456
  0
LINE
  5
2952D
330
1F
100
AcDbEntity
  8
D-BMK
  6
CENTER2
100
AcDbLine
 10
3537.920600637848
 20
5370.528513019131
 30
0.0
 11
3457.920800940447
 21
5370.528513019131
 31
0.0
  0
LINE
  5
2952E
330
1F
100
AcDbEntity
  8
D-BMK
  6
CENTER2
100
AcDbLine
 10
3212.920401867184
 20
5255.529113454124
 30
0.0
 11
3212.920401867184
 21
5335.528513151521
 31
0.0
  0
CIRCLE
  5
2952F
330
1F
100
AcDbEntity
  8
D-STR-STR2
  6
Continuous
100
AcDbCircle
 10
3212.920401867184
 20
5295.529313302821
 30
0.0
 40
9.999997962174456
  0
LINE
  5
29530
330
1F
100
AcDbEntity
  8
D-BMK
  6
CENTER2
100
AcDbLine
 10
3252.920601715876
 20
5295.529313302821
 30
0.0
 11
3172.920802018474
 21
5295.529313302821
 31
0.0
  0
LINE
  5
29531
330
1F
100
AcDbEntity
  8
D-STR
  6
Continuous
100
AcDbLine
 10
3257.920801696957
 20
5245.52871349195
 30
0.0
 11
3247.920801734781
 21
5255.529113454124
 31
0.0
  0
TEXT
  5
29532
330
1F
100
AcDbEntity
  8
D-STR-DIM
100
AcDbText
 10
3570.872800513204
 20
5086.528714093378
 30
0.0
 40
70.0
  1
400
100
AcDbText
  0
LINE
  5
29533
330
1F
100
AcDbEntity
  8
D-BMK
  6
CENTER2
100
AcDbLine
 10
3662.920600165028
 20
4945.529314626715
 30
0.0
 11
3582.920600467631
 21
4945.529314626715
 31
0.0
  0
LINE
  5
29534
330
1F
100
AcDbEntity
  8
D-STR-DIM
  6
Continuous
100
AcDbLine
 10
3497.920400789154
 20
5070.529114153896
 30
0.0
 11
3697.920400032643
 21
5070.529114153896
 31
0.0
  0
CIRCLE
  5
29535
330
1F
100
AcDbEntity
  8
D-STR-STR2
  6
Continuous
100
AcDbCircle
 10
3622.920800316322
 20
4945.529314626715
 30
0.0
 40
9.999997962174456
  0
CIRCLE
  5
29536
330
1F
100
AcDbEntity
  8
D-STR-DIM
  6
Continuous
100
AcDbCircle
 10
3497.920400789154
 20
5070.529114153896
 30
0.0
 40
5.999997977304677
  0
CIRCLE
  5
29537
330
1F
100
AcDbEntity
  8
D-STR-DIM
  6
Continuous
100
AcDbCircle
 10
4297.920797763101
 20
5370.528513019131
 30
0.0
 40
5.999997977304677
  0
LINE
  5
29538
330
1F
100
AcDbEntity
  8
D-STR-DIM
  6
Continuous
100
AcDbLine
 10
3917.920799276122
 20
4945.529314626715
 30
0.0
 11
4327.920397649635
 21
4945.529314626715
 31
0.0
  0
LINE
  5
29539
330
1F
100
AcDbEntity
  8
D-STR-DIM
  6
Continuous
100
AcDbLine
 10
3917.920799276122
 20
5370.528513019131
 30
0.0
 11
4327.920397649635
 21
5370.528513019131
 31
0.0
  0
CIRCLE
  5
2953A
330
1F
100
AcDbEntity
  8
D-STR-DIM
  6
Continuous
100
AcDbCircle
 10
3897.920799276123
 20
5070.529114153896
 30
0.0
 40
5.999997977304677
  0
LINE
  5
2953B
330
1F
100
AcDbEntity
  8
D-STR-DIM
  6
Continuous
100
AcDbLine
 10
4297.920797763101
 20
4945.529314626715
 30
0.0
 11
4297.920797763101
 21
5158.028913822922
 31
0.0
  0
TEXT
  5
2953C
330
1F
100
AcDbEntity
  8
D-STR-DIM
100
AcDbText
 10
4394.240797398816
 20
5071.169314151473
 30
0.0
 40
70.0
  1
425
 50
90.0
100
AcDbText
  0
CIRCLE
  5
2953D
330
1F
100
AcDbEntity
  8
D-STR-DIM
  6
Continuous
100
AcDbCircle
 10
4297.920797763101
 20
4945.529314626715
 30
0.0
 40
5.999997977304677
  0
LINE
  5
2953E
330
1F
100
AcDbEntity
  8
D-STR-DIM
  6
Continuous
100
AcDbLine
 10
4297.920797763101
 20
5370.528513019131
 30
0.0
 11
4297.920797763101
 21
5158.028913822922
 31
0.0
  0
LINE
  5
2953F
330
1F
100
AcDbEntity
  8
D-STR-DIM
  6
Continuous
100
AcDbLine
 10
5497.920592001985
 20
4745.529315383226
 30
0.0
 11
5497.920592001985
 21
5020.529314343024
 31
0.0
  0
LINE
  5
29540
330
1F
100
AcDbEntity
  8
D-STR-DIM
  6
Continuous
100
AcDbLine
 10
5097.920793870508
 20
4395.529116707121
 30
0.0
 11
5097.920793870508
 21
5545.529111846141
 31
0.0
  0
CIRCLE
  5
29541
330
1F
100
AcDbEntity
  8
D-STR-DIM
  6
Continuous
100
AcDbCircle
 10
5097.920793870508
 20
4395.529116707121
 30
0.0
 40
5.999997974638371
  0
TEXT
  5
29542
330
1F
100
AcDbEntity
  8
D-STR-DIM
100
AcDbText
 10
5481.920592062517
 20
4583.668515995471
 30
0.0
 40
70.0
  1
150
 50
90.0
100
AcDbText
  0
LINE
  5
29543
330
1F
100
AcDbEntity
  8
D-STR-DIM
  6
Continuous
100
AcDbLine
 10
5497.920592001985
 20
4745.529315383226
 30
0.0
 11
5497.920592001985
 21
4670.529115666918
 31
0.0
  0
LINE
  5
29544
330
1F
100
AcDbEntity
  8
D-STR-DIM
  6
Continuous
100
AcDbLine
 10
5497.920592001985
 20
4595.52911595061
 30
0.0
 11
5497.920592001985
 21
4670.529115666918
 31
0.0
  0
CIRCLE
  5
29545
330
1F
100
AcDbEntity
  8
D-STR-DIM
  6
Continuous
100
AcDbCircle
 10
5497.920592001985
 20
4595.52911595061
 30
0.0
 40
5.999997977304677
  0
CIRCLE
  5
29546
330
1F
100
AcDbEntity
  8
D-STR-DIM
  6
Continuous
100
AcDbCircle
 10
5497.920592001985
 20
4745.529315383226
 30
0.0
 40
5.999997977304677
  0
TEXT
  5
29547
330
1F
100
AcDbEntity
  8
D-STR-DIM
100
AcDbText
 10
5081.920593938084
 20
5426.669112348555
 30
0.0
 40
70.0
  1
2300
 50
90.0
100
AcDbText
  0
LINE
  5
29548
330
1F
100
AcDbEntity
  8
D-STR-DIM
  6
Continuous
100
AcDbLine
 10
5497.920592001985
 20
5295.529313302821
 30
0.0
 11
5497.920592001985
 21
5820.529111316981
 31
0.0
  0
TEXT
  5
29549
330
1F
100
AcDbEntity
  8
D-STR-DIM
100
AcDbText
 10
5481.920592062517
 20
4933.668714671579
 30
0.0
 40
70.0
  1
550
 50
90.0
100
AcDbText
  0
LINE
  5
2954A
330
1F
100
AcDbEntity
  8
D-STR-DIM
  6
Continuous
100
AcDbLine
 10
5497.920592001985
 20
5295.529313302821
 30
0.0
 11
5497.920592001985
 21
5020.529314343024
 31
0.0
  0
CIRCLE
  5
2954B
330
1F
100
AcDbEntity
  8
D-STR-DIM
  6
Continuous
100
AcDbCircle
 10
5497.920592001985
 20
5295.529313302821
 30
0.0
 40
5.999997977304677
  0
LINE
  5
29587
330
1F
100
AcDbEntity
  8
D-STR
  6
Continuous
100
AcDbLine
 10
6217.920389136347
 20
4595.529115861733
 30
0.0
 11
7217.920384909408
 21
4595.529115861733
 31
0.0
  0
LINE
  5
29588
330
1F
100
AcDbEntity
  8
D-STR
  6
Continuous
100
AcDbLine
 10
5897.920390488966
 20
4395.529116707121
 30
0.0
 11
7537.920383556786
 21
4395.529116707121
 31
0.0
  0
TEXT
  5
29589
330
1F
100
AcDbEntity
  8
D-STR-HTXT
100
AcDbText
 10
6392.560588398148
 20
4115.528917890664
 30
0.0
 40
70.0
  1
　ピットバルブ　φ75
100
AcDbText
  0
LINE
  5
2958A
330
1F
100
AcDbEntity
  8
D-STR-HTXT
  6
Continuous
100
AcDbLine
 10
7283.525136964351
 20
4195.529317552508
 30
0.0
 11
6415.420388301526
 21
4195.529317552508
 31
0.0
  0
TEXT
  5
2958B
330
1F
100
AcDbEntity
  8
D-STR-DIM
100
AcDbText
 10
6351.920388771701
 20
4808.668915144396
 30
0.0
 40
70.0
  1
600
 50
90.0
100
AcDbText
  0
LINE
  5
2958C
330
1F
100
AcDbEntity
  8
D-STR-DIM
  6
Continuous
100
AcDbLine
 10
6367.920588711161
 20
5195.528913681076
 30
0.0
 11
6367.920588711161
 21
4895.528514815845
 31
0.0
  0
LINE
  5
2958D
330
1F
100
AcDbEntity
  8
D-DCR-HCH
  6
Continuous
100
AcDbLine
 10
5897.920390488966
 20
4780.283515251766
 30
0.0
 11
6117.920389656807
 21
5000.2845144196
 31
0.0
  0
LINE
  5
2958E
330
1F
100
AcDbEntity
  8
D-DCR-HCH
  6
Continuous
100
AcDbLine
 10
5897.920390488966
 20
4870.086114912083
 30
0.0
 11
6117.920389656807
 21
5090.087314079916
 31
0.0
  0
TEXT
  5
2958F
330
1F
100
AcDbEntity
  8
D-STR-DIM
100
AcDbText
 10
6823.060386578415
 20
4899.208914578097
 30
0.0
 40
70.0
  1
20
100
AcDbText
  0
LINE
  5
29590
330
1F
100
AcDbEntity
  8
D-STR-DIM
  6
Continuous
100
AcDbLine
 10
6867.920506388803
 20
4615.529115861733
 30
0.0
 11
6867.920506388803
 21
5025.528714044149
 31
0.0
  0
LINE
  5
29591
330
1F
100
AcDbEntity
  8
D-STR-DIM
  6
Continuous
100
AcDbLine
 10
6887.921086304238
 20
4615.529115861733
 30
0.0
 11
6887.921086304238
 21
5025.528714044149
 31
0.0
  0
TEXT
  5
29592
330
1F
100
AcDbEntity
  8
D-STR-DIM
100
AcDbText
 10
6503.060387931033
 20
4899.208914578097
 30
0.0
 40
70.0
  1
20
100
AcDbText
  0
LINE
  5
29593
330
1F
100
AcDbEntity
  8
D-STR-DIM
  6
Continuous
100
AcDbLine
 10
6547.920387741455
 20
4615.529115861733
 30
0.0
 11
6547.920387741455
 21
5025.528714044149
 31
0.0
  0
LINE
  5
29594
330
1F
100
AcDbEntity
  8
D-STR-DIM
  6
Continuous
100
AcDbLine
 10
6567.92058765691
 20
4615.529115861733
 30
0.0
 11
6567.92058765691
 21
5025.528714044149
 31
0.0
  0
LINE
  5
29595
330
1F
100
AcDbEntity
  8
D-STR-STR2
  6
Continuous
100
AcDbLine
 10
6367.9205885023
 20
4511.528316216799
 30
0.0
 11
6467.920588079607
 21
4511.528316216799
 31
0.0
  0
LINE
  5
29596
330
1F
100
AcDbEntity
  8
D-STR-HTXT
  6
Continuous
100
AcDbLine
 10
6415.420388301526
 20
4195.529317552508
 30
0.0
 11
6680.420507181356
 21
4460.529716432367
 31
0.0
  0
LINE
  5
29597
330
1F
100
AcDbEntity
  8
D-DCR-HCH
  6
Continuous
100
AcDbLine
 10
6072.37598982908
 20
4595.52911595061
 30
0.0
 11
6145.148389553848
 21
4668.301515675343
 31
0.0
  0
LINE
  5
29598
330
1F
100
AcDbEntity
  8
D-STR
  6
DASHED1
100
AcDbLine
 10
6217.920389278551
 20
4595.52911595061
 30
0.0
 11
5897.920390488966
 21
4595.52911595061
 31
0.0
  0
LINE
  5
29599
330
1F
100
AcDbEntity
  8
D-DCR-HCH
  6
Continuous
100
AcDbLine
 10
5982.573590168791
 20
4595.52911595061
 30
0.0
 11
6117.920389656807
 21
4730.87631543865
 31
0.0
  0
LINE
  5
2959A
330
1F
100
AcDbEntity
  8
D-DCR-HCH
  6
Continuous
100
AcDbLine
 10
5897.920390488966
 20
4600.679115931131
 30
0.0
 11
6117.920389656807
 21
4820.679115098969
 31
0.0
  0
LINE
  5
2959B
330
1F
100
AcDbEntity
  8
D-DCR-HCH
  6
Continuous
100
AcDbLine
 10
5897.920390488966
 20
4690.48071559145
 30
0.0
 11
6117.920389656807
 21
4910.481714759284
 31
0.0
  0
LINE
  5
2959C
330
1F
100
AcDbEntity
  8
D-STR
  6
Continuous
100
AcDbLine
 10
6092.921789664673
 20
4595.528115861738
 30
0.0
 11
6217.921589136313
 21
4595.528115861738
 31
0.0
  0
LINE
  5
2959D
330
1F
100
AcDbEntity
  8
D-STR-STR2
  6
Continuous
100
AcDbLine
 10
5997.920590110705
 20
4510.528516272129
 30
0.0
 11
5897.920390488966
 21
4510.528516272129
 31
0.0
  0
LINE
  5
2959E
330
1F
100
AcDbEntity
  8
D-STR-STR2
  6
Continuous
100
AcDbLine
 10
5997.920590110705
 20
4530.528516196477
 30
0.0
 11
5897.920390488966
 21
4530.528516196477
 31
0.0
  0
LINE
  5
2959F
330
1F
100
AcDbEntity
  8
D-STR-STR2
  6
Continuous
100
AcDbLine
 10
5997.920590110705
 20
4530.528516196477
 30
0.0
 11
5997.920590110705
 21
4510.528516272129
 31
0.0
  0
LINE
  5
295A0
330
1F
100
AcDbEntity
  8
D-STR-STR2
  6
Continuous
100
AcDbLine
 10
6012.920390053972
 20
4735.528715421053
 30
0.0
 11
6012.920390053972
 21
4755.5289153454
 31
0.0
  0
LINE
  5
295A1
330
1F
100
AcDbEntity
  8
D-STR-STR2
  6
Continuous
100
AcDbLine
 10
6012.920390053972
 20
4755.5289153454
 30
0.0
 11
6092.920589751364
 21
4755.5289153454
 31
0.0
  0
LINE
  5
295A2
330
1F
100
AcDbEntity
  8
D-STR-STR2
  6
Continuous
100
AcDbLine
 10
6012.920390053972
 20
4735.528715421053
 30
0.0
 11
6092.920589751364
 21
4735.528715421053
 31
0.0
  0
LINE
  5
295A3
330
1F
100
AcDbEntity
  8
D-STR-DIM
  6
Continuous
100
AcDbLine
 10
6367.920588711161
 20
4595.52911595061
 30
0.0
 11
6367.920588711161
 21
4895.528514815845
 31
0.0
  0
LINE
  5
295A4
330
1F
100
AcDbEntity
  8
D-STR
  6
Continuous
100
AcDbLine
 10
6217.920389136347
 20
4595.529115861733
 30
0.0
 11
6117.921789559001
 21
4695.528515439042
 31
0.0
  0
LINE
  5
295A5
330
1F
100
AcDbEntity
  8
D-DCR-HCH
  6
Continuous
100
AcDbLine
 10
6162.178389489444
 20
4595.52911595061
 30
0.0
 11
6190.049589383955
 21
4623.400315845186
 31
0.0
  0
CIRCLE
  5
295A6
330
1F
100
AcDbEntity
  8
D-STR-DIM
  6
Continuous
100
AcDbCircle
 10
6367.920588711161
 20
4595.52911595061
 30
0.0
 40
5.999997977304677
  0
LINE
  5
295A7
330
1F
100
AcDbEntity
  8
D-STR-STR2
  6
Continuous
100
AcDbLine
 10
6367.9205885023
 20
4595.529115861733
 30
0.0
 11
6367.9205885023
 21
4511.528316216799
 31
0.0
  0
LINE
  5
295A8
330
1F
100
AcDbEntity
  8
D-BMK
  6
CENTER2
100
AcDbLine
 10
6417.920588290951
 20
4625.528715734925
 30
0.0
 11
6417.920588290951
 21
4481.528716343606
 31
0.0
  0
LINE
  5
295A9
330
1F
100
AcDbEntity
  8
D-STR-STR2
  6
Continuous
100
AcDbLine
 10
6755.420466864322
 20
4525.529316157618
 30
0.0
 11
6755.420466864322
 21
4395.529116707121
 31
0.0
  0
LINE
  5
295AA
330
1F
100
AcDbEntity
  8
D-BMK
  6
CENTER2
100
AcDbLine
 10
6717.920427022818
 20
4625.528715734925
 30
0.0
 11
6717.920427022818
 21
4365.528516833932
 31
0.0
  0
LINE
  5
295AB
330
1F
100
AcDbEntity
  8
D-STR-STR2
  6
Continuous
100
AcDbLine
 10
6680.420507181356
 20
4525.529316157618
 30
0.0
 11
6680.420507181356
 21
4395.529116707121
 31
0.0
  0
LINE
  5
295AC
330
1F
100
AcDbEntity
  8
D-STR-HTXT
  6
Continuous
100
AcDbLine
 10
6647.148907321986
 20
4437.231716530848
 30
0.0
 11
6680.420507181356
 21
4460.528716432371
 31
0.0
  0
TEXT
  5
295AD
330
1F
100
AcDbEntity
  8
D-STR-HTXT
100
AcDbText
 10
6552.560587721837
 20
4211.52891748488
 30
0.0
 40
70.0
  1
　排水ピット
100
AcDbText
  0
TEXT
  5
295AE
330
1F
100
AcDbEntity
  8
D-STR-DIM
100
AcDbText
 10
6789.4204067206
 20
4635.733515691789
 30
0.0
 40
70.0
  1
70
 50
90.0
100
AcDbText
  0
LINE
  5
295AF
330
1F
100
AcDbEntity
  8
D-STR-STR2
  6
Continuous
100
AcDbLine
 10
6567.92058765691
 20
4525.529316157618
 30
0.0
 11
6867.920506388803
 21
4525.529316157618
 31
0.0
  0
LINE
  5
295B0
330
1F
100
AcDbEntity
  8
D-STR-STR2
  6
Continuous
100
AcDbLine
 10
6547.921787741415
 20
4595.529115861733
 30
0.0
 11
6567.921587656882
 21
4525.529316157618
 31
0.0
  0
LINE
  5
295B1
330
1F
100
AcDbEntity
  8
D-STR-STR2
  6
Continuous
100
AcDbLine
 10
6467.920588079607
 20
4511.528316216799
 30
0.0
 11
6467.920588079607
 21
4595.529115861733
 31
0.0
  0
LINE
  5
295B2
330
1F
100
AcDbEntity
  8
D-STR-DIM
  6
Continuous
100
AcDbLine
 10
6805.420466652972
 20
4560.529116009677
 30
0.0
 11
6805.420466652972
 21
4745.452915228013
 31
0.0
  0
LINE
  5
295B3
330
1F
100
AcDbEntity
  8
D-STR-STR2
  6
Continuous
100
AcDbLine
 10
6867.920986388817
 20
4525.528316157623
 30
0.0
 11
6887.921086304238
 21
4595.528115861738
 31
0.0
  0
LINE
  5
295B4
330
1F
100
AcDbEntity
  8
D-STR-DIM
  6
Continuous
100
AcDbLine
 10
6805.420466652972
 20
4525.529316157618
 30
0.0
 11
6805.420466652972
 21
4560.529116009677
 31
0.0
  0
LINE
  5
295B5
330
1F
100
AcDbEntity
  8
D-STR-DIM
  6
Continuous
100
AcDbLine
 10
6805.420466652972
 20
4595.529115861733
 30
0.0
 11
6805.420466652972
 21
4560.529116009677
 31
0.0
  0
CIRCLE
  5
295B6
330
1F
100
AcDbEntity
  8
D-STR-DIM
  6
Continuous
100
AcDbCircle
 10
6805.420466652972
 20
4525.529316157618
 30
0.0
 40
5.999997974638371
  0
CIRCLE
  5
295B7
330
1F
100
AcDbEntity
  8
D-STR-DIM
  6
Continuous
100
AcDbCircle
 10
6805.420466652972
 20
4595.529115861733
 30
0.0
 40
5.999997974638371
  0
LINE
  5
295B8
330
1F
100
AcDbEntity
  8
D-STR-STR2
  6
Continuous
100
AcDbLine
 10
7067.920425543388
 20
4511.528316216799
 30
0.0
 11
7067.920425543388
 21
4595.529115861733
 31
0.0
  0
LINE
  5
295B9
330
1F
100
AcDbEntity
  8
D-STR-STR2
  6
Continuous
100
AcDbLine
 10
6967.920465966097
 20
4595.529115861733
 30
0.0
 11
6967.920465966097
 21
4511.528316216799
 31
0.0
  0
LINE
  5
295BA
330
1F
100
AcDbEntity
  8
D-BMK
  6
CENTER2
100
AcDbLine
 10
7017.920445754743
 20
4625.528715734925
 30
0.0
 11
7017.920445754743
 21
4481.528716343606
 31
0.0
  0
LINE
  5
295BB
330
1F
100
AcDbEntity
  8
D-STR-STR2
  6
Continuous
100
AcDbLine
 10
6967.920465966097
 20
4511.528316216799
 30
0.0
 11
7067.920425543388
 21
4511.528316216799
 31
0.0
  0
LINE
  5
295BC
330
1F
100
AcDbEntity
  8
D-STR-STR2
  6
Continuous
100
AcDbLine
 10
5997.920590110705
 20
5380.529112981305
 30
0.0
 11
5997.920590110705
 21
5360.528913056954
 31
0.0
  0
LINE
  5
295BD
330
1F
100
AcDbEntity
  8
D-STR
  6
DASHED1
100
AcDbLine
 10
6117.920389656807
 20
5195.528913681076
 30
0.0
 11
5897.920390488966
 21
5195.528913681076
 31
0.0
  0
LINE
  5
295BE
330
1F
100
AcDbEntity
  8
D-DCR-HCH
  6
Continuous
100
AcDbLine
 10
5897.920390488966
 20
4959.888914572399
 30
0.0
 11
6117.920389656807
 21
5179.889913740232
 31
0.0
  0
LINE
  5
295BF
330
1F
100
AcDbEntity
  8
D-STR-DIM
  6
Continuous
100
AcDbLine
 10
6117.920389559039
 20
4995.528914170956
 30
0.0
 11
6105.420589611873
 21
4995.528914170956
 31
0.0
  0
LINE
  5
295C0
330
1F
100
AcDbEntity
  8
D-STR-DIM
  6
Continuous
100
AcDbLine
 10
6105.420589611873
 20
4995.528914170956
 30
0.0
 11
6247.290789012172
 21
4995.528914170956
 31
0.0
  0
LINE
  5
295C1
330
1F
100
AcDbEntity
  8
D-DCR-HCH
  6
Continuous
100
AcDbLine
 10
5897.920390488966
 20
5139.494313893032
 30
0.0
 11
5953.954990276997
 21
5195.528913681076
 31
0.0
  0
LINE
  5
295C2
330
1F
100
AcDbEntity
  8
D-DCR-HCH
  6
Continuous
100
AcDbLine
 10
5897.920390488966
 20
5049.691714232714
 30
0.0
 11
6043.75738993736
 21
5195.528913681076
 31
0.0
  0
LINE
  5
295C3
330
1F
100
AcDbEntity
  8
D-STR-STR2
  6
Continuous
100
AcDbLine
 10
5997.920590110705
 20
4955.52871458889
 30
0.0
 11
5897.920390488966
 21
4955.52871458889
 31
0.0
  0
LINE
  5
295C4
330
1F
100
AcDbEntity
  8
D-STR-STR2
  6
Continuous
100
AcDbLine
 10
5997.920590110705
 20
4935.528714664542
 30
0.0
 11
5897.920390488966
 21
4935.528714664542
 31
0.0
  0
LINE
  5
295C5
330
1F
100
AcDbEntity
  8
D-STR-STR2
  6
Continuous
100
AcDbLine
 10
5997.920590110705
 20
4955.52871458889
 30
0.0
 11
5997.920590110705
 21
4935.528714664542
 31
0.0
  0
LINE
  5
295C6
330
1F
100
AcDbEntity
  8
D-STR-DIM
  6
Continuous
100
AcDbLine
 10
6092.920589664707
 20
4995.528914170956
 30
0.0
 11
6105.420589611873
 21
4995.528914170956
 31
0.0
  0
CIRCLE
  5
295C7
330
1F
100
AcDbEntity
  8
D-STR-DIM
  6
Continuous
100
AcDbCircle
 10
6092.920589664707
 20
4995.528914170956
 30
0.0
 40
5.999997974638371
  0
LINE
  5
295C8
330
1F
100
AcDbEntity
  8
D-STR-STR2
  6
Continuous
100
AcDbLine
 10
5997.920590110705
 20
5360.528913056954
 30
0.0
 11
5897.920390488966
 21
5360.528913056954
 31
0.0
  0
LINE
  5
295C9
330
1F
100
AcDbEntity
  8
D-STR-STR2
  6
Continuous
100
AcDbLine
 10
6012.920390053972
 20
5285.528913340647
 30
0.0
 11
6012.920390053972
 21
5305.528913264995
 31
0.0
  0
LINE
  5
295CA
330
1F
100
AcDbEntity
  8
D-STR-STR2
  6
Continuous
100
AcDbLine
 10
6012.920390053972
 20
5305.528913264995
 30
0.0
 11
6092.920589751364
 21
5305.528913264995
 31
0.0
  0
LINE
  5
295CB
330
1F
100
AcDbEntity
  8
D-STR-STR2
  6
Continuous
100
AcDbLine
 10
6012.920390053972
 20
5285.528913340647
 30
0.0
 11
6092.920589751364
 21
5285.528913340647
 31
0.0
  0
TEXT
  5
295CC
330
1F
100
AcDbEntity
  8
D-STR-DIM
100
AcDbText
 10
6137.570989475928
 20
5011.528714103328
 30
0.0
 40
70.0
  1
25
100
AcDbText
  0
CIRCLE
  5
295CD
330
1F
100
AcDbEntity
  8
D-STR-DIM
  6
Continuous
100
AcDbCircle
 10
6117.920389559039
 20
4995.528914170956
 30
0.0
 40
5.999997974638371
  0
LINE
  5
295CE
330
1F
100
AcDbEntity
  8
D-STR-DIM
  6
Continuous
100
AcDbLine
 10
6137.920389656807
 20
5195.528913681076
 30
0.0
 11
6397.920588597685
 21
5195.528913681076
 31
0.0
  0
CIRCLE
  5
295CF
330
1F
100
AcDbEntity
  8
D-STR-DIM
  6
Continuous
100
AcDbCircle
 10
6367.920588711161
 20
5195.528913681076
 30
0.0
 40
5.999997977304677
  0
LINE
  5
295D0
330
1F
100
AcDbEntity
  8
D-STR-STR2
  6
Continuous
100
AcDbLine
 10
5997.920590110705
 20
5380.529112981305
 30
0.0
 11
5897.920390488966
 21
5380.529112981305
 31
0.0
  0
LINE
  5
295D1
330
1F
100
AcDbEntity
  8
D-STR-DIM
  6
Continuous
100
AcDbLine
 10
6867.920506388803
 20
4995.528914170956
 30
0.0
 11
6717.920427022818
 21
4995.528914170956
 31
0.0
  0
TEXT
  5
295D2
330
1F
100
AcDbEntity
  8
D-STR-DIM
100
AcDbText
 10
6599.060587525226
 20
5011.528714103328
 30
0.0
 40
70.0
  1
φ300
100
AcDbText
  0
LINE
  5
295D3
330
1F
100
AcDbEntity
  8
D-STR-DIM
  6
Continuous
100
AcDbLine
 10
6567.92058765691
 20
4995.528914170956
 30
0.0
 11
6717.920427022818
 21
4995.528914170956
 31
0.0
  0
LINE
  5
295D4
330
1F
100
AcDbEntity
  8
D-STR-DIM
  6
Continuous
100
AcDbLine
 10
6547.920387741455
 20
4995.528914170956
 30
0.0
 11
6557.920587699183
 21
4995.528914170956
 31
0.0
  0
LINE
  5
295D5
330
1F
100
AcDbEntity
  8
D-STR-DIM
  6
Continuous
100
AcDbLine
 10
6567.92058765691
 20
4995.528914170956
 30
0.0
 11
6557.920587699183
 21
4995.528914170956
 31
0.0
  0
CIRCLE
  5
295D6
330
1F
100
AcDbEntity
  8
D-STR-DIM
  6
Continuous
100
AcDbCircle
 10
6547.920387741455
 20
4995.528914170956
 30
0.0
 40
5.999997974638371
  0
CIRCLE
  5
295D7
330
1F
100
AcDbEntity
  8
D-STR-DIM
  6
Continuous
100
AcDbCircle
 10
6567.92058765691
 20
4995.528914170956
 30
0.0
 40
5.999997974638371
  0
LINE
  5
295D8
330
1F
100
AcDbEntity
  8
D-STR-DIM
  6
Continuous
100
AcDbLine
 10
6867.920506388803
 20
4995.528914170956
 30
0.0
 11
6877.920786346556
 21
4995.528914170956
 31
0.0
  0
LINE
  5
295D9
330
1F
100
AcDbEntity
  8
D-STR-DIM
  6
Continuous
100
AcDbLine
 10
6887.921086304238
 20
4995.528914170956
 30
0.0
 11
6877.920786346556
 21
4995.528914170956
 31
0.0
  0
CIRCLE
  5
295DA
330
1F
100
AcDbEntity
  8
D-STR-DIM
  6
Continuous
100
AcDbCircle
 10
6867.920506388803
 20
4995.528914170956
 30
0.0
 40
5.999997974638371
  0
CIRCLE
  5
295DB
330
1F
100
AcDbEntity
  8
D-STR-DIM
  6
Continuous
100
AcDbCircle
 10
6887.921086304238
 20
4995.528914170956
 30
0.0
 40
5.999997974638371
  0
LINE
  5
295DC
330
1F
100
AcDbEntity
  8
D-STR-DIM
  6
Continuous
100
AcDbLine
 10
8337.920400175171
 20
4595.529115861733
 30
0.0
 11
8337.920400175171
 21
5545.529111846141
 31
0.0
  0
LINE
  5
295DD
330
1F
100
AcDbEntity
  8
D-STR-DIM
  6
Continuous
100
AcDbLine
 10
8037.920401443249
 20
4695.529515439036
 30
0.0
 11
8037.920401443249
 21
5545.529111846141
 31
0.0
  0
LINE
  5
295DE
330
1F
100
AcDbEntity
  8
D-STR-DIM
  6
Continuous
100
AcDbLine
 10
7787.920422499992
 20
4678.529115510897
 30
0.0
 11
7787.920422499992
 21
5549.029111831348
 31
0.0
  0
TEXT
  5
295DF
330
1F
100
AcDbEntity
  8
D-STR-DIM
100
AcDbText
 10
7771.920442567644
 20
4539.246916099634
 30
0.0
 40
70.0
  1
83
 50
90.0
100
AcDbText
  0
LINE
  5
295E0
330
1F
100
AcDbEntity
  8
D-STR-DIM
  6
Continuous
100
AcDbLine
 10
7567.92040342991
 20
4695.529515439036
 30
0.0
 11
7757.920402626794
 21
4695.529515439036
 31
0.0
  0
LINE
  5
295E1
330
1F
100
AcDbEntity
  8
D-STR-DIM
  6
Continuous
100
AcDbLine
 10
7557.920383556787
 20
4678.529115510897
 30
0.0
 11
7817.92044237319
 21
4678.529115510897
 31
0.0
  0
LINE
  5
295E2
330
1F
100
AcDbEntity
  8
D-STR-DIM
  6
Continuous
100
AcDbLine
 10
7557.920383556787
 20
4595.529115861733
 30
0.0
 11
8367.92040004836
 21
4595.529115861733
 31
0.0
  0
LINE
  5
295E3
330
1F
100
AcDbEntity
  8
D-STR-STR2
  6
Continuous
100
AcDbLine
 10
7422.920464042839
 20
4668.535515553139
 30
0.0
 11
7422.920464042839
 21
4688.5355154686
 31
0.0
  0
LINE
  5
295E4
330
1F
100
AcDbEntity
  8
D-STR
  6
Continuous
100
AcDbLine
 10
7317.920484486673
 20
4695.529515439036
 30
0.0
 11
7217.920384909408
 21
4595.53011586173
 31
0.0
  0
LINE
  5
295E5
330
1F
100
AcDbEntity
  8
D-STR
  6
Continuous
100
AcDbLine
 10
7342.919224381017
 20
4595.528115861738
 30
0.0
 11
7217.919264909396
 21
4595.528115861738
 31
0.0
  0
LINE
  5
295E6
330
1F
100
AcDbEntity
  8
D-STR-STR2
  6
Continuous
100
AcDbLine
 10
7422.920464042839
 20
4668.535515553139
 30
0.0
 11
7342.920464380994
 21
4668.535515553139
 31
0.0
  0
LINE
  5
295E7
330
1F
100
AcDbEntity
  8
D-STR-STR2
  6
Continuous
100
AcDbLine
 10
7422.920464042839
 20
4688.5355154686
 30
0.0
 11
7342.920464380994
 21
4688.534515468605
 31
0.0
  0
LINE
  5
295E8
330
1F
100
AcDbEntity
  8
D-STR-DIM
  6
Continuous
100
AcDbLine
 10
8337.920400175171
 20
4395.529116707121
 30
0.0
 11
8337.920400175171
 21
4495.528716284428
 31
0.0
  0
TEXT
  5
295E9
330
1F
100
AcDbEntity
  8
D-STR-DIM
100
AcDbText
 10
8321.920400242815
 20
4408.668916651579
 30
0.0
 40
70.0
  1
200
 50
90.0
100
AcDbText
  0
CIRCLE
  5
295EA
330
1F
100
AcDbEntity
  8
D-STR-DIM
  6
Continuous
100
AcDbCircle
 10
8337.920400175171
 20
4395.529116707121
 30
0.0
 40
5.999997974638371
  0
LINE
  5
295EB
330
1F
100
AcDbEntity
  8
D-STR-DIM
  6
Continuous
100
AcDbLine
 10
8037.920401443249
 20
4695.529515439036
 30
0.0
 11
8037.920401443249
 21
4645.529915650383
 31
0.0
  0
CIRCLE
  5
295EC
330
1F
100
AcDbEntity
  8
D-STR-DIM
  6
Continuous
100
AcDbCircle
 10
7787.920422499992
 20
4678.529115510897
 30
0.0
 40
5.999997974638371
  0
TEXT
  5
295ED
330
1F
100
AcDbEntity
  8
D-STR-DIM
100
AcDbText
 10
8021.920421510902
 20
4541.814316088782
 30
0.0
 40
70.0
  1
100
 50
90.0
100
AcDbText
  0
LINE
  5
295EE
330
1F
100
AcDbEntity
  8
D-STR-DIM
  6
Continuous
100
AcDbLine
 10
7787.920422499992
 20
4595.529115861733
 30
0.0
 11
7787.920422499992
 21
4637.028515686315
 31
0.0
  0
LINE
  5
295EF
330
1F
100
AcDbEntity
  8
D-STR-DIM
  6
Continuous
100
AcDbLine
 10
7787.920422499992
 20
4637.028515686315
 30
0.0
 11
7787.920422499992
 21
4539.246916099634
 31
0.0
  0
CIRCLE
  5
295F0
330
1F
100
AcDbEntity
  8
D-STR-DIM
  6
Continuous
100
AcDbCircle
 10
7787.920422499992
 20
4595.529115861733
 30
0.0
 40
5.999997974638371
  0
LINE
  5
295F1
330
1F
100
AcDbEntity
  8
D-STR-DIM
  6
Continuous
100
AcDbLine
 10
7787.920422499992
 20
4678.529115510897
 30
0.0
 11
7787.920422499992
 21
4637.028515686315
 31
0.0
  0
LINE
  5
295F2
330
1F
100
AcDbEntity
  8
D-STR-DIM
  6
Continuous
100
AcDbLine
 10
8037.920401443249
 20
4595.529115861733
 30
0.0
 11
8037.920401443249
 21
4645.529915650383
 31
0.0
  0
CIRCLE
  5
295F3
330
1F
100
AcDbEntity
  8
D-STR-DIM
  6
Continuous
100
AcDbCircle
 10
8037.920401443249
 20
4595.529115861733
 30
0.0
 40
5.999997974638371
  0
LINE
  5
295F4
330
1F
100
AcDbEntity
  8
D-STR-DIM
  6
Continuous
100
AcDbLine
 10
7807.920422499993
 20
4695.529515439036
 30
0.0
 11
8067.920421316449
 21
4695.529515439036
 31
0.0
  0
CIRCLE
  5
295F5
330
1F
100
AcDbEntity
  8
D-STR-DIM
  6
Continuous
100
AcDbCircle
 10
8037.920401443249
 20
4695.529515439036
 30
0.0
 40
5.999997974638371
  0
LINE
  5
295F6
330
1F
100
AcDbEntity
  8
D-STR-DIM
  6
Continuous
100
AcDbLine
 10
8337.920400175171
 20
4595.529115861733
 30
0.0
 11
8337.920400175171
 21
4495.528716284428
 31
0.0
  0
CIRCLE
  5
295F7
330
1F
100
AcDbEntity
  8
D-STR-DIM
  6
Continuous
100
AcDbCircle
 10
8337.920400175171
 20
4595.529115861733
 30
0.0
 40
5.999997974638371
  0
TEXT
  5
295F8
330
1F
100
AcDbEntity
  8
D-STR-DIM
100
AcDbText
 10
7771.920442567644
 20
5430.16911233376
 30
0.0
 40
70.0
  1
1741
 50
90.0
100
AcDbText
  0
TEXT
  5
295F9
330
1F
100
AcDbEntity
  8
D-STR-DIM
100
AcDbText
 10
7188.54998503351
 20
5011.528714103328
 30
0.0
 40
70.0
  1
25
100
AcDbText
  0
LINE
  5
295FA
330
1F
100
AcDbEntity
  8
D-STR-DIM
  6
Continuous
100
AcDbLine
 10
7330.420404433811
 20
4995.528914170956
 30
0.0
 11
7188.550245033527
 21
4995.528914170956
 31
0.0
  0
LINE
  5
295FB
330
1F
100
AcDbEntity
  8
D-STR-DIM
  6
Continuous
100
AcDbLine
 10
7342.920464380994
 20
4995.528914170956
 30
0.0
 11
7330.420404433811
 21
4995.528914170956
 31
0.0
  0
LINE
  5
295FC
330
1F
100
AcDbEntity
  8
D-STR-DIM
  6
Continuous
100
AcDbLine
 10
7317.920484486673
 20
4995.528914170956
 30
0.0
 11
7330.420404433811
 21
4995.528914170956
 31
0.0
  0
CIRCLE
  5
295FD
330
1F
100
AcDbEntity
  8
D-STR-DIM
  6
Continuous
100
AcDbCircle
 10
7317.920484486673
 20
4995.528914170956
 30
0.0
 40
5.999997974638371
  0
CIRCLE
  5
295FE
330
1F
100
AcDbEntity
  8
D-STR-DIM
  6
Continuous
100
AcDbCircle
 10
7342.920464380994
 20
4995.528914170956
 30
0.0
 40
5.999997974638371
  0
LINE
  5
295FF
330
1F
100
AcDbEntity
  8
D-STR
  6
Continuous
100
AcDbLine
 10
7402.920364127417
 20
5570.529511740465
 30
0.0
 11
7402.920364127417
 21
5820.529110683732
 31
0.0
  0
LINE
  5
29600
330
1F
100
AcDbEntity
  8
D-STR
  6
Continuous
100
AcDbLine
 10
7317.92096448669
 20
5560.528911782736
 30
0.0
 11
7402.920364127417
 21
5570.529511740465
 31
0.0
  0
LINE
  5
29601
330
1F
100
AcDbEntity
  8
D-STR
  6
Continuous
100
AcDbLine
 10
7402.920984127407
 20
5820.529110683732
 30
0.0
 11
7317.919864486684
 21
5830.528710641464
 31
0.0
  0
LINE
  5
29602
330
1F
100
AcDbEntity
  8
D-STR
  6
Continuous
100
AcDbLine
 10
7452.920483916037
 20
5570.529511740465
 30
0.0
 11
7452.920483916037
 21
5820.529110683732
 31
0.0
  0
LINE
  5
29603
330
1F
100
AcDbEntity
  8
D-STR
  6
Continuous
100
AcDbLine
 10
7452.920983916057
 20
5570.529511740465
 30
0.0
 11
7537.919763556725
 21
5560.528911782736
 31
0.0
  0
LINE
  5
29604
330
1F
100
AcDbEntity
  8
D-STR
  6
Continuous
100
AcDbLine
 10
7537.920383556786
 20
5830.528710641464
 30
0.0
 11
7452.920483916037
 21
5820.529110683732
 31
0.0
  0
TEXT
  5
29605
330
1F
100
AcDbEntity
  8
D-STR-DIM
100
AcDbText
 10
8021.920421510902
 20
5426.669112348555
 30
0.0
 40
70.0
  1
1700
 50
90.0
100
AcDbText
  0
TEXT
  5
29606
330
1F
100
AcDbEntity
  8
D-STR-DIM
100
AcDbText
 10
8321.920400242815
 20
5426.669112348555
 30
0.0
 40
70.0
  1
1900
 50
90.00001500002756
100
AcDbText
  0
LINE
  5
29607
330
1F
100
AcDbEntity
  8
D-STR
  6
Continuous
100
AcDbLine
 10
3037.920802529119
 20
6495.528908763755
 30
0.0
 11
3257.920801696957
 21
6495.528908763755
 31
0.0
  0
LINE
  5
29608
330
1F
100
AcDbEntity
  8
D-STR
  6
Continuous
100
AcDbLine
 10
3037.920802529119
 20
6495.528908763755
 30
0.0
 11
3257.920801696957
 21
6495.528908763755
 31
0.0
  0
LINE
  5
29609
330
1F
100
AcDbEntity
  8
D-STR-DIM
  6
Continuous
100
AcDbLine
 10
3247.920801734781
 20
5895.529111033289
 30
0.0
 11
3147.920802113036
 21
5895.529111033289
 31
0.0
  0
LINE
  5
2960A
330
1F
100
AcDbEntity
  8
D-STR
  6
Continuous
100
AcDbLine
 10
3047.920802491295
 20
6485.528508801583
 30
0.0
 11
3247.920801734781
 21
6485.528508801583
 31
0.0
  0
TEXT
  5
2960B
330
1F
100
AcDbEntity
  8
D-STR-DIM
100
AcDbText
 10
3061.060802441574
 20
5911.528910972768
 30
0.0
 40
70.0
  1
200
100
AcDbText
  0
TEXT
  5
2960C
330
1F
100
AcDbEntity
  8
D-STR-DIM
100
AcDbText
 10
3061.060802480177
 20
7111.528505226754
 30
0.0
 40
70.0
  1
700
100
AcDbText
  0
TEXT
  5
2960D
330
1F
100
AcDbEntity
  8
D-STR-DIM
100
AcDbText
 10
3061.060802480177
 20
7411.528903958672
 30
0.0
 40
70.0
  1
950
100
AcDbText
  0
LINE
  5
2960E
330
1F
100
AcDbEntity
  8
D-STR-DIM
  6
Continuous
100
AcDbLine
 10
3497.920400633623
 20
7095.528705294384
 30
0.0
 11
3147.92080211304
 21
7095.528705294384
 31
0.0
  0
LINE
  5
2960F
330
1F
100
AcDbEntity
  8
D-STR-DIM
  6
Continuous
100
AcDbLine
 10
3622.920800105243
 20
7395.529104026303
 30
0.0
 11
3147.92080211304
 21
7395.529104026303
 31
0.0
  0
LINE
  5
29610
330
1F
100
AcDbEntity
  8
D-STR
  6
Continuous
100
AcDbLine
 10
2397.920805283244
 20
6695.528906985159
 30
0.0
 11
3897.920798942836
 21
6695.528906985159
 31
0.0
  0
LINE
  5
29611
330
1F
100
AcDbEntity
  8
D-STR
  6
Continuous
100
AcDbLine
 10
2397.920805283244
 20
6495.528907830546
 30
0.0
 11
3897.920798942836
 21
6495.528907830546
 31
0.0
  0
TEXT
  5
29612
330
1F
100
AcDbEntity
  8
D-TTL-TXT
100
AcDbText
 10
2723.328584883795
 20
7729.863459919856
 30
0.0
 40
140.0
  1
側壁（車道側）
100
AcDbText
  0
TEXT
  5
29613
330
1F
100
AcDbEntity
  8
D-STR-HTXT
100
AcDbText
 10
1732.142822505557
 20
5961.528510087731
 30
0.0
 40
70.0
  1
　連結金具
100
AcDbText
  0
LINE
  5
29614
330
1F
100
AcDbEntity
  8
D-STR-HTXT
  6
Continuous
100
AcDbLine
 10
2147.920606339983
 20
5945.528910155363
 30
0.0
 11
1797.216145565864
 21
5945.528910155363
 31
0.0
  0
LINE
  5
29615
330
1F
100
AcDbEntity
  8
D-STR-DIM
  6
Continuous
100
AcDbLine
 10
2797.920803592468
 20
6715.528906985159
 30
0.0
 11
2797.920803592468
 21
7125.528505167578
 31
0.0
  0
LINE
  5
29616
330
1F
100
AcDbEntity
  8
D-STR-DIM
  6
Continuous
100
AcDbLine
 10
2672.920804120837
 20
6715.528906985159
 30
0.0
 11
2672.920804120837
 21
7425.528903899493
 31
0.0
  0
LINE
  5
29617
330
1F
100
AcDbEntity
  8
D-STR-DIM
  6
Continuous
100
AcDbLine
 10
2397.920805283244
 20
6715.528906985159
 30
0.0
 11
2397.920805283244
 21
7425.528903899493
 31
0.0
  0
LINE
  5
29618
330
1F
100
AcDbEntity
  8
D-STR-DIM
  6
Continuous
100
AcDbLine
 10
2497.920804571699
 20
5895.529111033289
 30
0.0
 11
2447.920604760831
 21
5895.529111033289
 31
0.0
  0
CIRCLE
  5
29619
330
1F
100
AcDbEntity
  8
D-STR-DIM
  6
Continuous
100
AcDbCircle
 10
2497.920804571699
 20
5895.529111033289
 30
0.0
 40
5.999997977304677
  0
LINE
  5
2961A
330
1F
100
AcDbEntity
  8
D-STR
  6
Continuous
100
AcDbLine
 10
2397.920805283244
 20
6495.528907830546
 30
0.0
 11
2507.920804818281
 21
6495.528907830546
 31
0.0
  0
LINE
  5
2961B
330
1F
100
AcDbEntity
  8
D-STR
  6
Continuous
100
AcDbLine
 10
2397.920805283244
 20
6485.52850787282
 30
0.0
 11
2497.920804860551
 21
6485.52850787282
 31
0.0
  0
LINE
  5
2961C
330
1F
100
AcDbEntity
  8
D-BMK
  6
CENTER2
100
AcDbLine
 10
2422.920805177572
 20
6345.528708464589
 30
0.0
 11
2502.920604839423
 21
6345.528708464589
 31
0.0
  0
LINE
  5
2961D
330
1F
100
AcDbEntity
  8
D-BMK
  6
CENTER2
100
AcDbLine
 10
2367.920805410053
 20
6195.528509098632
 30
0.0
 11
2511.920804801317
 21
6195.528509098632
 31
0.0
  0
LINE
  5
2961E
330
1F
100
AcDbEntity
  8
D-STR-DIM
  6
Continuous
100
AcDbLine
 10
1997.920406974033
 20
6195.528509098632
 30
0.0
 11
1997.920406974033
 21
6345.528708464589
 31
0.0
  0
TEXT
  5
2961F
330
1F
100
AcDbEntity
  8
D-STR-DIM
100
AcDbText
 10
1981.920807041592
 20
6258.669108831742
 30
0.0
 40
70.0
  1
300
 50
90.0
100
AcDbText
  0
LINE
  5
29620
330
1F
100
AcDbEntity
  8
D-STR-DIM
  6
Continuous
100
AcDbLine
 10
2337.920805283244
 20
6195.528509098632
 30
0.0
 11
1967.920807100829
 21
6195.528509098632
 31
0.0
  0
LINE
  5
29621
330
1F
100
AcDbEntity
  8
D-STR-HTXT
  6
Continuous
100
AcDbLine
 10
2147.920606339983
 20
5945.528910155363
 30
0.0
 11
2397.920805283244
 21
6195.528509098631
 31
0.0
  0
CIRCLE
  5
29622
330
1F
100
AcDbEntity
  8
D-STR-DIM
  6
Continuous
100
AcDbCircle
 10
1997.920406974033
 20
6195.528509098632
 30
0.0
 40
5.999997974638371
  0
TEXT
  5
29623
330
1F
100
AcDbEntity
  8
D-STR-DIM
100
AcDbText
 10
2281.07040539198
 20
5911.528910972768
 30
0.0
 40
70.0
  1
100
100
AcDbText
  0
LINE
  5
29624
330
1F
100
AcDbEntity
  8
D-STR-DIM
  6
Continuous
100
AcDbLine
 10
2447.920604760831
 20
5895.529111033289
 30
0.0
 11
2281.071405391951
 21
5895.529111033289
 31
0.0
  0
CIRCLE
  5
29625
330
1F
100
AcDbEntity
  8
D-STR-DIM
  6
Continuous
100
AcDbCircle
 10
2397.920804949954
 20
5895.529111033289
 30
0.0
 40
5.999997977304677
  0
LINE
  5
29626
330
1F
100
AcDbEntity
  8
D-STR-DIM
  6
Continuous
100
AcDbLine
 10
2397.920804949954
 20
5895.529111033289
 30
0.0
 11
2447.920604760831
 21
5895.529111033289
 31
0.0
  0
LINE
  5
29627
330
1F
100
AcDbEntity
  8
D-STR-STR2
  6
Continuous
100
AcDbLine
 10
2481.920604928128
 20
6245.529308887281
 30
0.0
 11
2481.920604928128
 21
6145.528909309977
 31
0.0
  0
LINE
  5
29628
330
1F
100
AcDbEntity
  8
D-STR-STR2
  6
Continuous
100
AcDbLine
 10
2481.920604928128
 20
6145.528909309977
 30
0.0
 11
2397.920805283244
 21
6145.528909309977
 31
0.0
  0
LINE
  5
29629
330
1F
100
AcDbEntity
  8
D-STR-STR2
  6
Continuous
100
AcDbLine
 10
2397.920805283244
 20
6245.529308887281
 30
0.0
 11
2481.920604928128
 21
6245.529308887281
 31
0.0
  0
LINE
  5
2962A
330
1F
100
AcDbEntity
  8
D-STR-HTXT
  6
Continuous
100
AcDbLine
 10
2364.649205423873
 20
6172.231709197107
 30
0.0
 11
2397.920805283244
 21
6195.528509098631
 31
0.0
  0
LINE
  5
2962B
330
1F
100
AcDbEntity
  8
D-STR-DIM
  6
Continuous
100
AcDbLine
 10
2377.920805283244
 20
6495.528907830546
 30
0.0
 11
1967.920807100829
 21
6495.528907830546
 31
0.0
  0
CIRCLE
  5
2962C
330
1F
100
AcDbEntity
  8
D-STR-DIM
  6
Continuous
100
AcDbCircle
 10
1997.920406974033
 20
6495.528907830546
 30
0.0
 40
5.999997974638371
  0
LINE
  5
2962D
330
1F
100
AcDbEntity
  8
D-STR-DIM
  6
Continuous
100
AcDbLine
 10
1997.920406974033
 20
6495.528907830546
 30
0.0
 11
1997.920406974033
 21
6345.528708464589
 31
0.0
  0
CIRCLE
  5
2962E
330
1F
100
AcDbEntity
  8
D-STR-STR2
  6
Continuous
100
AcDbCircle
 10
2462.920805008493
 20
6345.528708464589
 30
0.0
 40
9.999997957730611
  0
LINE
  5
2962F
330
1F
100
AcDbEntity
  8
D-BMK
  6
CENTER2
100
AcDbLine
 10
2462.920805008493
 20
6385.52890829551
 30
0.0
 11
2462.920805008493
 21
6305.528508633668
 31
0.0
  0
LINE
  5
29630
330
1F
100
AcDbEntity
  8
D-STR-DIM
  6
Continuous
100
AcDbLine
 10
2937.920802907374
 20
6485.528508801583
 30
0.0
 11
2937.920802907374
 21
5870.528911127852
 31
0.0
  0
LINE
  5
29631
330
1F
100
AcDbEntity
  8
D-STR-DIM
  6
Continuous
100
AcDbLine
 10
2497.920804571699
 20
5895.529111033289
 30
0.0
 11
2502.92060455279
 21
5895.529111033289
 31
0.0
  0
LINE
  5
29632
330
1F
100
AcDbEntity
  8
D-STR-DIM
  6
Continuous
100
AcDbLine
 10
2507.920804533875
 20
5895.529111033289
 30
0.0
 11
2502.92060455279
 21
5895.529111033289
 31
0.0
  0
CIRCLE
  5
29633
330
1F
100
AcDbEntity
  8
D-STR-DIM
  6
Continuous
100
AcDbCircle
 10
2507.920804533875
 20
5895.529111033289
 30
0.0
 40
5.999997977304677
  0
LINE
  5
29634
330
1F
100
AcDbEntity
  8
D-STR-DIM
  6
Continuous
100
AcDbLine
 10
2502.92060455279
 20
5895.529111033289
 30
0.0
 11
2631.182604067664
 21
5895.529111033289
 31
0.0
  0
TEXT
  5
29635
330
1F
100
AcDbEntity
  8
D-STR-DIM
100
AcDbText
 10
2521.462604482673
 20
5911.528910972768
 30
0.0
 40
70.0
  1
10
100
AcDbText
  0
LINE
  5
29636
330
1F
100
AcDbEntity
  8
D-STR-DIM
  6
Continuous
100
AcDbLine
 10
3037.920802529119
 20
5895.529111033289
 30
0.0
 11
3042.920602510211
 21
5895.529111033289
 31
0.0
  0
LINE
  5
29637
330
1F
100
AcDbEntity
  8
D-STR-DIM
  6
Continuous
100
AcDbLine
 10
3047.920802491295
 20
5895.529111033289
 30
0.0
 11
3042.920602510211
 21
5895.529111033289
 31
0.0
  0
CIRCLE
  5
29638
330
1F
100
AcDbEntity
  8
D-STR-DIM
  6
Continuous
100
AcDbCircle
 10
3037.920802529119
 20
5895.529111033289
 30
0.0
 40
5.999997977304677
  0
CIRCLE
  5
29639
330
1F
100
AcDbEntity
  8
D-STR-DIM
  6
Continuous
100
AcDbCircle
 10
3047.920802491295
 20
5895.529111033289
 30
0.0
 40
5.999997977304677
  0
LINE
  5
2963A
330
1F
100
AcDbEntity
  8
D-STR-DIM
  6
Continuous
100
AcDbLine
 10
3047.920802491295
 20
5895.529111033289
 30
0.0
 11
3147.920802113036
 21
5895.529111033289
 31
0.0
  0
LINE
  5
2963B
330
1F
100
AcDbEntity
  8
D-STR
  6
Continuous
100
AcDbLine
 10
2507.920804818281
 20
6395.528508253244
 30
0.0
 11
3037.920802578003
 21
6395.528508253244
 31
0.0
  0
LINE
  5
2963C
330
1F
100
AcDbEntity
  8
D-STR
  6
Continuous
100
AcDbLine
 10
2507.920804818281
 20
6495.528907830546
 30
0.0
 11
2497.919404860521
 21
6485.52850787282
 31
0.0
  0
LINE
  5
2963D
330
1F
100
AcDbEntity
  8
D-STR-DIM
  6
Continuous
100
AcDbLine
 10
3017.920802529119
 20
6485.528508801583
 30
0.0
 11
2907.92080302085
 21
6485.528508801583
 31
0.0
  0
LINE
  5
2963E
330
1F
100
AcDbEntity
  8
D-STR-DIM
  6
Continuous
100
AcDbLine
 10
2937.920802907374
 20
6495.528908763755
 30
0.0
 11
2937.920802907374
 21
6490.528708782669
 31
0.0
  0
LINE
  5
2963F
330
1F
100
AcDbEntity
  8
D-STR-DIM
  6
Continuous
100
AcDbLine
 10
2937.920802907374
 20
6485.528508801583
 30
0.0
 11
2937.920802907374
 21
6490.528708782669
 31
0.0
  0
CIRCLE
  5
29640
330
1F
100
AcDbEntity
  8
D-STR-DIM
  6
Continuous
100
AcDbCircle
 10
2937.920802907374
 20
6485.528508801583
 30
0.0
 40
5.999997977304677
  0
CIRCLE
  5
29641
330
1F
100
AcDbEntity
  8
D-STR-DIM
  6
Continuous
100
AcDbCircle
 10
2937.920802907374
 20
6495.528908763755
 30
0.0
 40
5.999997977304677
  0
TEXT
  5
29642
330
1F
100
AcDbEntity
  8
D-STR-DIM
100
AcDbText
 10
2921.920602967916
 20
6435.66850899018
 30
0.0
 40
70.0
  1
10
 50
90.0
100
AcDbText
  0
LINE
  5
29643
330
1F
100
AcDbEntity
  8
D-BMK
  6
CENTER2
100
AcDbLine
 10
3082.920802358902
 20
6305.528509482443
 30
0.0
 11
3082.920802358902
 21
6385.528909179836
 31
0.0
  0
LINE
  5
29644
330
1F
100
AcDbEntity
  8
D-BMK
  6
CENTER2
100
AcDbLine
 10
3122.920402207612
 20
6345.528709331139
 30
0.0
 11
3042.920602510211
 21
6345.528709331139
 31
0.0
  0
CIRCLE
  5
29645
330
1F
100
AcDbEntity
  8
D-STR-STR2
  6
Continuous
100
AcDbCircle
 10
3082.920802358902
 20
6345.528709331139
 30
0.0
 40
9.999997962174456
  0
CIRCLE
  5
29646
330
1F
100
AcDbEntity
  8
D-STR-STR2
  6
Continuous
100
AcDbCircle
 10
3082.920797685555
 20
6345.52870581271
 30
0.0
 40
9.999997970666605
  0
LINE
  5
29647
330
1F
100
AcDbEntity
  8
D-BMK
  6
CENTER2
100
AcDbLine
 10
3122.920397568232
 20
6345.52870581271
 30
0.0
 11
3042.920597802892
 21
6345.52870581271
 31
0.0
  0
LINE
  5
29648
330
1F
100
AcDbEntity
  8
D-BMK
  6
CENTER2
100
AcDbLine
 10
3082.920797685555
 20
6385.528905695375
 30
0.0
 11
3082.920797685555
 21
6305.528505930045
 31
0.0
  0
TEXT
  5
29649
330
1F
100
AcDbEntity
  8
D-STR-DIM
100
AcDbText
 10
2448.560805069178
 20
7411.528903958672
 30
0.0
 40
70.0
  1
275
100
AcDbText
  0
LINE
  5
2964A
330
1F
100
AcDbEntity
  8
D-STR-DIM
  6
Continuous
100
AcDbLine
 10
2397.920805283244
 20
7395.529104026303
 30
0.0
 11
2535.42080470204
 21
7395.529104026303
 31
0.0
  0
CIRCLE
  5
2964B
330
1F
100
AcDbEntity
  8
D-STR-DIM
  6
Continuous
100
AcDbCircle
 10
2397.920805283244
 20
7395.529104026303
 30
0.0
 40
5.999997974638371
  0
LINE
  5
2964C
330
1F
100
AcDbEntity
  8
D-STR-DIM
  6
Continuous
100
AcDbLine
 10
2797.920803592468
 20
7095.528705294384
 30
0.0
 11
3147.92080211304
 21
7095.528705294384
 31
0.0
  0
TEXT
  5
2964D
330
1F
100
AcDbEntity
  8
D-STR-DIM
100
AcDbText
 10
2623.908604328012
 20
7111.528505226754
 30
0.0
 40
70.0
  1
125
100
AcDbText
  0
CIRCLE
  5
2964E
330
1F
100
AcDbEntity
  8
D-STR-DIM
  6
Continuous
100
AcDbCircle
 10
2797.920803592468
 20
7095.528705294384
 30
0.0
 40
5.999997974638371
  0
LINE
  5
2964F
330
1F
100
AcDbEntity
  8
D-STR-DIM
  6
Continuous
100
AcDbLine
 10
2672.920804120837
 20
7095.528705294384
 30
0.0
 11
2735.420803856654
 21
7095.528705294384
 31
0.0
  0
CIRCLE
  5
29650
330
1F
100
AcDbEntity
  8
D-STR-DIM
  6
Continuous
100
AcDbCircle
 10
2672.920804120837
 20
7095.528705294384
 30
0.0
 40
5.999997974638371
  0
LINE
  5
29651
330
1F
100
AcDbEntity
  8
D-STR-DIM
  6
Continuous
100
AcDbLine
 10
2797.920803592468
 20
7095.528705294384
 30
0.0
 11
2735.420803856654
 21
7095.528705294384
 31
0.0
  0
LINE
  5
29652
330
1F
100
AcDbEntity
  8
D-STR-DIM
  6
Continuous
100
AcDbLine
 10
2672.920804120837
 20
7395.529104026303
 30
0.0
 11
3147.92080211304
 21
7395.529104026303
 31
0.0
  0
LINE
  5
29653
330
1F
100
AcDbEntity
  8
D-STR-DIM
  6
Continuous
100
AcDbLine
 10
2672.920804120837
 20
7395.529104026303
 30
0.0
 11
2535.42080470204
 21
7395.529104026303
 31
0.0
  0
CIRCLE
  5
29654
330
1F
100
AcDbEntity
  8
D-STR-DIM
  6
Continuous
100
AcDbCircle
 10
2672.920804120837
 20
7395.529104026303
 30
0.0
 40
5.999997974638371
  0
LINE
  5
29659
330
1F
100
AcDbEntity
  8
D-STR-DIM
  6
Continuous
100
AcDbLine
 10
5877.920390488966
 20
6495.528908763755
 30
0.0
 11
5467.920592115461
 21
6495.528908763755
 31
0.0
  0
LINE
  5
2965A
330
1F
100
AcDbEntity
  8
D-STR-DIM
  6
Continuous
100
AcDbLine
 10
5877.920390488966
 20
6345.528709331139
 30
0.0
 11
5467.920592115461
 21
6345.528709331139
 31
0.0
  0
LINE
  5
2965B
330
1F
100
AcDbEntity
  8
D-STR-DIM
  6
Continuous
100
AcDbLine
 10
5867.92059061577
 20
6695.528906985159
 30
0.0
 11
3927.920398816037
 21
6695.528906985159
 31
0.0
  0
LINE
  5
2965E
330
1F
100
AcDbEntity
  8
D-STR-DIM
  6
Continuous
100
AcDbLine
 10
3497.920400633623
 20
6715.528906985159
 30
0.0
 11
3497.920400633623
 21
7125.528505167578
 31
0.0
  0
LINE
  5
2965F
330
1F
100
AcDbEntity
  8
D-STR-DIM
  6
Continuous
100
AcDbLine
 10
3897.920798942836
 20
6715.528906985158
 30
0.0
 11
3897.920798942836
 21
7425.528903899493
 31
0.0
  0
LINE
  5
29660
330
1F
100
AcDbEntity
  8
D-STR-DIM
  6
Continuous
100
AcDbLine
 10
3622.920800105243
 20
6715.528906985158
 30
0.0
 11
3622.920800105243
 21
7425.528903899493
 31
0.0
  0
LINE
  5
29661
330
1F
100
AcDbEntity
  8
D-STR-DIM
  6
Continuous
100
AcDbLine
 10
3797.920399654387
 20
5895.529111033289
 30
0.0
 11
3847.920599465254
 21
5895.529111033289
 31
0.0
  0
LINE
  5
29662
330
1F
100
AcDbEntity
  8
D-STR
  6
Continuous
100
AcDbLine
 10
3897.920798942836
 20
6485.52850787282
 30
0.0
 11
3797.92039936554
 21
6485.52850787282
 31
0.0
  0
LINE
  5
29663
330
1F
100
AcDbEntity
  8
D-STR
  6
Continuous
100
AcDbLine
 10
3897.920798942836
 20
6495.528907830546
 30
0.0
 11
3787.920799407799
 21
6495.528907830546
 31
0.0
  0
LINE
  5
29664
330
1F
100
AcDbEntity
  8
D-BMK
  6
CENTER2
100
AcDbLine
 10
3792.920599386671
 20
6345.528708464589
 30
0.0
 11
3872.920399048518
 21
6345.528708464589
 31
0.0
  0
LINE
  5
29665
330
1F
100
AcDbEntity
  8
D-BMK
  6
CENTER2
100
AcDbLine
 10
3927.920398816037
 20
6195.528509098632
 30
0.0
 11
3783.920399424704
 21
6195.528509098632
 31
0.0
  0
LINE
  5
29666
330
1F
100
AcDbEntity
  8
D-STR-DIM
  6
Continuous
100
AcDbLine
 10
3257.920801696957
 20
5895.529111033289
 30
0.0
 11
3252.920601715876
 21
5895.529111033289
 31
0.0
  0
CIRCLE
  5
29667
330
1F
100
AcDbEntity
  8
D-STR-DIM
  6
Continuous
100
AcDbCircle
 10
3257.920801696957
 20
5895.529111033289
 30
0.0
 40
5.999997977304677
  0
LINE
  5
29668
330
1F
100
AcDbEntity
  8
D-STR-DIM
  6
Continuous
100
AcDbLine
 10
3247.920801734781
 20
5895.529111033289
 30
0.0
 11
3252.920601715876
 21
5895.529111033289
 31
0.0
  0
CIRCLE
  5
29669
330
1F
100
AcDbEntity
  8
D-STR-DIM
  6
Continuous
100
AcDbCircle
 10
3247.920801734781
 20
5895.529111033289
 30
0.0
 40
5.999997977304677
  0
LINE
  5
2966A
330
1F
100
AcDbEntity
  8
D-STR-DIM
  6
Continuous
100
AcDbLine
 10
3797.920399654387
 20
5895.529111033289
 30
0.0
 11
3792.920599673296
 21
5895.529111033289
 31
0.0
  0
LINE
  5
2966B
330
1F
100
AcDbEntity
  8
D-STR-DIM
  6
Continuous
100
AcDbLine
 10
3787.920799692201
 20
5895.529111033289
 30
0.0
 11
3792.920599673296
 21
5895.529111033289
 31
0.0
  0
CIRCLE
  5
2966C
330
1F
100
AcDbEntity
  8
D-STR-DIM
  6
Continuous
100
AcDbCircle
 10
3797.920399654387
 20
5895.529111033289
 30
0.0
 40
5.999997977304677
  0
CIRCLE
  5
2966D
330
1F
100
AcDbEntity
  8
D-STR-DIM
  6
Continuous
100
AcDbCircle
 10
3787.920799692201
 20
5895.529111033289
 30
0.0
 40
5.999997977304677
  0
LINE
  5
2966E
330
1F
100
AcDbEntity
  8
D-STR-DIM
  6
Continuous
100
AcDbLine
 10
3792.920599673296
 20
5895.529111033289
 30
0.0
 11
3664.658600158495
 21
5895.529111033289
 31
0.0
  0
TEXT
  5
2966F
330
1F
100
AcDbEntity
  8
D-STR-DIM
100
AcDbText
 10
3664.658600158495
 20
5911.528910972768
 30
0.0
 40
70.0
  1
10
100
AcDbText
  0
LINE
  5
29670
330
1F
100
AcDbEntity
  8
D-STR
  6
Continuous
100
AcDbLine
 10
3257.920801648077
 20
6395.528508253244
 30
0.0
 11
3787.920799407799
 21
6395.528508253244
 31
0.0
  0
LINE
  5
29671
330
1F
100
AcDbEntity
  8
D-BMK
  6
CENTER2
100
AcDbLine
 10
3212.920401867184
 20
6305.528509482443
 30
0.0
 11
3212.920401867184
 21
6385.528909179836
 31
0.0
  0
CIRCLE
  5
29672
330
1F
100
AcDbEntity
  8
D-STR-STR2
  6
Continuous
100
AcDbCircle
 10
3212.920401867184
 20
6345.528709331139
 30
0.0
 40
9.999997962174456
  0
LINE
  5
29673
330
1F
100
AcDbEntity
  8
D-BMK
  6
CENTER2
100
AcDbLine
 10
3252.920601715876
 20
6345.528709331139
 30
0.0
 11
3172.920802018474
 21
6345.528709331139
 31
0.0
  0
LINE
  5
29674
330
1F
100
AcDbEntity
  8
D-BMK
  6
CENTER2
100
AcDbLine
 10
3252.920597186891
 20
6345.52870581271
 30
0.0
 11
3172.920797421554
 21
6345.52870581271
 31
0.0
  0
CIRCLE
  5
29675
330
1F
100
AcDbEntity
  8
D-STR-STR2
  6
Continuous
100
AcDbCircle
 10
3212.920397304232
 20
6345.52870581271
 30
0.0
 40
9.999997970666605
  0
LINE
  5
29676
330
1F
100
AcDbEntity
  8
D-BMK
  6
CENTER2
100
AcDbLine
 10
3212.920397304232
 20
6385.528905695375
 30
0.0
 11
3212.920397304232
 21
6305.528505930045
 31
0.0
  0
LINE
  5
29677
330
1F
100
AcDbEntity
  8
D-STR
  6
Continuous
100
AcDbLine
 10
3787.919399407766
 20
6495.529907830546
 30
0.0
 11
3797.919399365499
 21
6485.529507872815
 31
0.0
  0
LINE
  5
29678
330
1F
100
AcDbEntity
  8
D-STR-DIM
  6
Continuous
100
AcDbLine
 10
4297.920797763101
 20
6695.528908007243
 30
0.0
 11
4297.920797763101
 21
6033.028710513187
 31
0.0
  0
LINE
  5
29679
330
1F
100
AcDbEntity
  8
D-STR-DIM
  6
Continuous
100
AcDbLine
 10
3847.920599465254
 20
5895.529111033289
 30
0.0
 11
4014.770198834125
 21
5895.529111033289
 31
0.0
  0
TEXT
  5
2967A
330
1F
100
AcDbEntity
  8
D-STR-DIM
100
AcDbText
 10
3841.05099949125
 20
5911.528910972768
 30
0.0
 40
70.0
  1
100
100
AcDbText
  0
LINE
  5
2967B
330
1F
100
AcDbEntity
  8
D-STR-DIM
  6
Continuous
100
AcDbLine
 10
3897.920799276123
 20
5895.529111033289
 30
0.0
 11
3847.920599465254
 21
5895.529111033289
 31
0.0
  0
CIRCLE
  5
2967C
330
1F
100
AcDbEntity
  8
D-STR-DIM
  6
Continuous
100
AcDbCircle
 10
3897.920799276123
 20
5895.529111033289
 30
0.0
 40
5.999997977304677
  0
LINE
  5
2967D
330
1F
100
AcDbEntity
  8
D-STR-STR2
  6
Continuous
100
AcDbLine
 10
3813.920599297889
 20
6245.529308887281
 30
0.0
 11
3813.920599297889
 21
6145.528909309977
 31
0.0
  0
LINE
  5
2967E
330
1F
100
AcDbEntity
  8
D-STR-STR2
  6
Continuous
100
AcDbLine
 10
3897.920798942836
 20
6245.529308887281
 30
0.0
 11
3813.920599297889
 21
6245.529308887281
 31
0.0
  0
LINE
  5
2967F
330
1F
100
AcDbEntity
  8
D-STR-STR2
  6
Continuous
100
AcDbLine
 10
3813.920599297889
 20
6145.528909309977
 30
0.0
 11
3897.920798942836
 21
6145.528909309977
 31
0.0
  0
TEXT
  5
29680
330
1F
100
AcDbEntity
  8
D-STR-DIM
100
AcDbText
 10
4281.920597823642
 20
5914.168710962783
 30
0.0
 40
70.0
  1
1325
 50
90.0
100
AcDbText
  0
CIRCLE
  5
29681
330
1F
100
AcDbEntity
  8
D-STR-STR2
  6
Continuous
100
AcDbCircle
 10
3832.920799217588
 20
6345.528708464589
 30
0.0
 40
9.999997957730611
  0
LINE
  5
29682
330
1F
100
AcDbEntity
  8
D-BMK
  6
CENTER2
100
AcDbLine
 10
3832.920799217588
 20
6385.52890829551
 30
0.0
 11
3832.920799217588
 21
6305.528508633668
 31
0.0
  0
CIRCLE
  5
29683
330
1F
100
AcDbEntity
  8
D-STR-DIM
  6
Continuous
100
AcDbCircle
 10
4297.920797763101
 20
6695.528908007243
 30
0.0
 40
5.999997977304677
  0
LINE
  5
29684
330
1F
100
AcDbEntity
  8
D-STR-DIM
  6
Continuous
100
AcDbLine
 10
3897.920798942836
 20
7395.529104026303
 30
0.0
 11
3760.42079952404
 21
7395.529104026303
 31
0.0
  0
TEXT
  5
29685
330
1F
100
AcDbEntity
  8
D-STR-DIM
100
AcDbText
 10
3673.560599891182
 20
7411.528903958672
 30
0.0
 40
70.0
  1
275
100
AcDbText
  0
TEXT
  5
29686
330
1F
100
AcDbEntity
  8
D-STR-DIM
100
AcDbText
 10
3512.657200571288
 20
7111.528505226754
 30
0.0
 40
70.0
  1
125
100
AcDbText
  0
CIRCLE
  5
29687
330
1F
100
AcDbEntity
  8
D-STR-DIM
  6
Continuous
100
AcDbCircle
 10
3622.920800105243
 20
7095.528705294384
 30
0.0
 40
5.999997974638371
  0
LINE
  5
29688
330
1F
100
AcDbEntity
  8
D-STR-DIM
  6
Continuous
100
AcDbLine
 10
3497.920400633623
 20
7095.528705294384
 30
0.0
 11
3560.42040036944
 21
7095.528705294384
 31
0.0
  0
CIRCLE
  5
29689
330
1F
100
AcDbEntity
  8
D-STR-DIM
  6
Continuous
100
AcDbCircle
 10
3497.920400633623
 20
7095.528705294384
 30
0.0
 40
5.999997974638371
  0
LINE
  5
2968A
330
1F
100
AcDbEntity
  8
D-STR-DIM
  6
Continuous
100
AcDbLine
 10
3622.920800105243
 20
7095.528705294384
 30
0.0
 11
3560.42040036944
 21
7095.528705294384
 31
0.0
  0
LINE
  5
2968B
330
1F
100
AcDbEntity
  8
D-STR-DIM
  6
Continuous
100
AcDbLine
 10
3622.920800105243
 20
7395.529104026303
 30
0.0
 11
3760.42079952404
 21
7395.529104026303
 31
0.0
  0
CIRCLE
  5
2968C
330
1F
100
AcDbEntity
  8
D-STR-DIM
  6
Continuous
100
AcDbCircle
 10
3622.920800105243
 20
7395.529104026303
 30
0.0
 40
5.999997974638371
  0
CIRCLE
  5
2968D
330
1F
100
AcDbEntity
  8
D-STR-DIM
  6
Continuous
100
AcDbCircle
 10
3897.920798942836
 20
7395.529104026303
 30
0.0
 40
5.999997974638371
  0
CIRCLE
  5
2968E
330
1F
100
AcDbEntity
  8
D-STR-DIM
  6
Continuous
100
AcDbCircle
 10
5097.920793870508
 20
6695.528906985159
 30
0.0
 40
5.999997974638371
  0
TEXT
  5
2968F
330
1F
100
AcDbEntity
  8
D-STR-DIM
100
AcDbText
 10
5481.920592062517
 20
6333.669309375998
 30
0.0
 40
70.0
  1
150
 50
90.0
100
AcDbText
  0
LINE
  5
29690
330
1F
100
AcDbEntity
  8
D-STR-DIM
  6
Continuous
100
AcDbLine
 10
5497.920592001985
 20
6345.528709331139
 30
0.0
 11
5497.920592001985
 21
6420.528909047447
 31
0.0
  0
CIRCLE
  5
29691
330
1F
100
AcDbEntity
  8
D-STR-DIM
  6
Continuous
100
AcDbCircle
 10
5497.920592001985
 20
6345.528709331139
 30
0.0
 40
5.999997977304677
  0
LINE
  5
29692
330
1F
100
AcDbEntity
  8
D-STR-DIM
  6
Continuous
100
AcDbLine
 10
5497.920592001985
 20
6495.528908763755
 30
0.0
 11
5497.920592001985
 21
6420.528909047447
 31
0.0
  0
CIRCLE
  5
29693
330
1F
100
AcDbEntity
  8
D-STR-DIM
  6
Continuous
100
AcDbCircle
 10
5497.920592001985
 20
6495.528908763755
 30
0.0
 40
5.999997977304677
  0
TEXT
  5
29694
330
1F
100
AcDbEntity
  8
D-TTL-TXT
100
AcDbText
 10
5044.881874478727
 20
7147.927940130085
 30
0.0
 40
100.0
  1
　車　道　側　
100
AcDbText
  0
TEXT
  5
29695
330
1F
100
AcDbEntity
  8
D-TTL-TXT
100
AcDbText
 10
5155.559073286502
 20
7379.336508812251
 30
0.0
 40
140.0
  1
 断面図
100
AcDbText
  0
LINE
  5
2969F
330
1F
100
AcDbEntity
  8
D-STR
  6
Continuous
100
AcDbLine
 10
5897.920390488966
 20
6695.528906985159
 30
0.0
 11
7537.920383556786
 21
6695.528906985159
 31
0.0
  0
LINE
  5
296A0
330
1F
100
AcDbEntity
  8
D-STR
  6
Continuous
100
AcDbLine
 10
6217.920389136347
 20
6495.528907830546
 30
0.0
 11
7217.920384909408
 21
6495.528907830546
 31
0.0
  0
LINE
  5
296A1
330
1F
100
AcDbEntity
  8
D-STR-DIM
  6
Continuous
100
AcDbLine
 10
7317.920484486673
 20
7395.529104026302
 30
0.0
 11
6717.920427022891
 21
7395.529104026302
 31
0.0
  0
LINE
  5
296A2
330
1F
100
AcDbEntity
  8
D-STR-DIM
  6
Continuous
100
AcDbLine
 10
7217.919884909385
 20
7095.528705294384
 30
0.0
 11
6717.920047022835
 21
7095.528705294384
 31
0.0
  0
LINE
  5
296A3
330
1F
100
AcDbEntity
  8
D-STR-DIM
  6
Continuous
100
AcDbLine
 10
6217.920389136347
 20
6715.528906985159
 30
0.0
 11
6217.920389136347
 21
7125.528505167577
 31
0.0
  0
LINE
  5
296A4
330
1F
100
AcDbEntity
  8
D-STR-DIM
  6
Continuous
100
AcDbLine
 10
6117.920389559039
 20
6715.528906985159
 30
0.0
 11
6117.920389559039
 21
7425.52890389949
 31
0.0
  0
LINE
  5
296A5
330
1F
100
AcDbEntity
  8
D-STR-STR2
  6
Continuous
100
AcDbLine
 10
6117.920389559039
 20
6245.529308887281
 30
0.0
 11
6033.920389914088
 21
6245.529308887281
 31
0.0
  0
LINE
  5
296A6
330
1F
100
AcDbEntity
  8
D-STR-STR2
  6
Continuous
100
AcDbLine
 10
6033.920389914088
 20
6145.528909309977
 30
0.0
 11
6117.920389559039
 21
6145.528909309977
 31
0.0
  0
LINE
  5
296A7
330
1F
100
AcDbEntity
  8
D-BMK
  6
CENTER2
100
AcDbLine
 10
6147.920589432226
 20
6195.528509098632
 30
0.0
 11
6003.920190040902
 21
6195.528509098632
 31
0.0
  0
LINE
  5
296A8
330
1F
100
AcDbEntity
  8
D-STR-STR2
  6
Continuous
100
AcDbLine
 10
6033.920389914088
 20
6245.529308887281
 30
0.0
 11
6033.920389914088
 21
6145.528909309977
 31
0.0
  0
LINE
  5
296A9
330
1F
100
AcDbEntity
  8
D-STR
  6
Continuous
100
AcDbLine
 10
6092.919389664672
 20
6495.528907830546
 30
0.0
 11
6217.920389136347
 21
6495.528907830546
 31
0.0
  0
LINE
  5
296AA
330
1F
100
AcDbEntity
  8
D-STR-STR2
  6
Continuous
100
AcDbLine
 10
6012.92039000287
 20
6335.529308506857
 30
0.0
 11
6012.92039000287
 21
6355.529308422319
 31
0.0
  0
LINE
  5
296AB
330
1F
100
AcDbEntity
  8
D-STR-STR2
  6
Continuous
100
AcDbLine
 10
6012.92039000287
 20
6355.529308422319
 30
0.0
 11
6092.920589664707
 21
6355.529308422319
 31
0.0
  0
LINE
  5
296AC
330
1F
100
AcDbEntity
  8
D-STR-STR2
  6
Continuous
100
AcDbLine
 10
6012.92039000287
 20
6335.529308506857
 30
0.0
 11
6092.920589664707
 21
6335.529308506857
 31
0.0
  0
LINE
  5
296AD
330
1F
100
AcDbEntity
  8
D-STR
  6
Continuous
100
AcDbLine
 10
6117.920389559039
 20
6395.52950825324
 30
0.0
 11
6217.920389136347
 21
6495.529907830546
 31
0.0
  0
LINE
  5
296AE
330
1F
100
AcDbEntity
  8
D-STR-DIM
  6
Continuous
100
AcDbLine
 10
6117.920389559039
 20
7395.529104026302
 30
0.0
 11
6717.920427022891
 21
7395.529104026302
 31
0.0
  0
LINE
  5
296AF
330
1F
100
AcDbEntity
  8
D-STR-DIM
  6
Continuous
100
AcDbLine
 10
6217.920389136347
 20
7095.528705294384
 30
0.0
 11
6717.920047022835
 21
7095.528705294384
 31
0.0
  0
TEXT
  5
296B0
330
1F
100
AcDbEntity
  8
D-STR-DIM
100
AcDbText
 10
6066.175389777753
 20
7111.528505226752
 30
0.0
 40
70.0
  1
100
100
AcDbText
  0
LINE
  5
296B1
330
1F
100
AcDbEntity
  8
D-STR-DIM
  6
Continuous
100
AcDbLine
 10
6117.920389559039
 20
7095.528705294384
 30
0.0
 11
6167.920389347695
 21
7095.528705294384
 31
0.0
  0
LINE
  5
296B2
330
1F
100
AcDbEntity
  8
D-STR-DIM
  6
Continuous
100
AcDbLine
 10
6217.920389136347
 20
7095.528705294384
 30
0.0
 11
6167.920389347695
 21
7095.528705294384
 31
0.0
  0
CIRCLE
  5
296B3
330
1F
100
AcDbEntity
  8
D-STR-DIM
  6
Continuous
100
AcDbCircle
 10
6117.920389559039
 20
7095.528705294384
 30
0.0
 40
5.999997974638371
  0
CIRCLE
  5
296B4
330
1F
100
AcDbEntity
  8
D-STR-DIM
  6
Continuous
100
AcDbCircle
 10
6217.920389136347
 20
7095.528705294384
 30
0.0
 40
5.999997974638371
  0
TEXT
  5
296B5
330
1F
100
AcDbEntity
  8
D-STR-DIM
100
AcDbText
 10
5931.060590348865
 20
7411.52890395867
 30
0.0
 40
70.0
  1
220
100
AcDbText
  0
LINE
  5
296B6
330
1F
100
AcDbEntity
  8
D-STR-DIM
  6
Continuous
100
AcDbLine
 10
6117.920389559039
 20
7395.529104026302
 30
0.0
 11
6007.920390024003
 21
7395.529104026302
 31
0.0
  0
LINE
  5
296B7
330
1F
100
AcDbEntity
  8
D-STR-DIM
  6
Continuous
100
AcDbLine
 10
5897.920390488966
 20
7395.529104026302
 30
0.0
 11
6007.920390024003
 21
7395.529104026302
 31
0.0
  0
CIRCLE
  5
296B8
330
1F
100
AcDbEntity
  8
D-STR-DIM
  6
Continuous
100
AcDbCircle
 10
5897.920390488966
 20
7395.529104026302
 30
0.0
 40
5.999997974638371
  0
CIRCLE
  5
296B9
330
1F
100
AcDbEntity
  8
D-STR-DIM
  6
Continuous
100
AcDbCircle
 10
6117.920389559039
 20
7395.529104026302
 30
0.0
 40
5.999997974638371
  0
TEXT
  5
296BA
330
1F
100
AcDbEntity
  8
D-STR-DIM
100
AcDbText
 10
6599.060587525298
 20
7111.528505226752
 30
0.0
 40
70.0
  1
1000
100
AcDbText
  0
TEXT
  5
296BB
330
1F
100
AcDbEntity
  8
D-STR-DIM
100
AcDbText
 10
6599.060587525298
 20
7411.52890395867
 30
0.0
 40
70.0
  1
1200
100
AcDbText
  0
LINE
  5
296BC
330
1F
100
AcDbEntity
  8
D-STR-DIM
  6
Continuous
100
AcDbLine
 10
7217.919884909385
 20
6715.528906985159
 30
0.0
 11
7217.919884909385
 21
7125.528505167577
 31
0.0
  0
LINE
  5
296BD
330
1F
100
AcDbEntity
  8
D-STR-DIM
  6
Continuous
100
AcDbLine
 10
7317.920484486673
 20
6715.528906985159
 30
0.0
 11
7317.920484486673
 21
7425.52890389949
 31
0.0
  0
TEXT
  5
296BE
330
1F
100
AcDbEntity
  8
D-STR-DIM
100
AcDbText
 10
7771.920442567644
 20
6444.846508044777
 30
0.0
 40
70.0
  1
76
 50
90.0
100
AcDbText
  0
LINE
  5
296BF
330
1F
100
AcDbEntity
  8
D-STR-DIM
  6
Continuous
100
AcDbLine
 10
7567.92040342991
 20
6395.528508253244
 30
0.0
 11
7757.920402626794
 21
6395.528508253244
 31
0.0
  0
LINE
  5
296C0
330
1F
100
AcDbEntity
  8
D-STR-DIM
  6
Continuous
100
AcDbLine
 10
7557.920383556787
 20
6419.529108151796
 30
0.0
 11
7817.92044237319
 21
6419.529108151796
 31
0.0
  0
LINE
  5
296C1
330
1F
100
AcDbEntity
  8
D-STR-DIM
  6
Continuous
100
AcDbLine
 10
7557.920383556787
 20
6495.528907830546
 30
0.0
 11
8367.92040004836
 21
6495.528907830546
 31
0.0
  0
LINE
  5
296C2
330
1F
100
AcDbEntity
  8
D-STR
  6
Continuous
100
AcDbLine
 10
7452.920483916037
 20
6070.528709626998
 30
0.0
 11
7452.920483916037
 21
6320.528508570265
 31
0.0
  0
LINE
  5
296C3
330
1F
100
AcDbEntity
  8
D-STR
  6
Continuous
100
AcDbLine
 10
7402.920364127417
 20
6070.528709626998
 30
0.0
 11
7402.920364127417
 21
6320.528508570265
 31
0.0
  0
LINE
  5
296C4
330
1F
100
AcDbEntity
  8
D-STR-DIM
  6
Continuous
100
AcDbLine
 10
7402.920364127417
 20
5940.5287101765
 30
0.0
 11
7427.920364021741
 21
5940.5287101765
 31
0.0
  0
TEXT
  5
296C5
330
1F
100
AcDbEntity
  8
D-STR-DIM
100
AcDbText
 10
7373.060444253617
 20
5844.20851058364
 30
0.0
 40
70.0
  1
50
100
AcDbText
  0
LINE
  5
296C6
330
1F
100
AcDbEntity
  8
D-BMK
  6
CENTER2
100
AcDbLine
 10
7287.920464613475
 20
6195.528509098632
 30
0.0
 11
7431.920664004806
 21
6195.528509098632
 31
0.0
  0
TEXT
  5
296C7
330
1F
100
AcDbEntity
  8
D-STR-DIM
100
AcDbText
 10
7183.982625052816
 20
5956.529310108866
 30
0.0
 40
70.0
  1
85
100
AcDbText
  0
LINE
  5
296C8
330
1F
100
AcDbEntity
  8
D-STR-DIM
  6
Continuous
100
AcDbLine
 10
7360.420424307008
 20
5940.5287101765
 30
0.0
 11
7174.842465091424
 21
5940.5287101765
 31
0.0
  0
LINE
  5
296C9
330
1F
100
AcDbEntity
  8
D-STR-DIM
  6
Continuous
100
AcDbLine
 10
7402.920364127417
 20
5940.5287101765
 30
0.0
 11
7360.420424307008
 21
5940.5287101765
 31
0.0
  0
CIRCLE
  5
296CA
330
1F
100
AcDbEntity
  8
D-STR-DIM
  6
Continuous
100
AcDbCircle
 10
7402.920364127417
 20
5940.5287101765
 30
0.0
 40
5.999997974638371
  0
LINE
  5
296CB
330
1F
100
AcDbEntity
  8
D-STR-DIM
  6
Continuous
100
AcDbLine
 10
7402.920364127417
 20
6050.528709626997
 30
0.0
 11
7402.920364127417
 21
5910.528910303306
 31
0.0
  0
CIRCLE
  5
296CC
330
1F
100
AcDbEntity
  8
D-STR-DIM
  6
Continuous
100
AcDbCircle
 10
7317.920484486673
 20
5940.5287101765
 30
0.0
 40
5.999997974638371
  0
LINE
  5
296CD
330
1F
100
AcDbEntity
  8
D-STR
  6
Continuous
100
AcDbLine
 10
7317.919864486684
 20
6060.529109669268
 30
0.0
 11
7402.919264127413
 21
6070.528709626998
 31
0.0
  0
LINE
  5
296CE
330
1F
100
AcDbEntity
  8
D-STR-DIM
  6
Continuous
100
AcDbLine
 10
7317.920484486673
 20
5940.5287101765
 30
0.0
 11
7360.420424307008
 21
5940.5287101765
 31
0.0
  0
LINE
  5
296CF
330
1F
100
AcDbEntity
  8
D-STR-STR2
  6
Continuous
100
AcDbLine
 10
7401.920644131606
 20
6245.529308887281
 30
0.0
 11
7401.920644131606
 21
6145.528909309977
 31
0.0
  0
LINE
  5
296D0
330
1F
100
AcDbEntity
  8
D-STR-STR2
  6
Continuous
100
AcDbLine
 10
7317.920484486673
 20
6245.529308887281
 30
0.0
 11
7401.920644131606
 21
6245.529308887281
 31
0.0
  0
LINE
  5
296D1
330
1F
100
AcDbEntity
  8
D-STR-STR2
  6
Continuous
100
AcDbLine
 10
7401.920644131606
 20
6145.528909309977
 30
0.0
 11
7317.920484486673
 21
6145.528909309977
 31
0.0
  0
TEXT
  5
296D2
330
1F
100
AcDbEntity
  8
D-STR-DIM
100
AcDbText
 10
7563.673243447924
 20
5956.529310108866
 30
0.0
 40
70.0
  1
85
100
AcDbText
  0
LINE
  5
296D3
330
1F
100
AcDbEntity
  8
D-STR-DIM
  6
Continuous
100
AcDbLine
 10
7495.420423736374
 20
5940.5287101765
 30
0.0
 11
7682.533402945475
 21
5940.5287101765
 31
0.0
  0
LINE
  5
296D4
330
1F
100
AcDbEntity
  8
D-STR
  6
Continuous
100
AcDbLine
 10
7452.920483916037
 20
6070.528709626998
 30
0.0
 11
7537.920383556786
 21
6060.529109669268
 31
0.0
  0
CIRCLE
  5
296D5
330
1F
100
AcDbEntity
  8
D-STR-DIM
  6
Continuous
100
AcDbCircle
 10
7537.920383556786
 20
5940.5287101765
 30
0.0
 40
5.999997974638371
  0
LINE
  5
296D6
330
1F
100
AcDbEntity
  8
D-STR-DIM
  6
Continuous
100
AcDbLine
 10
7452.920483916037
 20
5940.5287101765
 30
0.0
 11
7495.420423736374
 21
5940.5287101765
 31
0.0
  0
LINE
  5
296D7
330
1F
100
AcDbEntity
  8
D-STR-DIM
  6
Continuous
100
AcDbLine
 10
7452.920483916037
 20
5940.5287101765
 30
0.0
 11
7427.920364021741
 21
5940.5287101765
 31
0.0
  0
CIRCLE
  5
296D8
330
1F
100
AcDbEntity
  8
D-STR-DIM
  6
Continuous
100
AcDbCircle
 10
7452.920483916037
 20
5940.5287101765
 30
0.0
 40
5.999997974638371
  0
LINE
  5
296D9
330
1F
100
AcDbEntity
  8
D-STR-DIM
  6
Continuous
100
AcDbLine
 10
7537.920383556786
 20
5940.5287101765
 30
0.0
 11
7495.420423736374
 21
5940.5287101765
 31
0.0
  0
LINE
  5
296DA
330
1F
100
AcDbEntity
  8
D-STR-DIM
  6
Continuous
100
AcDbLine
 10
7452.920483916037
 20
6050.528709626997
 30
0.0
 11
7452.920483916037
 21
5910.528910303306
 31
0.0
  0
LINE
  5
296DB
330
1F
100
AcDbEntity
  8
D-STR
  6
Continuous
100
AcDbLine
 10
7217.920384909408
 20
6495.528907830546
 30
0.0
 11
7317.920484486673
 21
6395.52950825324
 31
0.0
  0
LINE
  5
296DC
330
1F
100
AcDbEntity
  8
D-STR
  6
Continuous
100
AcDbLine
 10
7342.921084380981
 20
6495.528907830546
 30
0.0
 11
7217.919884909385
 21
6495.528907830546
 31
0.0
  0
LINE
  5
296DD
330
1F
100
AcDbEntity
  8
D-STR-STR2
  6
Continuous
100
AcDbLine
 10
7422.906964042907
 20
6409.535508194037
 30
0.0
 11
7422.906964042907
 21
6429.535508109498
 31
0.0
  0
LINE
  5
296DE
330
1F
100
AcDbEntity
  8
D-STR
  6
Continuous
100
AcDbLine
 10
7402.920364127417
 20
6320.528508570265
 30
0.0
 11
7317.920484486673
 21
6330.527908527996
 31
0.0
  0
LINE
  5
296DF
330
1F
100
AcDbEntity
  8
D-STR-STR2
  6
Continuous
100
AcDbLine
 10
7422.906964042907
 20
6429.535508109498
 30
0.0
 11
7342.906964381064
 21
6429.534508109502
 31
0.0
  0
LINE
  5
296E0
330
1F
100
AcDbEntity
  8
D-STR-STR2
  6
Continuous
100
AcDbLine
 10
7422.906964042907
 20
6409.535508194037
 30
0.0
 11
7342.906964381064
 21
6409.534508194041
 31
0.0
  0
LINE
  5
296E1
330
1F
100
AcDbEntity
  8
D-STR
  6
Continuous
100
AcDbLine
 10
7537.921003556774
 20
6330.527908527996
 30
0.0
 11
7452.919863916045
 21
6320.528508570265
 31
0.0
  0
LINE
  5
296E2
330
1F
100
AcDbEntity
  8
D-STR-DIM
  6
Continuous
100
AcDbLine
 10
7787.920422499992
 20
6457.52950799117
 30
0.0
 11
7787.920422499992
 21
6554.566107581003
 31
0.0
  0
LINE
  5
296E3
330
1F
100
AcDbEntity
  8
D-STR-DIM
  6
Continuous
100
AcDbLine
 10
7807.920422499993
 20
6395.528508253244
 30
0.0
 11
8067.920421316449
 21
6395.528508253244
 31
0.0
  0
LINE
  5
296E4
330
1F
100
AcDbEntity
  8
D-STR-DIM
  6
Continuous
100
AcDbLine
 10
7787.920422499992
 20
6419.529108151796
 30
0.0
 11
7787.920422499992
 21
6457.52950799117
 31
0.0
  0
LINE
  5
296E5
330
1F
100
AcDbEntity
  8
D-STR-DIM
  6
Continuous
100
AcDbLine
 10
7787.920422499992
 20
6495.528907830546
 30
0.0
 11
7787.920422499992
 21
6457.52950799117
 31
0.0
  0
CIRCLE
  5
296E6
330
1F
100
AcDbEntity
  8
D-STR-DIM
  6
Continuous
100
AcDbCircle
 10
7787.920422499992
 20
6419.529108151796
 30
0.0
 40
5.999997974638371
  0
CIRCLE
  5
296E7
330
1F
100
AcDbEntity
  8
D-STR-DIM
  6
Continuous
100
AcDbCircle
 10
7787.920422499992
 20
6495.528907830546
 30
0.0
 40
5.999997974638371
  0
LINE
  5
296E8
330
1F
100
AcDbEntity
  8
D-STR-DIM
  6
Continuous
100
AcDbLine
 10
8037.920401443249
 20
6395.528508253244
 30
0.0
 11
8037.920401443249
 21
6445.529308041894
 31
0.0
  0
LINE
  5
296E9
330
1F
100
AcDbEntity
  8
D-STR-DIM
  6
Continuous
100
AcDbLine
 10
8037.920401443249
 20
6495.528907830546
 30
0.0
 11
8037.920401443249
 21
6445.529308041894
 31
0.0
  0
CIRCLE
  5
296EA
330
1F
100
AcDbEntity
  8
D-STR-DIM
  6
Continuous
100
AcDbCircle
 10
8037.920401443249
 20
6395.528508253244
 30
0.0
 40
5.999997974638371
  0
CIRCLE
  5
296EB
330
1F
100
AcDbEntity
  8
D-STR-DIM
  6
Continuous
100
AcDbCircle
 10
8037.920401443249
 20
6495.528907830546
 30
0.0
 40
5.999997974638371
  0
TEXT
  5
296EC
330
1F
100
AcDbEntity
  8
D-STR-DIM
100
AcDbText
 10
8021.920421510902
 20
6340.610708485379
 30
0.0
 40
70.0
  1
100
 50
90.0
100
AcDbText
  0
LINE
  5
296ED
330
1F
100
AcDbEntity
  8
D-STR-DIM
  6
Continuous
100
AcDbLine
 10
8337.920400175171
 20
6495.528907830546
 30
0.0
 11
8337.920400175171
 21
6595.528507407856
 31
0.0
  0
TEXT
  5
296EE
330
1F
100
AcDbEntity
  8
D-STR-DIM
100
AcDbText
 10
8321.920400242815
 20
6508.668907775007
 30
0.0
 40
70.0
  1
200
 50
90.0
100
AcDbText
  0
CIRCLE
  5
296EF
330
1F
100
AcDbEntity
  8
D-STR-DIM
  6
Continuous
100
AcDbCircle
 10
8337.920400175171
 20
6495.528907830546
 30
0.0
 40
5.999997974638371
  0
LINE
  5
296F0
330
1F
100
AcDbEntity
  8
D-STR-DIM
  6
Continuous
100
AcDbLine
 10
8337.920400175171
 20
6695.528906985159
 30
0.0
 11
8337.920400175171
 21
6595.528507407856
 31
0.0
  0
CIRCLE
  5
296F1
330
1F
100
AcDbEntity
  8
D-STR-DIM
  6
Continuous
100
AcDbCircle
 10
8337.920400175171
 20
6695.528906985159
 30
0.0
 40
5.999997974638371
  0
LINE
  5
296F2
330
1F
100
AcDbEntity
  8
D-STR-DIM
  6
Continuous
100
AcDbLine
 10
7217.919884909385
 20
7095.528705294384
 30
0.0
 11
7267.919864698029
 21
7095.528705294384
 31
0.0
  0
TEXT
  5
296F3
330
1F
100
AcDbEntity
  8
D-STR-DIM
100
AcDbText
 10
7164.089065136924
 20
7111.528505226752
 30
0.0
 40
70.0
  1
100
100
AcDbText
  0
CIRCLE
  5
296F4
330
1F
100
AcDbEntity
  8
D-STR-DIM
  6
Continuous
100
AcDbCircle
 10
7217.919884909385
 20
7095.528705294384
 30
0.0
 40
5.999997974638371
  0
LINE
  5
296F5
330
1F
100
AcDbEntity
  8
D-STR-DIM
  6
Continuous
100
AcDbLine
 10
7317.919864486684
 20
7095.528705294384
 30
0.0
 11
7267.919864698029
 21
7095.528705294384
 31
0.0
  0
CIRCLE
  5
296F6
330
1F
100
AcDbEntity
  8
D-STR-DIM
  6
Continuous
100
AcDbCircle
 10
7317.919864486684
 20
7095.528705294384
 30
0.0
 40
5.999997974638371
  0
LINE
  5
296F7
330
1F
100
AcDbEntity
  8
D-STR-DIM
  6
Continuous
100
AcDbLine
 10
7317.920484486673
 20
7395.529104026302
 30
0.0
 11
7427.920364021741
 21
7395.529104026302
 31
0.0
  0
TEXT
  5
296F8
330
1F
100
AcDbEntity
  8
D-STR-DIM
100
AcDbText
 10
7331.060424431169
 20
7411.52890395867
 30
0.0
 40
70.0
  1
220
100
AcDbText
  0
CIRCLE
  5
296F9
330
1F
100
AcDbEntity
  8
D-STR-DIM
  6
Continuous
100
AcDbCircle
 10
7317.920484486673
 20
7395.529104026302
 30
0.0
 40
5.999997974638371
  0
LINE
  5
296FA
330
1F
100
AcDbEntity
  8
D-STR-DIM
  6
Continuous
100
AcDbLine
 10
7537.920383556786
 20
7395.529104026302
 30
0.0
 11
7427.920364021741
 21
7395.529104026302
 31
0.0
  0
CIRCLE
  5
296FB
330
1F
100
AcDbEntity
  8
D-STR-DIM
  6
Continuous
100
AcDbCircle
 10
7537.920383556786
 20
7395.529104026302
 30
0.0
 40
5.999997974638371
  0
TEXT
  5
296FC
330
1F
100
AcDbEntity
  8
D-TTL-TXT
100
AcDbText
 10
7653.046518270705
 20
7147.927940130085
 30
0.0
 40
100.0
  1
　民　地　側　
100
AcDbText
  0
TEXT
  5
29732
330
1F
100
AcDbEntity
  8
D-STR-DIM
100
AcDbText
 10
11334.24036750995
 20
5770.669110894488
 30
0.0
 40
70.0
  1
10
 50
90.0
100
AcDbText
  0
LINE
  5
29733
330
1F
100
AcDbEntity
  8
D-BMK
  6
CENTER2
100
AcDbLine
 10
10662.92017034753
 20
5860.529310514653
 30
0.0
 11
10662.92017034753
 21
5530.529311909543
 31
0.0
  0
LINE
  5
29734
330
1F
100
AcDbEntity
  8
D-STR
  6
Continuous
100
AcDbLine
 10
10927.92016922739
 20
6495.528907830546
 30
0.0
 11
10927.92016922739
 21
4595.529115861733
 31
0.0
  0
LINE
  5
29735
330
1F
100
AcDbEntity
  8
D-STR
  6
Continuous
100
AcDbLine
 10
11037.92016876243
 20
6695.528906985159
 30
0.0
 11
11037.92016876243
 21
4395.529116707121
 31
0.0
  0
LINE
  5
29736
330
1F
100
AcDbEntity
  8
D-STR
  6
Continuous
100
AcDbLine
 10
10937.92016918512
 20
6485.52850787282
 30
0.0
 11
10937.92016918512
 21
4605.528715819464
 31
0.0
  0
LINE
  5
29737
330
1F
100
AcDbEntity
  8
D-STR-DIM
  6
Continuous
100
AcDbLine
 10
9137.920356793678
 20
5695.529311212098
 30
0.0
 11
9137.920356793678
 21
5945.528910155363
 31
0.0
  0
LINE
  5
29738
330
1F
100
AcDbEntity
  8
D-BMK
  6
CENTER2
100
AcDbLine
 10
9912.920313517785
 20
5860.529310514653
 30
0.0
 11
9912.920313517785
 21
5530.529311909543
 31
0.0
  0
LINE
  5
29739
330
1F
100
AcDbEntity
  8
D-STR
  6
Continuous
100
AcDbLine
 10
9637.920354680209
 20
6485.52850787282
 30
0.0
 11
9637.920354680209
 21
4605.528715819464
 31
0.0
  0
LINE
  5
2973A
330
1F
100
AcDbEntity
  8
D-STR
  6
Continuous
100
AcDbLine
 10
10387.92029150998
 20
6485.52850787282
 30
0.0
 11
10387.92029150998
 21
4605.528715819464
 31
0.0
  0
LINE
  5
2973B
330
1F
100
AcDbEntity
  8
D-STR
  6
Continuous
100
AcDbLine
 10
10187.92035235539
 20
6485.52850787282
 30
0.0
 11
10187.92035235539
 21
4605.528715819464
 31
0.0
  0
LINE
  5
2973C
330
1F
100
AcDbEntity
  8
D-STR
  6
Continuous
100
AcDbLine
 10
9537.920315102885
 20
6695.528906985159
 30
0.0
 11
9537.920315102885
 21
4395.529116707121
 31
0.0
  0
LINE
  5
2973D
330
1F
100
AcDbEntity
  8
D-STR
  6
Continuous
100
AcDbLine
 10
10177.92031239765
 20
6495.528907830546
 30
0.0
 11
10177.92031239765
 21
4595.529115861733
 31
0.0
  0
LINE
  5
2973E
330
1F
100
AcDbEntity
  8
D-STR
  6
Continuous
100
AcDbLine
 10
9647.92033463793
 20
6495.528907830546
 30
0.0
 11
9647.92033463793
 21
4595.529115861733
 31
0.0
  0
LINE
  5
2973F
330
1F
100
AcDbEntity
  8
D-STR
  6
Continuous
100
AcDbLine
 10
10397.92033146772
 20
6495.528907830546
 30
0.0
 11
10397.92033146772
 21
4595.529115861733
 31
0.0
  0
LINE
  5
2974B
330
1F
100
AcDbEntity
  8
D-STR-DIM
  6
Continuous
100
AcDbLine
 10
10817.92016977689
 20
5830.528710641464
 30
0.0
 11
11267.9203677903
 21
5830.528710641464
 31
0.0
  0
LINE
  5
2974C
330
1F
100
AcDbEntity
  8
D-STR-DIM
  6
Continuous
100
AcDbLine
 10
10817.92016977689
 20
5820.529110683732
 30
0.0
 11
11267.9203677903
 21
5820.529110683732
 31
0.0
  0
TEXT
  5
2974D
330
1F
100
AcDbEntity
  8
D-STR-DIM
100
AcDbText
 10
10981.05036900283
 20
5011.528714103328
 30
0.0
 40
70.0
  1
100
100
AcDbText
  0
LINE
  5
2974E
330
1F
100
AcDbEntity
  8
D-STR-DIM
  6
Continuous
100
AcDbLine
 10
10817.92016977689
 20
5560.528911782736
 30
0.0
 11
11267.9203677903
 21
5560.528911782736
 31
0.0
  0
LINE
  5
2974F
330
1F
100
AcDbEntity
  8
D-STR-DIM
  6
Continuous
100
AcDbLine
 10
10817.92016977689
 20
5570.529511740465
 30
0.0
 11
11267.9203677903
 21
5570.529511740465
 31
0.0
  0
LINE
  5
29750
330
1F
100
AcDbEntity
  8
D-STR-DIM
  6
Continuous
100
AcDbLine
 10
10987.92016897378
 20
4995.528914170956
 30
0.0
 11
11154.77016826856
 21
4995.528914170956
 31
0.0
  0
CIRCLE
  5
29751
330
1F
100
AcDbEntity
  8
D-STR-DIM
  6
Continuous
100
AcDbCircle
 10
11037.92016876243
 20
4995.528914170956
 30
0.0
 40
5.999997974638371
  0
CIRCLE
  5
29752
330
1F
100
AcDbEntity
  8
D-STR-DIM
  6
Continuous
100
AcDbCircle
 10
11037.92016876243
 20
3995.529318397896
 30
0.0
 40
5.999997974638371
  0
CIRCLE
  5
29753
330
1F
100
AcDbEntity
  8
D-STR-DIM
  6
Continuous
100
AcDbCircle
 10
11037.92016876243
 20
3695.528919665979
 30
0.0
 40
5.999997974638371
  0
TEXT
  5
29754
330
1F
100
AcDbEntity
  8
D-STR-DIM
100
AcDbText
 10
10983.06016899435
 20
3899.209118805037
 30
0.0
 40
70.0
  1
65
100
AcDbText
  0
LINE
  5
29755
330
1F
100
AcDbEntity
  8
D-STR-DIM
  6
Continuous
100
AcDbLine
 10
11037.92016876243
 20
4375.529116707122
 30
0.0
 11
11037.92016876243
 21
3665.529319792786
 31
0.0
  0
LINE
  5
29756
330
1F
100
AcDbEntity
  8
D-STR-DIM
  6
Continuous
100
AcDbLine
 10
10972.92016903718
 20
4375.529116707122
 30
0.0
 11
10972.92016903718
 21
3965.528718524707
 31
0.0
  0
LINE
  5
29757
330
1F
100
AcDbEntity
  8
D-STR-DIM
  6
Continuous
100
AcDbLine
 10
9537.920315102885
 20
4375.529116707122
 30
0.0
 11
9537.920315102885
 21
3665.529319792786
 31
0.0
  0
LINE
  5
29758
330
1F
100
AcDbEntity
  8
D-STR-DIM
  6
Continuous
100
AcDbLine
 10
9602.920314828139
 20
4375.529116707122
 30
0.0
 11
9602.920314828139
 21
3965.528718524707
 31
0.0
  0
LINE
  5
29759
330
1F
100
AcDbEntity
  8
D-STR-DIM
  6
Continuous
100
AcDbLine
 10
10237.92033214403
 20
4375.529116707122
 30
0.0
 11
10237.92033214403
 21
3965.528718524707
 31
0.0
  0
LINE
  5
2975A
330
1F
100
AcDbEntity
  8
D-STR-DIM
  6
Continuous
100
AcDbLine
 10
10337.92031172133
 20
4375.529116707122
 30
0.0
 11
10337.92031172133
 21
3965.528718524707
 31
0.0
  0
LINE
  5
2975B
330
1F
100
AcDbEntity
  8
D-STR-DIM
  6
Continuous
100
AcDbLine
 10
9537.920315102885
 20
3695.528919665979
 30
0.0
 11
10287.92031193268
 21
3695.528919665979
 31
0.0
  0
CIRCLE
  5
2975E
330
1F
100
AcDbEntity
  8
D-STR-DIM
  6
Continuous
100
AcDbCircle
 10
9537.920315102885
 20
3695.528919665979
 30
0.0
 40
5.999997974638371
  0
TEXT
  5
2975F
330
1F
100
AcDbEntity
  8
D-STR-DIM
100
AcDbText
 10
9483.060355334748
 20
3899.209118805037
 30
0.0
 40
70.0
  1
65
100
AcDbText
  0
TEXT
  5
29760
330
1F
100
AcDbEntity
  8
D-STR-DIM
100
AcDbText
 10
10169.06033243512
 20
3711.528519598349
 30
0.0
 40
70.0
  1
1500
100
AcDbText
  0
LINE
  5
29761
330
1F
100
AcDbEntity
  8
D-STR-DIM
  6
Continuous
100
AcDbLine
 10
11037.92016876243
 20
3695.528919665979
 30
0.0
 11
10287.92031193268
 21
3695.528919665979
 31
0.0
  0
TEXT
  5
29762
330
1F
100
AcDbEntity
  8
D-STR-DIM
100
AcDbText
 10
10201.06031229982
 20
3899.209118805037
 30
0.0
 40
70.0
  1
100
100
AcDbText
  0
LINE
  5
29763
330
1F
100
AcDbEntity
  8
D-STR-DIM
  6
Continuous
100
AcDbLine
 10
9537.920314769563
 20
5360.528913056954
 30
0.0
 11
9787.920353823938
 21
5360.528913056954
 31
0.0
  0
TEXT
  5
29764
330
1F
100
AcDbEntity
  8
D-STR-DIM
100
AcDbText
 10
9701.060354152474
 20
5376.528712996436
 30
0.0
 40
70.0
  1
500
100
AcDbText
  0
TEXT
  5
29765
330
1F
100
AcDbEntity
  8
D-STR-DIM
100
AcDbText
 10
9661.46235458064
 20
5074.300369687752
 30
0.0
 40
70.0
  1
10
100
AcDbText
  0
LINE
  5
29766
330
1F
100
AcDbEntity
  8
D-STR-DIM
  6
Continuous
100
AcDbLine
 10
9642.920314659059
 20
5058.30056975538
 30
0.0
 11
9771.182674116911
 21
5058.30056975538
 31
0.0
  0
LINE
  5
29767
330
1F
100
AcDbEntity
  8
D-STR
  6
Continuous
100
AcDbLine
 10
10177.92031239765
 20
4695.528515439042
 30
0.0
 11
9647.92033463793
 21
4695.528515439042
 31
0.0
  0
LINE
  5
29768
330
1F
100
AcDbEntity
  8
D-STR-DIM
  6
Continuous
100
AcDbLine
 10
9602.920314828139
 20
3995.529318397896
 30
0.0
 11
9920.420353486093
 21
3995.529318397896
 31
0.0
  0
LINE
  5
29769
330
1F
100
AcDbEntity
  8
D-STR
  6
Continuous
100
AcDbLine
 10
11037.92016876243
 20
4595.529115861733
 30
0.0
 11
9537.920315102885
 21
4595.529115861733
 31
0.0
  0
LINE
  5
2976A
330
1F
100
AcDbEntity
  8
D-STR
  6
Continuous
100
AcDbLine
 10
11037.92016876243
 20
4395.529116707121
 30
0.0
 11
9537.920315102885
 21
4395.529116707121
 31
0.0
  0
LINE
  5
2976B
330
1F
100
AcDbEntity
  8
D-STR-DIM
  6
Continuous
100
AcDbLine
 10
8837.920373417411
 20
4995.528914437588
 30
0.0
 11
8837.920373417411
 21
4795.529115194098
 31
0.0
  0
LINE
  5
2976C
330
1F
100
AcDbEntity
  8
D-STR-DIM
  6
Continuous
100
AcDbLine
 10
9137.920356793678
 20
4595.529115861733
 30
0.0
 11
9137.920356793678
 21
5145.529113536917
 31
0.0
  0
LINE
  5
2976D
330
1F
100
AcDbEntity
  8
D-STR-DIM
  6
Continuous
100
AcDbLine
 10
9517.920314769563
 20
4595.52911595061
 30
0.0
 11
8807.92037353089
 21
4595.52911595061
 31
0.0
  0
LINE
  5
2976E
330
1F
100
AcDbEntity
  8
D-STR-DIM
  6
Continuous
100
AcDbLine
 10
8837.920373417411
 20
4595.52911595061
 30
0.0
 11
8837.920373417411
 21
4795.529115194098
 31
0.0
  0
CIRCLE
  5
2976F
330
1F
100
AcDbEntity
  8
D-STR-DIM
  6
Continuous
100
AcDbCircle
 10
8837.920373417411
 20
4595.52911595061
 30
0.0
 40
5.999997977304677
  0
TEXT
  5
29770
330
1F
100
AcDbEntity
  8
D-STR-DIM
100
AcDbText
 10
8821.920371477933
 20
4708.669315522649
 30
0.0
 40
70.0
  1
400
 50
90.0
100
AcDbText
  0
LINE
  5
29771
330
1F
100
AcDbEntity
  8
D-STR-DIM
  6
Continuous
100
AcDbLine
 10
9537.920315102885
 20
3995.529318397896
 30
0.0
 11
9570.420354965525
 21
3995.529318397896
 31
0.0
  0
CIRCLE
  5
29772
330
1F
100
AcDbEntity
  8
D-STR-DIM
  6
Continuous
100
AcDbCircle
 10
9537.920315102885
 20
3995.529318397896
 30
0.0
 40
5.999997974638371
  0
LINE
  5
29773
330
1F
100
AcDbEntity
  8
D-STR-DIM
  6
Continuous
100
AcDbLine
 10
9602.920314828139
 20
3995.529318397896
 30
0.0
 11
9570.420354965525
 21
3995.529318397896
 31
0.0
  0
CIRCLE
  5
29774
330
1F
100
AcDbEntity
  8
D-STR-DIM
  6
Continuous
100
AcDbCircle
 10
9602.920314828139
 20
3995.529318397896
 30
0.0
 40
5.999997974638371
  0
CIRCLE
  5
29775
330
1F
100
AcDbEntity
  8
D-STR-DIM
  6
Continuous
100
AcDbCircle
 10
9137.920356793678
 20
4595.529115861733
 30
0.0
 40
5.999997974638371
  0
CIRCLE
  5
29776
330
1F
100
AcDbEntity
  8
D-STR-STR2
  6
Continuous
100
AcDbCircle
 10
9602.920314828139
 20
4678.529115510897
 30
0.0
 40
9.999997957730611
  0
LINE
  5
29777
330
1F
100
AcDbEntity
  8
D-BMK
  6
CENTER2
100
AcDbLine
 10
9602.920314828139
 20
4718.529315341817
 30
0.0
 11
9602.920314828139
 21
4638.528915679976
 31
0.0
  0
LINE
  5
29778
330
1F
100
AcDbEntity
  8
D-STR
  6
Continuous
100
AcDbLine
 10
9537.920315102885
 20
4605.528715819464
 30
0.0
 11
9637.920354680209
 21
4605.528715819464
 31
0.0
  0
LINE
  5
29779
330
1F
100
AcDbEntity
  8
D-STR
  6
Continuous
100
AcDbLine
 10
9537.920315102885
 20
4595.529115861733
 30
0.0
 11
9647.92033463793
 21
4595.529115861733
 31
0.0
  0
LINE
  5
2977A
330
1F
100
AcDbEntity
  8
D-BMK
  6
CENTER2
100
AcDbLine
 10
9562.920314997212
 20
4678.529115510897
 30
0.0
 11
9642.920314659059
 21
4678.529115510897
 31
0.0
  0
LINE
  5
2977B
330
1F
100
AcDbEntity
  8
D-STR
  6
Continuous
100
AcDbLine
 10
9637.920354680209
 20
4605.528715819464
 30
0.0
 11
9647.92033463793
 21
4595.528115861738
 31
0.0
  0
TEXT
  5
2977C
330
1F
100
AcDbEntity
  8
D-STR-DIM
100
AcDbText
 10
9121.920336861244
 20
5026.669114039331
 30
0.0
 40
70.0
  1
1100
 50
90.0
100
AcDbText
  0
LINE
  5
2977D
330
1F
100
AcDbEntity
  8
D-STR-DIM
  6
Continuous
100
AcDbLine
 10
9046.116156629883
 20
4995.528914437588
 30
0.0
 11
8807.92037353089
 21
4995.528914437588
 31
0.0
  0
CIRCLE
  5
2977E
330
1F
100
AcDbEntity
  8
D-STR-DIM
  6
Continuous
100
AcDbCircle
 10
8837.920373417411
 20
4995.528914437588
 30
0.0
 40
5.999997977304677
  0
LINE
  5
2977F
330
1F
100
AcDbEntity
  8
D-STR-DIM
  6
Continuous
100
AcDbLine
 10
9137.920356793678
 20
5695.529311212098
 30
0.0
 11
9137.920356793678
 21
5145.529113536917
 31
0.0
  0
LINE
  5
29780
330
1F
100
AcDbEntity
  8
D-STR-DIM
  6
Continuous
100
AcDbLine
 10
9167.920336169116
 20
4995.528914437588
 30
0.0
 11
9507.92037488306
 21
4995.528914437588
 31
0.0
  0
TEXT
  5
29781
330
1F
100
AcDbEntity
  8
D-STR-DIM
100
AcDbText
 10
9421.070755596756
 20
5074.300369687752
 30
0.0
 40
70.0
  1
100
100
AcDbText
  0
LINE
  5
29782
330
1F
100
AcDbEntity
  8
D-STR-DIM
  6
Continuous
100
AcDbLine
 10
9537.920315102885
 20
5058.30056975538
 30
0.0
 11
9587.920374891561
 21
5058.30056975538
 31
0.0
  0
LINE
  5
29783
330
1F
100
AcDbEntity
  8
D-STR-DIM
  6
Continuous
100
AcDbLine
 10
9587.920374891561
 20
5058.30056975538
 30
0.0
 11
9421.070335596764
 21
5058.30056975538
 31
0.0
  0
CIRCLE
  5
29784
330
1F
100
AcDbEntity
  8
D-STR-DIM
  6
Continuous
100
AcDbCircle
 10
9537.920315102885
 20
5058.30056975538
 30
0.0
 40
5.999997974638371
  0
LINE
  5
29785
330
1F
100
AcDbEntity
  8
D-STR-DIM
  6
Continuous
100
AcDbLine
 10
9637.920354680209
 20
5058.30056975538
 30
0.0
 11
9642.920314659059
 21
5058.30056975538
 31
0.0
  0
LINE
  5
29786
330
1F
100
AcDbEntity
  8
D-STR-DIM
  6
Continuous
100
AcDbLine
 10
9637.920354680209
 20
5058.30056975538
 30
0.0
 11
9587.920374891561
 21
5058.30056975538
 31
0.0
  0
LINE
  5
29787
330
1F
100
AcDbEntity
  8
D-STR-DIM
  6
Continuous
100
AcDbLine
 10
9647.92033463793
 20
5058.30056975538
 30
0.0
 11
9642.920314659059
 21
5058.30056975538
 31
0.0
  0
CIRCLE
  5
29788
330
1F
100
AcDbEntity
  8
D-STR-DIM
  6
Continuous
100
AcDbCircle
 10
9647.92033463793
 20
5058.30056975538
 30
0.0
 40
5.999997974638371
  0
CIRCLE
  5
29789
330
1F
100
AcDbEntity
  8
D-STR-DIM
  6
Continuous
100
AcDbCircle
 10
9637.920354680209
 20
5058.30056975538
 30
0.0
 40
5.999997974638371
  0
CIRCLE
  5
2978A
330
1F
100
AcDbEntity
  8
D-STR-DIM
  6
Continuous
100
AcDbCircle
 10
9537.920314769563
 20
5360.528913056954
 30
0.0
 40
5.999997977304677
  0
LINE
  5
2978B
330
1F
100
AcDbEntity
  8
D-STR-DIM
  6
Continuous
100
AcDbLine
 10
9517.920315102886
 20
5695.529311212098
 30
0.0
 11
9107.920336920477
 21
5695.529311212098
 31
0.0
  0
CIRCLE
  5
2978C
330
1F
100
AcDbEntity
  8
D-STR-DIM
  6
Continuous
100
AcDbCircle
 10
9137.920356793678
 20
5695.529311212098
 30
0.0
 40
5.999997974638371
  0
TEXT
  5
2978D
330
1F
100
AcDbEntity
  8
D-STR-DIM
100
AcDbText
 10
10338.06027172076
 20
4899.208914578097
 30
0.0
 40
70.0
  1
10
100
AcDbText
  0
TEXT
  5
2978E
330
1F
100
AcDbEntity
  8
D-STR-DIM
100
AcDbText
 10
10128.06029260835
 20
4899.208914578097
 30
0.0
 40
70.0
  1
10
100
AcDbText
  0
LINE
  5
2978F
330
1F
100
AcDbEntity
  8
D-STR
  6
Continuous
100
AcDbLine
 10
10387.92029150998
 20
4605.528715819464
 30
0.0
 11
10187.92035235539
 21
4605.528715819464
 31
0.0
  0
LINE
  5
29790
330
1F
100
AcDbEntity
  8
D-STR
  6
Continuous
100
AcDbLine
 10
10397.92033146772
 20
4595.529115861733
 30
0.0
 11
10177.92031239765
 21
4595.529115861733
 31
0.0
  0
LINE
  5
29791
330
1F
100
AcDbEntity
  8
D-STR-DIM
  6
Continuous
100
AcDbLine
 10
10337.92031172133
 20
3995.529318397896
 30
0.0
 11
10655.42017037923
 21
3995.529318397896
 31
0.0
  0
LINE
  5
29792
330
1F
100
AcDbEntity
  8
D-STR-DIM
  6
Continuous
100
AcDbLine
 10
10237.92033214403
 20
3995.529318397896
 30
0.0
 11
9920.420353486093
 21
3995.529318397896
 31
0.0
  0
TEXT
  5
29793
330
1F
100
AcDbEntity
  8
D-STR-DIM
100
AcDbText
 10
9833.560353853231
 20
4011.528918330266
 30
0.0
 40
70.0
  1
635
100
AcDbText
  0
CIRCLE
  5
29794
330
1F
100
AcDbEntity
  8
D-STR-DIM
  6
Continuous
100
AcDbCircle
 10
10337.92031172133
 20
3995.529318397896
 30
0.0
 40
5.999997974638371
  0
LINE
  5
29795
330
1F
100
AcDbEntity
  8
D-STR-DIM
  6
Continuous
100
AcDbLine
 10
10237.92033214403
 20
3995.529318397896
 30
0.0
 11
10287.92031193268
 21
3995.529318397896
 31
0.0
  0
CIRCLE
  5
29796
330
1F
100
AcDbEntity
  8
D-STR-DIM
  6
Continuous
100
AcDbCircle
 10
10237.92033214403
 20
3995.529318397896
 30
0.0
 40
5.999997974638371
  0
LINE
  5
29797
330
1F
100
AcDbEntity
  8
D-STR-DIM
  6
Continuous
100
AcDbLine
 10
10337.92031172133
 20
3995.529318397896
 30
0.0
 11
10287.92031193268
 21
3995.529318397896
 31
0.0
  0
CIRCLE
  5
29798
330
1F
100
AcDbEntity
  8
D-STR-STR2
  6
Continuous
100
AcDbCircle
 10
10337.92031172133
 20
4678.529115510897
 30
0.0
 40
9.999997957730611
  0
LINE
  5
29799
330
1F
100
AcDbEntity
  8
D-BMK
  6
CENTER2
100
AcDbLine
 10
10337.92031172133
 20
4718.529315341817
 30
0.0
 11
10337.92031172133
 21
4638.528915679976
 31
0.0
  0
CIRCLE
  5
2979A
330
1F
100
AcDbEntity
  8
D-STR-STR2
  6
Continuous
100
AcDbCircle
 10
10237.92033214403
 20
4678.529115510897
 30
0.0
 40
9.999997957730611
  0
LINE
  5
2979B
330
1F
100
AcDbEntity
  8
D-BMK
  6
CENTER2
100
AcDbLine
 10
10237.92033214403
 20
4718.529315341817
 30
0.0
 11
10237.92033214403
 21
4638.528915679976
 31
0.0
  0
LINE
  5
2979C
330
1F
100
AcDbEntity
  8
D-BMK
  6
CENTER2
100
AcDbLine
 10
10197.92027231309
 20
4678.529115510897
 30
0.0
 11
10277.92027197494
 21
4678.529115510897
 31
0.0
  0
LINE
  5
2979D
330
1F
100
AcDbEntity
  8
D-STR
  6
Continuous
100
AcDbLine
 10
10187.92035235539
 20
4605.528715819464
 30
0.0
 11
10177.92093239763
 21
4595.528115861738
 31
0.0
  0
LINE
  5
2979E
330
1F
100
AcDbEntity
  8
D-BMK
  6
CENTER2
100
AcDbLine
 10
10297.92037189043
 20
4678.529115510897
 30
0.0
 11
10377.92037155228
 21
4678.529115510897
 31
0.0
  0
LINE
  5
2979F
330
1F
100
AcDbEntity
  8
D-STR-DIM
  6
Continuous
100
AcDbLine
 10
10972.92016903718
 20
3995.529318397896
 30
0.0
 11
10655.42017037923
 21
3995.529318397896
 31
0.0
  0
TEXT
  5
297A0
330
1F
100
AcDbEntity
  8
D-STR-DIM
100
AcDbText
 10
10568.5602707464
 20
4011.528918330266
 30
0.0
 40
70.0
  1
635
100
AcDbText
  0
LINE
  5
297A1
330
1F
100
AcDbEntity
  8
D-STR-DIM
  6
Continuous
100
AcDbLine
 10
11037.92016876243
 20
3995.529318397896
 30
0.0
 11
11005.42016889981
 21
3995.529318397896
 31
0.0
  0
LINE
  5
297A2
330
1F
100
AcDbEntity
  8
D-STR-DIM
  6
Continuous
100
AcDbLine
 10
10972.92016903718
 20
3995.529318397896
 30
0.0
 11
11005.42016889981
 21
3995.529318397896
 31
0.0
  0
CIRCLE
  5
297A3
330
1F
100
AcDbEntity
  8
D-STR-DIM
  6
Continuous
100
AcDbCircle
 10
10972.92016903718
 20
3995.529318397896
 30
0.0
 40
5.999997974638371
  0
LINE
  5
297A4
330
1F
100
AcDbEntity
  8
D-STR
  6
Continuous
100
AcDbLine
 10
10927.92016922739
 20
4695.528515439042
 30
0.0
 11
10397.92033146772
 21
4695.528515439042
 31
0.0
  0
LINE
  5
297A5
330
1F
100
AcDbEntity
  8
D-STR
  6
Continuous
100
AcDbLine
 10
10397.92033146772
 20
4595.528115861738
 30
0.0
 11
10387.91967150999
 21
4605.528715819464
 31
0.0
  0
CIRCLE
  5
297A6
330
1F
100
AcDbEntity
  8
D-STR-STR2
  6
Continuous
100
AcDbCircle
 10
10972.92016903718
 20
4678.529115510897
 30
0.0
 40
9.999997957730611
  0
LINE
  5
297A7
330
1F
100
AcDbEntity
  8
D-BMK
  6
CENTER2
100
AcDbLine
 10
10972.92016903718
 20
4718.529315341817
 30
0.0
 11
10972.92016903718
 21
4638.528915679976
 31
0.0
  0
LINE
  5
297A8
330
1F
100
AcDbEntity
  8
D-STR
  6
Continuous
100
AcDbLine
 10
10937.91956918514
 20
4605.528715819464
 30
0.0
 11
10927.92016922739
 21
4595.528115861738
 31
0.0
  0
LINE
  5
297A9
330
1F
100
AcDbEntity
  8
D-STR
  6
Continuous
100
AcDbLine
 10
11037.92016876243
 20
4595.529115861733
 30
0.0
 11
10927.92016922739
 21
4595.529115861733
 31
0.0
  0
LINE
  5
297AA
330
1F
100
AcDbEntity
  8
D-STR
  6
Continuous
100
AcDbLine
 10
11037.92016876243
 20
4605.528715819464
 30
0.0
 11
10937.92016918512
 21
4605.528715819464
 31
0.0
  0
LINE
  5
297AB
330
1F
100
AcDbEntity
  8
D-BMK
  6
CENTER2
100
AcDbLine
 10
10932.92016920626
 20
4678.529115510897
 30
0.0
 11
11012.9201688681
 21
4678.529115510897
 31
0.0
  0
LINE
  5
297AC
330
1F
100
AcDbEntity
  8
D-STR-DIM
  6
Continuous
100
AcDbLine
 10
10387.92029150998
 20
4995.528914170956
 30
0.0
 11
10287.92031193268
 21
4995.528914170956
 31
0.0
  0
LINE
  5
297AD
330
1F
100
AcDbEntity
  8
D-STR-DIM
  6
Continuous
100
AcDbLine
 10
10037.92027287834
 20
5065.528714248461
 30
0.0
 11
10037.92027287834
 21
5390.528512943481
 31
0.0
  0
CIRCLE
  5
297AE
330
1F
100
AcDbEntity
  8
D-STR
  6
Continuous
100
AcDbCircle
 10
10037.92027287834
 20
4995.528914437588
 30
0.0
 40
49.99999781087225
  0
LINE
  5
297AF
330
1F
100
AcDbEntity
  8
D-STR
  6
Continuous
100
AcDbLine
 10
10086.91013269304
 20
4985.529514475412
 30
0.0
 11
9988.930553063624
 21
4985.529514475412
 31
0.0
  0
LINE
  5
297B0
330
1F
100
AcDbEntity
  8
D-STR
  6
Continuous
100
AcDbLine
 10
10086.91013269304
 20
5005.528514399764
 30
0.0
 11
9988.930553063624
 21
5005.528514399764
 31
0.0
  0
LINE
  5
297B1
330
1F
100
AcDbEntity
  8
D-STR-DIM
  6
Continuous
100
AcDbLine
 10
10037.92027287834
 20
5360.528913056954
 30
0.0
 11
9787.920353823938
 21
5360.528913056954
 31
0.0
  0
CIRCLE
  5
297B2
330
1F
100
AcDbEntity
  8
D-STR-DIM
  6
Continuous
100
AcDbCircle
 10
10037.92027287834
 20
5360.528913056954
 30
0.0
 40
5.999997977304677
  0
TEXT
  5
297B3
330
1F
100
AcDbEntity
  8
D-STR-DIM
100
AcDbText
 10
10201.06031229982
 20
5011.528714103328
 30
0.0
 40
70.0
  1
200
100
AcDbText
  0
LINE
  5
297B4
330
1F
100
AcDbEntity
  8
D-STR-DIM
  6
Continuous
100
AcDbLine
 10
10187.92035235539
 20
4995.528914170956
 30
0.0
 11
10287.92031193268
 21
4995.528914170956
 31
0.0
  0
LINE
  5
297B5
330
1F
100
AcDbEntity
  8
D-STR-DIM
  6
Continuous
100
AcDbLine
 10
10187.92035235539
 20
4995.528914170956
 30
0.0
 11
10182.92033237651
 21
4995.528914170956
 31
0.0
  0
LINE
  5
297B6
330
1F
100
AcDbEntity
  8
D-STR-DIM
  6
Continuous
100
AcDbLine
 10
10177.92031239765
 20
4995.528914170956
 30
0.0
 11
10182.92033237651
 21
4995.528914170956
 31
0.0
  0
CIRCLE
  5
297B7
330
1F
100
AcDbEntity
  8
D-STR-DIM
  6
Continuous
100
AcDbCircle
 10
10177.92031239765
 20
4995.528914170956
 30
0.0
 40
5.999997974638371
  0
CIRCLE
  5
297B8
330
1F
100
AcDbEntity
  8
D-STR-DIM
  6
Continuous
100
AcDbCircle
 10
10187.92035235539
 20
4995.528914170956
 30
0.0
 40
5.999997974638371
  0
LINE
  5
297B9
330
1F
100
AcDbEntity
  8
D-BMK
  6
CENTER2
100
AcDbLine
 10
10077.92033282034
 20
5695.529311212098
 30
0.0
 11
9747.920294215223
 21
5695.529311212098
 31
0.0
  0
LINE
  5
297BA
330
1F
100
AcDbEntity
  8
D-STR-STR2
  6
Continuous
100
AcDbLine
 10
9787.920354046168
 20
5820.529110683732
 30
0.0
 11
9787.920354046168
 21
5570.529511740465
 31
0.0
  0
LINE
  5
297BB
330
1F
100
AcDbEntity
  8
D-STR-STR2
  6
Continuous
100
AcDbLine
 10
10037.9202729894
 20
5820.529110683732
 30
0.0
 11
10037.9202729894
 21
5570.529511740465
 31
0.0
  0
LINE
  5
297BC
330
1F
100
AcDbEntity
  8
D-STR-STR2
  6
Continuous
100
AcDbLine
 10
9777.92031408842
 20
5830.528710641464
 30
0.0
 11
9777.92031408842
 21
5560.528911782736
 31
0.0
  0
LINE
  5
297BD
330
1F
100
AcDbEntity
  8
D-STR-STR2
  6
Continuous
100
AcDbLine
 10
10047.92033294716
 20
5830.528710641464
 30
0.0
 11
10047.92033294716
 21
5560.528911782736
 31
0.0
  0
LINE
  5
297BE
330
1F
100
AcDbEntity
  8
D-STR-STR2
  6
Continuous
100
AcDbLine
 10
10037.9202729894
 20
5570.529511740465
 30
0.0
 11
9787.920354046168
 21
5570.529511740465
 31
0.0
  0
LINE
  5
297BF
330
1F
100
AcDbEntity
  8
D-STR-STR2
  6
Continuous
100
AcDbLine
 10
10047.92033294716
 20
5560.528911782736
 30
0.0
 11
9777.92031408842
 21
5560.528911782736
 31
0.0
  0
LINE
  5
297C0
330
1F
100
AcDbEntity
  8
D-STR-STR2
  6
Continuous
100
AcDbLine
 10
10037.9202729894
 20
5820.529110683732
 30
0.0
 11
9787.920354046168
 21
5820.529110683732
 31
0.0
  0
LINE
  5
297C1
330
1F
100
AcDbEntity
  8
D-STR-STR2
  6
Continuous
100
AcDbLine
 10
10047.92033294716
 20
5830.528710641464
 30
0.0
 11
9777.92031408842
 21
5830.528710641464
 31
0.0
  0
LINE
  5
297C2
330
1F
100
AcDbEntity
  8
D-STR-DIM
  6
Continuous
100
AcDbLine
 10
10797.92016977689
 20
5540.528911782736
 30
0.0
 11
10797.92016977689
 21
5330.529312754931
 31
0.0
  0
LINE
  5
297C3
330
1F
100
AcDbEntity
  8
D-STR-DIM
  6
Continuous
100
AcDbLine
 10
10787.92036981923
 20
5540.528911782736
 30
0.0
 11
10787.92036981923
 21
5330.529312754931
 31
0.0
  0
LINE
  5
297C4
330
1F
100
AcDbEntity
  8
D-STR-DIM
  6
Continuous
100
AcDbLine
 10
10527.92031091821
 20
5540.528911782736
 30
0.0
 11
10527.92031091821
 21
5330.529312754931
 31
0.0
  0
LINE
  5
297C5
330
1F
100
AcDbEntity
  8
D-STR-DIM
  6
Continuous
100
AcDbLine
 10
10537.92037087597
 20
5540.528911782736
 30
0.0
 11
10537.92037087597
 21
5330.529312754931
 31
0.0
  0
LINE
  5
297C6
330
1F
100
AcDbEntity
  8
D-STR-DIM
  6
Continuous
100
AcDbLine
 10
10787.92036981923
 20
5360.528912628124
 30
0.0
 11
10662.92017034753
 21
5360.528912628124
 31
0.0
  0
LINE
  5
297C7
330
1F
100
AcDbEntity
  8
D-STR-DIM
  6
Continuous
100
AcDbLine
 10
10397.92033146772
 20
4995.528914170956
 30
0.0
 11
10392.92031148885
 21
4995.528914170956
 31
0.0
  0
LINE
  5
297C8
330
1F
100
AcDbEntity
  8
D-STR-DIM
  6
Continuous
100
AcDbLine
 10
10387.92029150998
 20
4995.528914170956
 30
0.0
 11
10392.92031148885
 21
4995.528914170956
 31
0.0
  0
CIRCLE
  5
297C9
330
1F
100
AcDbEntity
  8
D-STR-DIM
  6
Continuous
100
AcDbCircle
 10
10397.92033146772
 20
4995.528914170956
 30
0.0
 40
5.999997974638371
  0
CIRCLE
  5
297CA
330
1F
100
AcDbEntity
  8
D-STR-DIM
  6
Continuous
100
AcDbCircle
 10
10387.92029150998
 20
4995.528914170956
 30
0.0
 40
5.999997974638371
  0
TEXT
  5
297CB
330
1F
100
AcDbEntity
  8
D-STR-DIM
100
AcDbText
 10
10478.06031112892
 20
5264.208913035265
 30
0.0
 40
70.0
  1
10
100
AcDbText
  0
LINE
  5
297CC
330
1F
100
AcDbEntity
  8
D-STR-DIM
  6
Continuous
100
AcDbLine
 10
10537.92037087597
 20
5360.528912628124
 30
0.0
 11
10662.92017034753
 21
5360.528912628124
 31
0.0
  0
LINE
  5
297CD
330
1F
100
AcDbEntity
  8
D-STR-DIM
  6
Continuous
100
AcDbLine
 10
10537.92037087597
 20
5360.528912628124
 30
0.0
 11
10532.92033089709
 21
5360.528912628124
 31
0.0
  0
LINE
  5
297CE
330
1F
100
AcDbEntity
  8
D-STR-DIM
  6
Continuous
100
AcDbLine
 10
10527.92031091821
 20
5360.528912628124
 30
0.0
 11
10532.92033089709
 21
5360.528912628124
 31
0.0
  0
CIRCLE
  5
297CF
330
1F
100
AcDbEntity
  8
D-STR-DIM
  6
Continuous
100
AcDbCircle
 10
10527.92031091821
 20
5360.528912628124
 30
0.0
 40
5.999997974638371
  0
CIRCLE
  5
297D0
330
1F
100
AcDbEntity
  8
D-STR-DIM
  6
Continuous
100
AcDbCircle
 10
10537.92037087597
 20
5360.528912628124
 30
0.0
 40
5.999997974638371
  0
TEXT
  5
297D1
330
1F
100
AcDbEntity
  8
D-STR-DIM
100
AcDbText
 10
10804.65816974846
 20
5011.528714103328
 30
0.0
 40
70.0
  1
10
100
AcDbText
  0
LINE
  5
297D2
330
1F
100
AcDbEntity
  8
D-STR-DIM
  6
Continuous
100
AcDbLine
 10
10932.92016920626
 20
4995.528914170956
 30
0.0
 11
10804.65776974847
 21
4995.528914170956
 31
0.0
  0
LINE
  5
297D3
330
1F
100
AcDbEntity
  8
D-STR-DIM
  6
Continuous
100
AcDbLine
 10
11037.92016876243
 20
4995.528914170956
 30
0.0
 11
10987.92016897378
 21
4995.528914170956
 31
0.0
  0
LINE
  5
297D4
330
1F
100
AcDbEntity
  8
D-STR-DIM
  6
Continuous
100
AcDbLine
 10
10937.92016918512
 20
4995.528914170956
 30
0.0
 11
10932.92016920626
 21
4995.528914170956
 31
0.0
  0
LINE
  5
297D5
330
1F
100
AcDbEntity
  8
D-STR-DIM
  6
Continuous
100
AcDbLine
 10
10927.92016922739
 20
4995.528914170956
 30
0.0
 11
10932.92016920626
 21
4995.528914170956
 31
0.0
  0
LINE
  5
297D6
330
1F
100
AcDbEntity
  8
D-STR-DIM
  6
Continuous
100
AcDbLine
 10
10937.92016918512
 20
4995.528914170956
 30
0.0
 11
10987.92016897378
 21
4995.528914170956
 31
0.0
  0
CIRCLE
  5
297D7
330
1F
100
AcDbEntity
  8
D-STR-DIM
  6
Continuous
100
AcDbCircle
 10
10927.92016922739
 20
4995.528914170956
 30
0.0
 40
5.999997974638371
  0
CIRCLE
  5
297D8
330
1F
100
AcDbEntity
  8
D-STR-DIM
  6
Continuous
100
AcDbCircle
 10
10937.92016918512
 20
4995.528914170956
 30
0.0
 40
5.999997974638371
  0
LINE
  5
297D9
330
1F
100
AcDbEntity
  8
D-STR-DIM
  6
Continuous
100
AcDbLine
 10
10787.92036981923
 20
5360.528912628124
 30
0.0
 11
10792.9203697981
 21
5360.528912628124
 31
0.0
  0
CIRCLE
  5
297DA
330
1F
100
AcDbEntity
  8
D-STR-DIM
  6
Continuous
100
AcDbCircle
 10
10787.92036981923
 20
5360.528912628124
 30
0.0
 40
5.999997974638371
  0
LINE
  5
297DB
330
1F
100
AcDbEntity
  8
D-STR-DIM
  6
Continuous
100
AcDbLine
 10
10797.92016977689
 20
5360.528912628124
 30
0.0
 11
10792.9203697981
 21
5360.528912628124
 31
0.0
  0
CIRCLE
  5
297DC
330
1F
100
AcDbEntity
  8
D-STR-DIM
  6
Continuous
100
AcDbCircle
 10
10797.92016977689
 20
5360.528912628124
 30
0.0
 40
5.999997974638371
  0
TEXT
  5
297DD
330
1F
100
AcDbEntity
  8
D-STR-DIM
100
AcDbText
 10
10738.06037002994
 20
5264.208913035265
 30
0.0
 40
70.0
  1
10
100
AcDbText
  0
LINE
  5
297DE
330
1F
100
AcDbEntity
  8
D-BMK
  6
CENTER2
100
AcDbLine
 10
10827.92016965009
 20
5695.529311212098
 30
0.0
 11
10497.92031104502
 21
5695.529311212098
 31
0.0
  0
LINE
  5
297DF
330
1F
100
AcDbEntity
  8
D-STR-STR2
  6
Continuous
100
AcDbLine
 10
10797.92016977689
 20
5830.528710641464
 30
0.0
 11
10527.92031091821
 21
5830.528710641464
 31
0.0
  0
LINE
  5
297E0
330
1F
100
AcDbEntity
  8
D-STR-STR2
  6
Continuous
100
AcDbLine
 10
10797.92016977689
 20
5560.528911782736
 30
0.0
 11
10527.92031091821
 21
5560.528911782736
 31
0.0
  0
LINE
  5
297E1
330
1F
100
AcDbEntity
  8
D-STR-STR2
  6
Continuous
100
AcDbLine
 10
10787.92036981923
 20
5570.529511740465
 30
0.0
 11
10537.92037087597
 21
5570.529511740465
 31
0.0
  0
LINE
  5
297E2
330
1F
100
AcDbEntity
  8
D-STR-STR2
  6
Continuous
100
AcDbLine
 10
10787.92036981923
 20
5820.529110683732
 30
0.0
 11
10537.92037087597
 21
5820.529110683732
 31
0.0
  0
TEXT
  5
297E3
330
1F
100
AcDbEntity
  8
D-STR-DIM
100
AcDbText
 10
10576.06031071472
 20
5376.528712560496
 30
0.0
 40
70.0
  1
250
100
AcDbText
  0
LINE
  5
297E4
330
1F
100
AcDbEntity
  8
D-STR-STR2
  6
Continuous
100
AcDbLine
 10
10527.92031091821
 20
5830.528710641464
 30
0.0
 11
10527.92031091821
 21
5560.528911782736
 31
0.0
  0
LINE
  5
297E5
330
1F
100
AcDbEntity
  8
D-STR-STR2
  6
Continuous
100
AcDbLine
 10
10537.92037087597
 20
5820.529110683732
 30
0.0
 11
10537.92037087597
 21
5570.529511740465
 31
0.0
  0
LINE
  5
297E6
330
1F
100
AcDbEntity
  8
D-STR-STR2
  6
Continuous
100
AcDbLine
 10
10797.92016977689
 20
5830.528710641464
 30
0.0
 11
10797.92016977689
 21
5560.528911782736
 31
0.0
  0
LINE
  5
297E7
330
1F
100
AcDbEntity
  8
D-STR-STR2
  6
Continuous
100
AcDbLine
 10
10787.92036981923
 20
5820.529110683732
 30
0.0
 11
10787.92036981923
 21
5570.529511740465
 31
0.0
  0
TEXT
  5
297E8
330
1F
100
AcDbEntity
  8
D-STR-DIM
100
AcDbText
 10
11334.24036750995
 20
5510.668911993492
 30
0.0
 40
70.0
  1
10
 50
90.0
100
AcDbText
  0
LINE
  5
297E9
330
1F
100
AcDbEntity
  8
D-STR-DIM
  6
Continuous
100
AcDbLine
 10
11237.92016791704
 20
5570.529511740465
 30
0.0
 11
11237.92016791704
 21
5695.529311212098
 31
0.0
  0
LINE
  5
297EA
330
1F
100
AcDbEntity
  8
D-STR-DIM
  6
Continuous
100
AcDbLine
 10
11237.92016791704
 20
5560.528911782736
 30
0.0
 11
11237.92016791704
 21
5565.529111761602
 31
0.0
  0
LINE
  5
297EB
330
1F
100
AcDbEntity
  8
D-STR-DIM
  6
Continuous
100
AcDbLine
 10
11237.92016791704
 20
5570.529511740465
 30
0.0
 11
11237.92016791704
 21
5565.529111761602
 31
0.0
  0
CIRCLE
  5
297EC
330
1F
100
AcDbEntity
  8
D-STR-DIM
  6
Continuous
100
AcDbCircle
 10
11237.92016791704
 20
5560.528911782736
 30
0.0
 40
5.999997974638371
  0
CIRCLE
  5
297ED
330
1F
100
AcDbEntity
  8
D-STR-DIM
  6
Continuous
100
AcDbCircle
 10
11237.92016791704
 20
5570.529511740465
 30
0.0
 40
5.999997974638371
  0
TEXT
  5
297EE
330
1F
100
AcDbEntity
  8
D-STR-DIM
100
AcDbText
 10
11221.92016798469
 20
5608.668711579253
 30
0.0
 40
70.0
  1
250
 50
90.0
100
AcDbText
  0
LINE
  5
297EF
330
1F
100
AcDbEntity
  8
D-STR-DIM
  6
Continuous
100
AcDbLine
 10
11237.92016791704
 20
5820.529110683732
 30
0.0
 11
11237.92016791704
 21
5825.529310662596
 31
0.0
  0
LINE
  5
297F0
330
1F
100
AcDbEntity
  8
D-STR-DIM
  6
Continuous
100
AcDbLine
 10
11237.92016791704
 20
5830.528710641464
 30
0.0
 11
11237.92016791704
 21
5825.529310662596
 31
0.0
  0
LINE
  5
297F1
330
1F
100
AcDbEntity
  8
D-STR-DIM
  6
Continuous
100
AcDbLine
 10
11237.92016791704
 20
5820.529110683732
 30
0.0
 11
11237.92016791704
 21
5695.529311212098
 31
0.0
  0
CIRCLE
  5
297F2
330
1F
100
AcDbEntity
  8
D-STR-DIM
  6
Continuous
100
AcDbCircle
 10
11237.92016791704
 20
5830.528710641464
 30
0.0
 40
5.999997974638371
  0
CIRCLE
  5
297F3
330
1F
100
AcDbEntity
  8
D-STR-DIM
  6
Continuous
100
AcDbCircle
 10
11237.92016791704
 20
5820.529110683732
 30
0.0
 40
5.999997974638371
  0
LINE
  5
297FB
330
1F
100
AcDbEntity
  8
D-TTL-FRAM
 48
20.0
100
AcDbLine
 10
16419.99993371339
 20
1599.999993589328
 30
0.0
 11
14419.99994172685
 21
1599.999993589328
 31
0.0
  0
LINE
  5
297FE
330
1F
100
AcDbEntity
  8
D-TTL-FRAM
 48
20.0
100
AcDbLine
 10
14419.99994172685
 20
1599.999993589328
 30
0.0
 11
14419.99994172685
 21
399.9999983974072
 31
0.0
  0
CIRCLE
  5
29833
330
1F
100
AcDbEntity
  8
D-STR-DIM
  6
Continuous
100
AcDbCircle
 10
11037.92016876243
 20
7395.529104026303
 30
0.0
 40
5.999997974638371
  0
CIRCLE
  5
29834
330
1F
100
AcDbEntity
  8
D-STR-DIM
  6
Continuous
100
AcDbCircle
 10
11037.92016876243
 20
7095.528705294384
 30
0.0
 40
5.999997974638371
  0
LINE
  5
29835
330
1F
100
AcDbEntity
  8
D-BMK
  6
CENTER2
100
AcDbLine
 10
11067.92016863562
 20
6195.528509098632
 30
0.0
 11
10923.91996924436
 21
6195.528509098632
 31
0.0
  0
LINE
  5
29836
330
1F
100
AcDbEntity
  8
D-STR-HTXT
  6
Continuous
100
AcDbLine
 10
11287.92016770569
 20
5945.528910155363
 30
0.0
 11
11037.92016876243
 21
6195.528509098631
 31
0.0
  0
LINE
  5
29837
330
1F
100
AcDbEntity
  8
D-STR-HTXT
  6
Continuous
100
AcDbLine
 10
11369.41106868716
 20
6895.528906139769
 30
0.0
 11
10612.73913055962
 21
6895.528906139769
 31
0.0
  0
LINE
  5
29838
330
1F
100
AcDbEntity
  8
D-STR-HTXT
  6
Continuous
100
AcDbLine
 10
11071.1917686218
 20
6172.231709197107
 30
0.0
 11
11037.92016876243
 21
6195.528509098631
 31
0.0
  0
TEXT
  5
29839
330
1F
100
AcDbEntity
  8
D-STR-HTXT
100
AcDbText
 10
10589.87905065622
 20
6911.528506072142
 30
0.0
 40
70.0
  1
　インサート　Ｍ16
100
AcDbText
  0
TEXT
  5
2983A
330
1F
100
AcDbEntity
  8
D-STR-HTXT
100
AcDbText
 10
10589.87905065622
 20
6815.528506477929
 30
0.0
 40
70.0
  1
　　（セラミック）
100
AcDbText
  0
LINE
  5
2983B
330
1F
100
AcDbEntity
  8
D-STR-DIM
  6
Continuous
100
AcDbLine
 10
9537.920315102885
 20
7095.528705294384
 30
0.0
 11
9725.420314310337
 21
7095.528705294384
 31
0.0
  0
LINE
  5
2983C
330
1F
100
AcDbEntity
  8
D-STR-DIM
  6
Continuous
100
AcDbLine
 10
9537.920315102885
 20
7395.529104026303
 30
0.0
 11
9912.920313517785
 21
7395.529104026303
 31
0.0
  0
TEXT
  5
2983D
330
1F
100
AcDbEntity
  8
D-STR-DIM
100
AcDbText
 10
9638.560314677475
 20
7111.528505226754
 30
0.0
 40
70.0
  1
375
100
AcDbText
  0
LINE
  5
2983E
330
1F
100
AcDbEntity
  8
D-STR
  6
Continuous
100
AcDbLine
 10
10177.92031239765
 20
6395.528508253244
 30
0.0
 11
9647.92033463793
 21
6395.528508253244
 31
0.0
  0
LINE
  5
2983F
330
1F
100
AcDbEntity
  8
D-STR
  6
Continuous
100
AcDbLine
 10
11037.92016876243
 20
6495.528907830546
 30
0.0
 11
9537.920315102885
 21
6495.528907830546
 31
0.0
  0
LINE
  5
29840
330
1F
100
AcDbEntity
  8
D-STR
  6
Continuous
100
AcDbLine
 10
11037.92016876243
 20
6695.528906985159
 30
0.0
 11
9537.920315102885
 21
6695.528906985159
 31
0.0
  0
LINE
  5
29841
330
1F
100
AcDbEntity
  8
D-STR-DIM
  6
Continuous
100
AcDbLine
 10
9537.920315102885
 20
6715.528906985159
 30
0.0
 11
9537.920315102885
 21
7425.528903899493
 31
0.0
  0
TEXT
  5
29842
330
1F
100
AcDbEntity
  8
D-STR-DIM
100
AcDbText
 10
9121.920336861244
 20
5858.669310522515
 30
0.0
 40
70.0
  1
500
 50
90.0
100
AcDbText
  0
TEXT
  5
29843
330
1F
100
AcDbEntity
  8
D-STR-DIM
100
AcDbText
 10
9121.920336861244
 20
6258.669108831742
 30
0.0
 40
70.0
  1
300
 50
90.0
100
AcDbText
  0
LINE
  5
29844
330
1F
100
AcDbEntity
  8
D-STR-DIM
  6
Continuous
100
AcDbLine
 10
9137.920356793678
 20
6195.528509098632
 30
0.0
 11
9137.920356793678
 21
6345.528708464589
 31
0.0
  0
LINE
  5
29845
330
1F
100
AcDbEntity
  8
D-STR-DIM
  6
Continuous
100
AcDbLine
 10
9477.920315102885
 20
6195.528509098632
 30
0.0
 11
9107.920336920477
 21
6195.528509098632
 31
0.0
  0
LINE
  5
29846
330
1F
100
AcDbEntity
  8
D-STR-DIM
  6
Continuous
100
AcDbLine
 10
9137.920356793678
 20
6195.528509098632
 30
0.0
 11
9137.920356793678
 21
5945.528910155363
 31
0.0
  0
CIRCLE
  5
29847
330
1F
100
AcDbEntity
  8
D-STR-DIM
  6
Continuous
100
AcDbCircle
 10
9137.920356793678
 20
6195.528509098632
 30
0.0
 40
5.999997974638371
  0
LINE
  5
29848
330
1F
100
AcDbEntity
  8
D-STR-STR2
  6
Continuous
100
AcDbLine
 10
9621.920554747775
 20
6145.528909309977
 30
0.0
 11
9537.920315102885
 21
6145.528909309977
 31
0.0
  0
LINE
  5
29849
330
1F
100
AcDbEntity
  8
D-STR-STR2
  6
Continuous
100
AcDbLine
 10
9537.920315102885
 20
6245.529308887281
 30
0.0
 11
9621.920554747775
 21
6245.529308887281
 31
0.0
  0
LINE
  5
2984A
330
1F
100
AcDbEntity
  8
D-BMK
  6
CENTER2
100
AcDbLine
 10
9507.920375229714
 20
6195.528509098632
 30
0.0
 11
9651.920554620964
 21
6195.528509098632
 31
0.0
  0
LINE
  5
2984B
330
1F
100
AcDbEntity
  8
D-STR-STR2
  6
Continuous
100
AcDbLine
 10
9621.920554747775
 20
6245.529308887281
 30
0.0
 11
9621.920554747775
 21
6145.528909309977
 31
0.0
  0
LINE
  5
2984C
330
1F
100
AcDbEntity
  8
D-STR-DIM
  6
Continuous
100
AcDbLine
 10
9517.920315102886
 20
6495.528907830546
 30
0.0
 11
9107.920336920477
 21
6495.528907830546
 31
0.0
  0
CIRCLE
  5
2984D
330
1F
100
AcDbEntity
  8
D-STR-DIM
  6
Continuous
100
AcDbCircle
 10
9137.920356793678
 20
6495.528907830546
 30
0.0
 40
5.999997974638371
  0
LINE
  5
2984E
330
1F
100
AcDbEntity
  8
D-STR-DIM
  6
Continuous
100
AcDbLine
 10
9137.920356793678
 20
6495.528907830546
 30
0.0
 11
9137.920356793678
 21
6345.528708464589
 31
0.0
  0
LINE
  5
2984F
330
1F
100
AcDbEntity
  8
D-STR
  6
Continuous
100
AcDbLine
 10
9537.920315102885
 20
6485.52850787282
 30
0.0
 11
9637.920354680209
 21
6485.52850787282
 31
0.0
  0
LINE
  5
29850
330
1F
100
AcDbEntity
  8
D-STR
  6
Continuous
100
AcDbLine
 10
9537.920315102885
 20
6495.528907830546
 30
0.0
 11
9647.92033463793
 21
6495.528907830546
 31
0.0
  0
LINE
  5
29851
330
1F
100
AcDbEntity
  8
D-BMK
  6
CENTER2
100
AcDbLine
 10
9602.920314828139
 20
6459.529307982717
 30
0.0
 11
9602.920314828139
 21
6379.528908320873
 31
0.0
  0
LINE
  5
29852
330
1F
100
AcDbEntity
  8
D-BMK
  6
CENTER2
100
AcDbLine
 10
9562.920314997212
 20
6419.529108151796
 30
0.0
 11
9642.920314659059
 21
6419.529108151796
 31
0.0
  0
CIRCLE
  5
29853
330
1F
100
AcDbEntity
  8
D-STR-STR2
  6
Continuous
100
AcDbCircle
 10
9602.920314828139
 20
6419.529108151796
 30
0.0
 40
9.999997957730611
  0
LINE
  5
29854
330
1F
100
AcDbEntity
  8
D-STR
  6
Continuous
100
AcDbLine
 10
9647.92033463793
 20
6495.528907830546
 30
0.0
 11
9637.920974680193
 21
6485.52850787282
 31
0.0
  0
CIRCLE
  5
29855
330
1F
100
AcDbEntity
  8
D-STR-DIM
  6
Continuous
100
AcDbCircle
 10
9537.920315102885
 20
7095.528705294384
 30
0.0
 40
5.999997974638371
  0
CIRCLE
  5
29856
330
1F
100
AcDbEntity
  8
D-STR-DIM
  6
Continuous
100
AcDbCircle
 10
9537.920315102885
 20
7395.529104026303
 30
0.0
 40
5.999997974638371
  0
LINE
  5
29857
330
1F
100
AcDbEntity
  8
D-STR-DIM
  6
Continuous
100
AcDbLine
 10
11037.92016876243
 20
6769.529106672369
 30
0.0
 11
11037.92016876243
 21
6725.528506858353
 31
0.0
  0
LINE
  5
29858
330
1F
100
AcDbEntity
  8
D-STR-DIM
  6
Continuous
100
AcDbLine
 10
10662.92017034753
 20
6769.529106672369
 30
0.0
 11
10662.92017034753
 21
6725.528506858353
 31
0.0
  0
LINE
  5
29859
330
1F
100
AcDbEntity
  8
D-STR-DIM
  6
Continuous
100
AcDbLine
 10
10287.92031193268
 20
7065.529105421193
 30
0.0
 11
10287.92031193268
 21
6725.528506858353
 31
0.0
  0
LINE
  5
2985A
330
1F
100
AcDbEntity
  8
D-STR-DIM
  6
Continuous
100
AcDbLine
 10
9912.920313517785
 20
6725.528506858353
 30
0.0
 11
9912.920313517785
 21
7125.528505167578
 31
0.0
  0
LINE
  5
2985B
330
1F
100
AcDbEntity
  8
D-STR-HTXT
  6
Continuous
100
AcDbLine
 10
10342.92033170013
 20
6428.189908115185
 30
0.0
 11
10612.73913055962
 21
6895.528906139769
 31
0.0
  0
LINE
  5
2985C
330
1F
100
AcDbEntity
  8
D-STR-HTXT
  6
Continuous
100
AcDbLine
 10
10244.1068921178
 20
6427.385108118588
 30
0.0
 11
10612.73913055962
 21
6895.528906139769
 31
0.0
  0
LINE
  5
2985D
330
1F
100
AcDbEntity
  8
D-STR
  6
Continuous
100
AcDbLine
 10
10397.92033146772
 20
6495.528907830546
 30
0.0
 11
10177.92031239765
 21
6495.528907830546
 31
0.0
  0
LINE
  5
2985E
330
1F
100
AcDbEntity
  8
D-STR
  6
Continuous
100
AcDbLine
 10
10387.92029150998
 20
6485.52850787282
 30
0.0
 11
10187.92035235539
 21
6485.52850787282
 31
0.0
  0
LINE
  5
2985F
330
1F
100
AcDbEntity
  8
D-STR-STR2
  6
Continuous
100
AcDbLine
 10
10037.9202729894
 20
6320.528508570265
 30
0.0
 11
10037.9202729894
 21
6070.528709626998
 31
0.0
  0
LINE
  5
29860
330
1F
100
AcDbEntity
  8
D-STR-STR2
  6
Continuous
100
AcDbLine
 10
10047.92033294716
 20
6330.528908527992
 30
0.0
 11
10047.92033294716
 21
6060.529109669268
 31
0.0
  0
LINE
  5
29861
330
1F
100
AcDbEntity
  8
D-BMK
  6
CENTER2
100
AcDbLine
 10
9912.920313517785
 20
6360.528708401186
 30
0.0
 11
9912.920313517785
 21
6030.528509796077
 31
0.0
  0
LINE
  5
29862
330
1F
100
AcDbEntity
  8
D-STR-STR2
  6
Continuous
100
AcDbLine
 10
9787.920354046168
 20
6320.528508570265
 30
0.0
 11
9787.920354046168
 21
6070.528709626998
 31
0.0
  0
LINE
  5
29863
330
1F
100
AcDbEntity
  8
D-STR-STR2
  6
Continuous
100
AcDbLine
 10
9777.92031408842
 20
6330.528908527992
 30
0.0
 11
9777.92031408842
 21
6060.529109669268
 31
0.0
  0
LINE
  5
29864
330
1F
100
AcDbEntity
  8
D-BMK
  6
CENTER2
100
AcDbLine
 10
10077.92033282034
 20
6195.528509098632
 30
0.0
 11
9747.920294215223
 21
6195.528509098632
 31
0.0
  0
LINE
  5
29865
330
1F
100
AcDbEntity
  8
D-STR-STR2
  6
Continuous
100
AcDbLine
 10
10037.9202729894
 20
6070.528709626998
 30
0.0
 11
9787.920354046168
 21
6070.528709626998
 31
0.0
  0
LINE
  5
29866
330
1F
100
AcDbEntity
  8
D-STR-STR2
  6
Continuous
100
AcDbLine
 10
10047.92033294716
 20
6060.529109669268
 30
0.0
 11
9777.92031408842
 21
6060.529109669268
 31
0.0
  0
LINE
  5
29867
330
1F
100
AcDbEntity
  8
D-STR-STR2
  6
Continuous
100
AcDbLine
 10
10037.9202729894
 20
6320.528508570265
 30
0.0
 11
9787.920354046168
 21
6320.528508570265
 31
0.0
  0
LINE
  5
29868
330
1F
100
AcDbEntity
  8
D-STR-STR2
  6
Continuous
100
AcDbLine
 10
10047.92033294716
 20
6330.528908527992
 30
0.0
 11
9777.92031408842
 21
6330.528908527992
 31
0.0
  0
LINE
  5
29869
330
1F
100
AcDbEntity
  8
D-BMK
  6
CENTER2
100
AcDbLine
 10
10277.92027197494
 20
6419.529108151796
 30
0.0
 11
10197.92027231309
 21
6419.529108151796
 31
0.0
  0
LINE
  5
2986A
330
1F
100
AcDbEntity
  8
D-STR
  6
Continuous
100
AcDbLine
 10
10177.92093239763
 20
6495.528907830546
 30
0.0
 11
10187.92097235538
 21
6485.52850787282
 31
0.0
  0
LINE
  5
2986B
330
1F
100
AcDbEntity
  8
D-BMK
  6
CENTER2
100
AcDbLine
 10
10337.92031172133
 20
6459.529307982717
 30
0.0
 11
10337.92031172133
 21
6379.528908320873
 31
0.0
  0
CIRCLE
  5
2986C
330
1F
100
AcDbEntity
  8
D-STR-STR2
  6
Continuous
100
AcDbCircle
 10
10337.92031172133
 20
6419.529108151796
 30
0.0
 40
9.999997957730611
  0
LINE
  5
2986D
330
1F
100
AcDbEntity
  8
D-BMK
  6
CENTER2
100
AcDbLine
 10
10237.92033214403
 20
6459.529307982717
 30
0.0
 11
10237.92033214403
 21
6379.528908320873
 31
0.0
  0
CIRCLE
  5
2986E
330
1F
100
AcDbEntity
  8
D-STR-STR2
  6
Continuous
100
AcDbCircle
 10
10237.92033214403
 20
6419.529108151796
 30
0.0
 40
9.999997957730611
  0
LINE
  5
2986F
330
1F
100
AcDbEntity
  8
D-BMK
  6
CENTER2
100
AcDbLine
 10
10377.92037155228
 20
6419.529108151796
 30
0.0
 11
10297.92037189043
 21
6419.529108151796
 31
0.0
  0
LINE
  5
29870
330
1F
100
AcDbEntity
  8
D-STR-HTXT
  6
Continuous
100
AcDbLine
 10
10356.8121516414
 20
6466.356707953856
 30
0.0
 11
10342.92033170013
 21
6428.188908115187
 31
0.0
  0
LINE
  5
29871
330
1F
100
AcDbEntity
  8
D-STR-HTXT
  6
Continuous
100
AcDbLine
 10
10263.31175203665
 20
6463.175907967301
 30
0.0
 11
10244.1068921178
 21
6427.385108118588
 31
0.0
  0
LINE
  5
29872
330
1F
100
AcDbEntity
  8
D-STR-STR2
  6
Continuous
100
AcDbLine
 10
10797.92016977689
 20
6330.528908527992
 30
0.0
 11
10797.92016977689
 21
6060.529109669268
 31
0.0
  0
LINE
  5
29873
330
1F
100
AcDbEntity
  8
D-BMK
  6
CENTER2
100
AcDbLine
 10
10662.92017034753
 20
6360.528708401186
 30
0.0
 11
10662.92017034753
 21
6030.528509796077
 31
0.0
  0
LINE
  5
29874
330
1F
100
AcDbEntity
  8
D-STR-STR2
  6
Continuous
100
AcDbLine
 10
10787.92036981923
 20
6320.528508570265
 30
0.0
 11
10787.92036981923
 21
6070.528709626998
 31
0.0
  0
LINE
  5
29875
330
1F
100
AcDbEntity
  8
D-STR-STR2
  6
Continuous
100
AcDbLine
 10
10527.92031091821
 20
6330.528908527992
 30
0.0
 11
10527.92031091821
 21
6060.529109669268
 31
0.0
  0
LINE
  5
29876
330
1F
100
AcDbEntity
  8
D-STR-STR2
  6
Continuous
100
AcDbLine
 10
10537.92037087597
 20
6320.528508570265
 30
0.0
 11
10537.92037087597
 21
6070.528709626998
 31
0.0
  0
LINE
  5
29877
330
1F
100
AcDbEntity
  8
D-BMK
  6
CENTER2
100
AcDbLine
 10
10827.92016965009
 20
6195.528509098632
 30
0.0
 11
10497.92031104502
 21
6195.528509098632
 31
0.0
  0
LINE
  5
29878
330
1F
100
AcDbEntity
  8
D-STR-STR2
  6
Continuous
100
AcDbLine
 10
10797.92016977689
 20
6060.529109669268
 30
0.0
 11
10527.92031091821
 21
6060.529109669268
 31
0.0
  0
LINE
  5
29879
330
1F
100
AcDbEntity
  8
D-STR-STR2
  6
Continuous
100
AcDbLine
 10
10787.92036981923
 20
6070.528709626998
 30
0.0
 11
10537.92037087597
 21
6070.528709626998
 31
0.0
  0
LINE
  5
2987A
330
1F
100
AcDbEntity
  8
D-STR-STR2
  6
Continuous
100
AcDbLine
 10
10953.91996911756
 20
6245.529308887281
 30
0.0
 11
10953.91996911756
 21
6145.528909309977
 31
0.0
  0
LINE
  5
2987B
330
1F
100
AcDbEntity
  8
D-STR-STR2
  6
Continuous
100
AcDbLine
 10
11037.92016876243
 20
6245.529308887281
 30
0.0
 11
10953.91996911756
 21
6245.529308887281
 31
0.0
  0
LINE
  5
2987C
330
1F
100
AcDbEntity
  8
D-STR-STR2
  6
Continuous
100
AcDbLine
 10
10953.91996911756
 20
6145.528909309977
 30
0.0
 11
11037.92016876243
 21
6145.528909309977
 31
0.0
  0
LINE
  5
2987D
330
1F
100
AcDbEntity
  8
D-STR
  6
Continuous
100
AcDbLine
 10
10927.92016922739
 20
6395.528508253244
 30
0.0
 11
10397.92033146772
 21
6395.528508253244
 31
0.0
  0
LINE
  5
2987E
330
1F
100
AcDbEntity
  8
D-STR-STR2
  6
Continuous
100
AcDbLine
 10
10797.92016977689
 20
6330.528908527992
 30
0.0
 11
10527.92031091821
 21
6330.528908527992
 31
0.0
  0
LINE
  5
2987F
330
1F
100
AcDbEntity
  8
D-STR-STR2
  6
Continuous
100
AcDbLine
 10
10787.92036981923
 20
6320.528508570265
 30
0.0
 11
10537.92037087597
 21
6320.528508570265
 31
0.0
  0
LINE
  5
29880
330
1F
100
AcDbEntity
  8
D-STR
  6
Continuous
100
AcDbLine
 10
10397.92033146772
 20
6495.527907830551
 30
0.0
 11
10387.92029150998
 21
6485.52850787282
 31
0.0
  0
LINE
  5
29881
330
1F
100
AcDbEntity
  8
D-BMK
  6
CENTER2
100
AcDbLine
 10
10972.92016903718
 20
6459.529307982717
 30
0.0
 11
10972.92016903718
 21
6379.528908320873
 31
0.0
  0
CIRCLE
  5
29882
330
1F
100
AcDbEntity
  8
D-STR-STR2
  6
Continuous
100
AcDbCircle
 10
10972.92016903718
 20
6419.529108151796
 30
0.0
 40
9.999997957730611
  0
LINE
  5
29883
330
1F
100
AcDbEntity
  8
D-STR
  6
Continuous
100
AcDbLine
 10
10927.92076922745
 20
6495.527907830551
 30
0.0
 11
10937.92016918512
 21
6485.52850787282
 31
0.0
  0
LINE
  5
29884
330
1F
100
AcDbEntity
  8
D-STR
  6
Continuous
100
AcDbLine
 10
11037.92016876243
 20
6485.52850787282
 30
0.0
 11
10937.92016918512
 21
6485.52850787282
 31
0.0
  0
LINE
  5
29885
330
1F
100
AcDbEntity
  8
D-STR
  6
Continuous
100
AcDbLine
 10
11037.92016876243
 20
6495.528907830546
 30
0.0
 11
10927.92016922739
 21
6495.528907830546
 31
0.0
  0
LINE
  5
29886
330
1F
100
AcDbEntity
  8
D-BMK
  6
CENTER2
100
AcDbLine
 10
10932.92016920626
 20
6419.529108151796
 30
0.0
 11
11012.9201688681
 21
6419.529108151796
 31
0.0
  0
LINE
  5
29887
330
1F
100
AcDbEntity
  8
D-STR-DIM
  6
Continuous
100
AcDbLine
 10
10662.92017034753
 20
7095.528705294384
 30
0.0
 11
10287.92031193268
 21
7095.528705294384
 31
0.0
  0
LINE
  5
29888
330
1F
100
AcDbEntity
  8
D-STR-DIM
  6
Continuous
100
AcDbLine
 10
10287.92031193268
 20
7395.529104026303
 30
0.0
 11
10662.92017034753
 21
7395.529104026303
 31
0.0
  0
LINE
  5
29889
330
1F
100
AcDbEntity
  8
D-STR-DIM
  6
Continuous
100
AcDbLine
 10
10287.92031193268
 20
7202.24970492782
 30
0.0
 11
10287.92031193268
 21
7425.528903899493
 31
0.0
  0
LINE
  5
2988A
330
1F
100
AcDbEntity
  8
D-STR-DIM
  6
Continuous
100
AcDbLine
 10
9912.920313517785
 20
7095.528705294384
 30
0.0
 11
10287.92031193268
 21
7095.528705294384
 31
0.0
  0
LINE
  5
2988B
330
1F
100
AcDbEntity
  8
D-STR-DIM
  6
Continuous
100
AcDbLine
 10
9912.920313517785
 20
7095.528705294384
 30
0.0
 11
9725.420314310337
 21
7095.528705294384
 31
0.0
  0
CIRCLE
  5
2988C
330
1F
100
AcDbEntity
  8
D-STR-DIM
  6
Continuous
100
AcDbCircle
 10
9912.920313517785
 20
7095.528705294384
 30
0.0
 40
5.999997974638371
  0
TEXT
  5
2988D
330
1F
100
AcDbEntity
  8
D-STR-DIM
100
AcDbText
 10
10201.06031229982
 20
7111.528505226754
 30
0.0
 40
70.0
  1
750
100
AcDbText
  0
LINE
  5
2988E
330
1F
100
AcDbEntity
  8
D-STR-DIM
  6
Continuous
100
AcDbLine
 10
10287.92031193268
 20
7395.529104026303
 30
0.0
 11
9912.920313517785
 21
7395.529104026303
 31
0.0
  0
TEXT
  5
2988F
330
1F
100
AcDbEntity
  8
D-STR-DIM
100
AcDbText
 10
9826.060313884923
 20
7411.528903958672
 30
0.0
 40
70.0
  1
750
100
AcDbText
  0
CIRCLE
  5
29890
330
1F
100
AcDbEntity
  8
D-STR-DIM
  6
Continuous
100
AcDbCircle
 10
10287.92031193268
 20
7395.529104026303
 30
0.0
 40
5.999997974638371
  0
LINE
  5
29891
330
1F
100
AcDbEntity
  8
D-STR-DIM
  6
Continuous
100
AcDbLine
 10
11037.92016876243
 20
7031.528905733987
 30
0.0
 11
11037.92016876243
 21
7425.528903899493
 31
0.0
  0
LINE
  5
29892
330
1F
100
AcDbEntity
  8
D-STR-DIM
  6
Continuous
100
AcDbLine
 10
10662.92017034753
 20
7095.528705294384
 30
0.0
 11
10850.42016955498
 21
7095.528705294384
 31
0.0
  0
LINE
  5
29893
330
1F
100
AcDbEntity
  8
D-STR-DIM
  6
Continuous
100
AcDbLine
 10
10662.92017034753
 20
6991.528905733986
 30
0.0
 11
10662.92017034753
 21
7125.528505167578
 31
0.0
  0
CIRCLE
  5
29894
330
1F
100
AcDbEntity
  8
D-STR-DIM
  6
Continuous
100
AcDbCircle
 10
10662.92017034753
 20
7095.528705294384
 30
0.0
 40
5.999997974638371
  0
TEXT
  5
29895
330
1F
100
AcDbEntity
  8
D-STR-DIM
100
AcDbText
 10
10763.56016992219
 20
7111.528505226754
 30
0.0
 40
70.0
  1
375
100
AcDbText
  0
LINE
  5
29896
330
1F
100
AcDbEntity
  8
D-STR-DIM
  6
Continuous
100
AcDbLine
 10
11037.92016876243
 20
7095.528705294384
 30
0.0
 11
10850.42016955498
 21
7095.528705294384
 31
0.0
  0
LINE
  5
29897
330
1F
100
AcDbEntity
  8
D-STR-DIM
  6
Continuous
100
AcDbLine
 10
11037.92016876243
 20
7011.528905733986
 30
0.0
 11
11037.92016876243
 21
7125.528505167578
 31
0.0
  0
LINE
  5
29898
330
1F
100
AcDbEntity
  8
D-STR-DIM
  6
Continuous
100
AcDbLine
 10
11037.92016876243
 20
7395.529104026303
 30
0.0
 11
10662.92017034753
 21
7395.529104026303
 31
0.0
  0
TEXT
  5
29899
330
1F
100
AcDbEntity
  8
D-STR-DIM
100
AcDbText
 10
10576.06031071472
 20
7411.528903958672
 30
0.0
 40
70.0
  1
750
100
AcDbText
  0
TEXT
  5
2989A
330
1F
100
AcDbEntity
  8
D-TTL-TXT
100
AcDbText
 10
9774.458401367439
 20
7729.863459919856
 30
0.0
 40
140.0
  1
側壁（民地側）
100
AcDbText
  0
LINE
  5
2989B
330
1F
100
AcDbEntity
  8
D-STR-DIM
  6
Continuous
100
AcDbLine
 10
11437.92016707166
 20
6195.528509098632
 30
0.0
 11
11437.92016707166
 21
6345.528708464589
 31
0.0
  0
TEXT
  5
2989C
330
1F
100
AcDbEntity
  8
D-STR-DIM
100
AcDbText
 10
11421.9201671393
 20
6258.669108831742
 30
0.0
 40
70.0
  1
300
 50
90.0
100
AcDbText
  0
LINE
  5
2989D
330
1F
100
AcDbEntity
  8
D-STR-DIM
  6
Continuous
100
AcDbLine
 10
11097.92016876243
 20
6195.528509098632
 30
0.0
 11
11467.92016694484
 21
6195.528509098632
 31
0.0
  0
LINE
  5
2989E
330
1F
100
AcDbEntity
  8
D-STR-HTXT
  6
Continuous
100
AcDbLine
 10
11287.92016770569
 20
5945.528910155363
 30
0.0
 11
11689.24788960391
 21
5945.528910155363
 31
0.0
  0
TEXT
  5
2989F
330
1F
100
AcDbEntity
  8
D-STR-HTXT
100
AcDbText
 10
11265.06016780232
 20
5961.528510087731
 30
0.0
 40
70.0
  1
　連結金具
100
AcDbText
  0
CIRCLE
  5
298A0
330
1F
100
AcDbEntity
  8
D-STR-DIM
  6
Continuous
100
AcDbCircle
 10
11437.92016707166
 20
6195.528509098632
 30
0.0
 40
5.999997974638371
  0
LINE
  5
298A1
330
1F
100
AcDbEntity
  8
D-STR-DIM
  6
Continuous
100
AcDbLine
 10
11057.92016876243
 20
6495.528907830546
 30
0.0
 11
11467.92016694484
 21
6495.528907830546
 31
0.0
  0
CIRCLE
  5
298A2
330
1F
100
AcDbEntity
  8
D-STR-DIM
  6
Continuous
100
AcDbCircle
 10
11437.92016707166
 20
6495.528907830546
 30
0.0
 40
5.999997974638371
  0
LINE
  5
298A3
330
1F
100
AcDbEntity
  8
D-STR-DIM
  6
Continuous
100
AcDbLine
 10
11437.92016707166
 20
6495.528907830546
 30
0.0
 11
11437.92016707166
 21
6345.528708464589
 31
0.0
  0
LINE
  5
298CF
330
1F
100
AcDbEntity
  8
D-TTL-TXT
  6
Continuous
100
AcDbLine
 10
15679.99993667822
 20
11319.9999546438
 30
0.0
 11
16419.99993371327
 21
11319.9999546438
 31
0.0
  0
LINE
  5
298D0
330
1F
100
AcDbEntity
  8
D-TTL-TXT
  6
Continuous
100
AcDbLine
 10
15679.99993667822
 20
11479.99995400271
 30
0.0
 11
16419.99993371327
 21
11479.99995400271
 31
0.0
  0
TEXT
  5
298D1
330
1F
100
AcDbEntity
  8
D-TTL-TXT
  6
Continuous
100
AcDbText
 10
16012.30032772787
 20
11361.78187022015
 30
0.0
 40
69.9999997195286
  1
A4A17
 72
     4
 11
16168.96699376681
 21
11396.78187007991
 31
0.0
100
AcDbText
  0
TEXT
  5
298D8
330
1F
100
AcDbEntity
  8
D-TTL-TXT
  6
Continuous
100
AcDbText
 10
15731.42849647237
 20
11359.99995448351
 30
0.0
 40
69.9999997195286
  1
図番
100
AcDbText
  0
LINE
  5
298D9
330
1F
100
AcDbEntity
  8
D-TTL-TXT
  6
Continuous
100
AcDbLine
 10
15679.99993667822
 20
11479.99995400271
 30
0.0
 11
15679.99993667822
 21
11319.9999546438
 31
0.0
  0
LINE
  5
298DA
330
1F
100
AcDbEntity
  8
D-TTL-TXT
  6
Continuous
100
AcDbLine
 10
15919.99993571663
 20
11479.99995400271
 30
0.0
 11
15919.99993571663
 21
11319.9999546438
 31
0.0
  0
LINE
  5
298DB
330
1F
100
AcDbEntity
  8
D-TTL-TXT
  6
Continuous
100
AcDbLine
 10
16419.99993371327
 20
11479.99995400271
 30
0.0
 11
16419.99993371327
 21
11319.9999546438
 31
0.0
  0
LINE
  5
298DC
330
1F
100
AcDbEntity
  8
D-DCR-HCH
  6
Continuous
100
AcDbLine
 10
7074.34716551625
 20
6495.528907830546
 30
0.0
 11
7122.920445310988
 21
6544.102173584282
 31
0.0
  0
TEXT
  5
29957
330
1F
100
AcDbEntity
  8
D-MTR-TXT
100
AcDbText
 10
12923.7751762457
 20
8971.196834472165
 30
0.0
 40
69.99999999999999
  1
許　容　土　被　り
100
AcDbText
  0
TEXT
  5
29958
330
1F
100
AcDbEntity
  8
D-MTR-TXT
100
AcDbText
 10
13018.40190774923
 20
8195.19695207215
 30
0.0
 40
69.99999999999999
  1
土　圧　係　数
100
AcDbText
  0
TEXT
  5
29959
330
1F
100
AcDbEntity
  8
D-MTR-TXT
100
AcDbText
 10
12988.24329639769
 20
8583.196893272157
 30
0.0
 40
69.99999999999999
  1
地　下　水　位
100
AcDbText
  0
TEXT
  5
2995A
330
1F
100
AcDbEntity
  8
D-MTR-TXT
100
AcDbText
 10
13072.10586114221
 20
8712.529927005526
 30
0.0
 40
69.99999999999999
  1
　（幅
100
AcDbText
  0
TEXT
  5
2995B
330
1F
100
AcDbEntity
  8
D-MTR-TXT
100
AcDbText
 10
12993.10931434376
 20
7807.197277160556
 30
0.0
 40
70.0
  1
製　品　質　量
100
AcDbText
  0
TEXT
  5
2995C
330
1F
100
AcDbEntity
  8
D-MTR-TXT
100
AcDbText
 10
13139.26483411336
 20
8841.862680738934
 30
0.0
 40
69.99999999999999
  1
　（工場製品）
100
AcDbText
  0
LINE
  5
2995D
330
1F
100
AcDbEntity
  8
D-MTR-FRAM
  6
Continuous
100
AcDbLine
 10
12660.33805648022
 20
7157.997231597161
 30
0.0
 11
15368.33742368028
 21
7157.997231597161
 31
0.0
  0
LINE
  5
2995E
330
1F
100
AcDbEntity
  8
D-MTR-FRAM
  6
Continuous
100
AcDbLine
 10
12660.33805648022
 20
7287.33005070563
 30
0.0
 11
15368.33742368028
 21
7287.33005070563
 31
0.0
  0
LINE
  5
2995F
330
1F
100
AcDbEntity
  8
D-MTR-FRAM
  6
Continuous
100
AcDbLine
 10
12660.33805648022
 20
9339.32955432558
 30
0.0
 11
15368.33742368028
 21
9339.32955432558
 31
0.0
  0
LINE
  5
29960
330
1F
100
AcDbEntity
  8
D-MTR-FRAM
  6
Continuous
100
AcDbLine
 10
12660.33805648022
 20
9080.663766858805
 30
0.0
 11
15368.33742368028
 21
9080.663766858805
 31
0.0
  0
LINE
  5
29961
330
1F
100
AcDbEntity
  8
D-MTR-FRAM
  6
Continuous
100
AcDbLine
 10
12660.33805648022
 20
8951.329613125578
 30
0.0
 11
15368.33742368028
 21
8951.329613125578
 31
0.0
  0
LINE
  5
29962
330
1F
100
AcDbEntity
  8
D-MTR-FRAM
  6
Continuous
100
AcDbLine
 10
12660.33805648022
 20
8821.996579392205
 30
0.0
 11
15368.33742368028
 21
8821.996579392205
 31
0.0
  0
LINE
  5
29963
330
1F
100
AcDbEntity
  8
D-MTR-FRAM
  6
Continuous
100
AcDbLine
 10
12660.33805648022
 20
8692.662425658923
 30
0.0
 11
15368.33742368028
 21
8692.662425658923
 31
0.0
  0
LINE
  5
29964
330
1F
100
AcDbEntity
  8
D-MTR-FRAM
  6
Continuous
100
AcDbLine
 10
12660.33805648022
 20
8563.32967192557
 30
0.0
 11
15368.33742368028
 21
8563.32967192557
 31
0.0
  0
LINE
  5
29965
330
1F
100
AcDbEntity
  8
D-MTR-FRAM
  6
Continuous
100
AcDbLine
 10
12660.33805648022
 20
8304.662484458917
 30
0.0
 11
15368.33742368028
 21
8304.662484458917
 31
0.0
  0
LINE
  5
29966
330
1F
100
AcDbEntity
  8
D-MTR-FRAM
  6
Continuous
100
AcDbLine
 10
12660.33805648022
 20
8175.329730725563
 30
0.0
 11
15368.33742368028
 21
8175.329730725563
 31
0.0
  0
LINE
  5
29967
330
1F
100
AcDbEntity
  8
D-MTR-FRAM
  6
Continuous
100
AcDbLine
 10
12660.33805648022
 20
7916.662823258876
 30
0.0
 11
15368.33742368028
 21
7916.662823258876
 31
0.0
  0
LINE
  5
29968
330
1F
100
AcDbEntity
  8
D-MTR-FRAM
  6
Continuous
100
AcDbLine
 10
12660.33805648022
 20
7787.330050705627
 30
0.0
 11
15368.33742368028
 21
7787.330050705627
 31
0.0
  0
LINE
  5
29969
330
1F
100
AcDbEntity
  8
D-MTR-FRAM
  6
Continuous
100
AcDbLine
 10
12660.33805648022
 20
6640.665595163294
 30
0.0
 11
15368.33742368028
 21
6640.665595163294
 31
0.0
  0
TEXT
  5
2996A
330
1F
100
AcDbEntity
  8
D-MTR-TXT
100
AcDbText
 10
12740.33405616182
 20
6657.865594895837
 30
0.0
 40
70.0
  1
引込金具用インサート　Ｍ20（Ｙ－Ｄ32×150）
100
AcDbText
  0
LINE
  5
2996B
330
1F
100
AcDbEntity
  8
D-MTR-FRAM
  6
Continuous
100
AcDbLine
 10
12660.33805648022
 20
6769.997854271768
 30
0.0
 11
15368.33742368028
 21
6769.997854271768
 31
0.0
  0
LINE
  5
2996C
330
1F
100
AcDbEntity
  8
D-MTR-FRAM
  6
Continuous
100
AcDbLine
 10
12660.33805648022
 20
6899.332073380229
 30
0.0
 11
15368.33742368028
 21
6899.332073380229
 31
0.0
  0
LINE
  5
2996D
330
1F
100
AcDbEntity
  8
D-MTR-FRAM
  6
Continuous
100
AcDbLine
 10
12660.33805648022
 20
7028.664412488696
 30
0.0
 11
15368.33742368028
 21
7028.664412488696
 31
0.0
  0
TEXT
  5
2996E
330
1F
100
AcDbEntity
  8
D-MTR-TXT
100
AcDbText
 10
12740.33405616182
 20
6916.532073112769
 30
0.0
 40
70.0
  1
ピットバルブ　φ75　Ｌ＝130
100
AcDbText
  0
TEXT
  5
2996F
330
1F
100
AcDbEntity
  8
D-MTR-TXT
100
AcDbText
 10
12740.33405616182
 20
6787.197854004308
 30
0.0
 40
70.0
  1
吊り用インサート　Ｍ20（Ｙ－Ｄ32×150）
100
AcDbText
  0
LINE
  5
29970
330
1F
100
AcDbEntity
  8
D-MTR-FRAM
  6
Continuous
100
AcDbLine
 10
12660.33805648022
 20
6252.667617837895
 30
0.0
 11
15368.33742368028
 21
6252.667617837895
 31
0.0
  0
LINE
  5
29971
330
1F
100
AcDbEntity
  8
D-MTR-FRAM
  6
Continuous
100
AcDbLine
 10
12660.33805648022
 20
6511.332776054827
 30
0.0
 11
15368.33742368028
 21
6511.332776054827
 31
0.0
  0
LINE
  5
29972
330
1F
100
AcDbEntity
  8
D-MTR-FRAM
  6
Continuous
100
AcDbLine
 10
12660.33805648022
 20
6381.999956946362
 30
0.0
 11
15368.33742368028
 21
6381.999956946362
 31
0.0
  0
TEXT
  5
29973
330
1F
100
AcDbEntity
  8
D-MTR-TXT
100
AcDbText
 10
12740.33405616182
 20
6528.53277578737
 30
0.0
 40
70.0
  1
蓋用インサート　Ｍ16（Ｙ－Ｄ25×100）
100
AcDbText
  0
TEXT
  5
29974
330
1F
100
AcDbEntity
  8
D-MTR-TXT
100
AcDbText
 10
12740.33405616182
 20
6399.200236678902
 30
0.0
 40
70.0
  1
支持受金物用インサート　Ｍ16（セラミック）
100
AcDbText
  0
LINE
  5
29975
330
1F
100
AcDbEntity
  8
D-MTR-FRAM
  6
Continuous
100
AcDbLine
 10
12660.33805648022
 20
6123.335278729427
 30
0.0
 11
15368.33742368028
 21
6123.335278729427
 31
0.0
  0
TEXT
  5
29976
330
1F
100
AcDbEntity
  8
D-MTR-TXT
100
AcDbText
 10
12740.33405616182
 20
6140.535558461968
 30
0.0
 40
70.0
  1
取付ボックス用インサートＭ16（Ｙ－Ｄ25×100）
100
AcDbText
  0
LINE
  5
29977
330
1F
100
AcDbEntity
  8
D-MTR-FRAM
  6
Continuous
100
AcDbLine
 10
12660.33805648022
 20
9339.32955432558
 30
0.0
 11
12660.33805648022
 21
7787.33005070563
 31
0.0
  0
LINE
  5
29978
330
1F
100
AcDbEntity
  8
D-MTR-FRAM
  6
Continuous
100
AcDbLine
 10
12660.33805648022
 20
7287.33005070563
 30
0.0
 11
12660.33805648022
 21
6123.335278729427
 31
0.0
  0
TEXT
  5
29979
330
1F
100
AcDbEntity
  8
D-MTR-TXT
100
AcDbText
 10
12740.33405616182
 20
6269.867897570435
 30
0.0
 40
70.0
  1
引込金具
100
AcDbText
  0
TEXT
  5
2997A
330
1F
100
AcDbEntity
  8
D-MTR-TXT
100
AcDbText
 10
12740.33405616182
 20
7045.864692221235
 30
0.0
 40
70.0
  1
連結金具
100
AcDbText
  0
TEXT
  5
2997B
330
1F
100
AcDbEntity
  8
D-MTR-TXT
100
AcDbText
 10
12689.97709529821
 20
8001.196421472219
 30
0.0
 40
69.99999999999999
  1
使　用　材　料
100
AcDbText
  0
TEXT
  5
2997C
330
1F
100
AcDbEntity
  8
D-MTR-TXT
100
AcDbText
 10
12724.33432008059
 20
8389.196362672224
 30
0.0
 40
69.99999999999999
  1
土の単位重量
100
AcDbText
  0
TEXT
  5
2997D
330
1F
100
AcDbEntity
  8
D-MTR-TXT
100
AcDbText
 10
12734.69744038328
 20
8712.529927005526
 30
0.0
 40
69.99999999999999
  1
内空寸法
100
AcDbText
  0
TEXT
  5
2997E
330
1F
100
AcDbEntity
  8
D-MTR-TXT
100
AcDbText
 10
12741.13403840062
 20
8841.862680738934
 30
0.0
 40
69.99999999999999
  1
構造形式　　　
100
AcDbText
  0
TEXT
  5
2997F
330
1F
100
AcDbEntity
  8
D-MTR-TXT
100
AcDbText
 10
12687.36627523356
 20
9165.196245072236
 30
0.0
 40
69.99999999999999
  1
設　計　荷　重
100
AcDbText
  0
LINE
  5
29980
330
1F
100
AcDbEntity
  8
D-MTR-FRAM
  6
Continuous
100
AcDbLine
 10
15368.33742368028
 20
9339.32955432558
 30
0.0
 11
15368.33742368028
 21
7787.33005070563
 31
0.0
  0
LINE
  5
29981
330
1F
100
AcDbEntity
  8
D-MTR-FRAM
  6
Continuous
100
AcDbLine
 10
13300.33769248025
 20
9339.32955432558
 30
0.0
 11
13300.33769248025
 21
9080.663766858805
 31
0.0
  0
LINE
  5
29982
330
1F
100
AcDbEntity
  8
D-MTR-FRAM
  6
Continuous
100
AcDbLine
 10
13841.67095301359
 20
9339.32955432558
 30
0.0
 11
13841.67095301359
 21
7787.33005070563
 31
0.0
  0
TEXT
  5
29983
330
1F
100
AcDbEntity
  8
D-MTR-TXT
100
AcDbText
 10
14919.3989758511
 20
7175.197231329704
 30
0.0
 40
70.0
  1
個　　数
100
AcDbText
  0
TEXT
  5
29984
330
1F
100
AcDbEntity
  8
D-MTR-TXT
100
AcDbText
 10
13560.68351583946
 20
7175.197231329704
 30
0.0
 40
70.0
  1
種　　類
100
AcDbText
  0
LINE
  5
29985
330
1F
100
AcDbEntity
  8
D-MTR-FRAM
  6
Continuous
100
AcDbLine
 10
14762.3374266892
 20
7287.33005070563
 30
0.0
 11
14762.3374266892
 21
6123.335278729427
 31
0.0
  0
LINE
  5
29986
330
1F
100
AcDbEntity
  8
D-MTR-FRAM
  6
Continuous
100
AcDbLine
 10
15368.33742368028
 20
7287.33005070563
 30
0.0
 11
15368.33742368028
 21
6123.335278729427
 31
0.0
  0
TEXT
  5
29987
330
1F
100
AcDbEntity
  8
D-MTR-MTXT
100
AcDbText
 10
14727.84791347135
 20
6269.867897570435
 30
0.0
 40
70.0
  1
　　　4　個
100
AcDbText
  0
TEXT
  5
29988
330
1F
100
AcDbEntity
  8
D-MTR-MTXT
100
AcDbText
 10
14727.84791347135
 20
6140.535558461968
 30
0.0
 40
70.0
  1
　　　6　本
100
AcDbText
  0
TEXT
  5
29989
330
1F
100
AcDbEntity
  8
D-MTR-MTXT
100
AcDbText
 10
14734.33762620363
 20
6528.53277578737
 30
0.0
 40
70.0
  1
　　　4　本
100
AcDbText
  0
TEXT
  5
2998A
330
1F
100
AcDbEntity
  8
D-MTR-MTXT
100
AcDbText
 10
14766.96009510298
 20
6399.200236678902
 30
0.0
 40
70.0
  1
　　16　本
100
AcDbText
  0
TEXT
  5
2998B
330
1F
100
AcDbEntity
  8
D-MTR-MTXT
100
AcDbText
 10
14734.33762620363
 20
6657.865594895837
 30
0.0
 40
70.0
  1
　　　6　本
100
AcDbText
  0
TEXT
  5
2998C
330
1F
100
AcDbEntity
  8
D-MTR-MTXT
100
AcDbText
 10
14750.64886065331
 20
6916.532073112769
 30
0.0
 40
70.0
  1
　　　1　個
100
AcDbText
  0
TEXT
  5
2998D
330
1F
100
AcDbEntity
  8
D-MTR-MTXT
100
AcDbText
 10
14734.33762620363
 20
6787.197854004308
 30
0.0
 40
70.0
  1
　　　4　本
100
AcDbText
  0
TEXT
  5
2998E
330
1F
100
AcDbEntity
  8
D-MTR-MTXT
100
AcDbText
 10
14734.33762620363
 20
7045.864692221235
 30
0.0
 40
70.0
  1
　　　8　個
100
AcDbText
  0
TEXT
  5
2998F
330
1F
100
AcDbEntity
  8
D-MTR-MTXT
100
AcDbText
 10
14556.20661323086
 20
8971.196834472165
 30
0.0
 40
69.99999999999999
  1
～
100
AcDbText
  0
TEXT
  5
29990
330
1F
100
AcDbEntity
  8
D-MTR-MTXT
100
AcDbText
 10
14596.40077774955
 20
8501.20509858034
 30
0.0
 40
49.99999999999999
  1
3
100
AcDbText
  0
TEXT
  5
29991
330
1F
100
AcDbEntity
  8
D-MTR-MTXT
100
AcDbText
 10
14454.26702095459
 20
8712.529927005526
 30
0.0
 40
69.99999999999999
  1
1,900
100
AcDbText
  0
TEXT
  5
29992
330
1F
100
AcDbEntity
  8
D-MTR-MTXT
100
AcDbText
 10
14470.46751051098
 20
7814.736503958539
 30
0.0
 40
70.0
  1
 kg
100
AcDbText
  0
TEXT
  5
29993
330
1F
100
AcDbEntity
  8
D-MTR-MTXT
100
AcDbText
 10
14399.48702214756
 20
7935.068212764715
 30
0.0
 40
69.99999999999999
  1
σｓａ＝160Ｎ／ｍｍ
100
AcDbText
  0
TEXT
  5
29994
330
1F
100
AcDbEntity
  8
D-MTR-MTXT
100
AcDbText
 10
14399.48702214756
 20
8064.400966498119
 30
0.0
 40
69.99999999999999
  1
σｃｋ＝　35Ｎ／ｍｍ
100
AcDbText
  0
TEXT
  5
29995
330
1F
100
AcDbEntity
  8
D-MTR-MTXT
100
AcDbText
 10
13877.66693941399
 20
8195.19695207215
 30
0.0
 40
69.99999999999999
  1
ｋａ＝0.5　（静止土圧係数）
100
AcDbText
  0
TEXT
  5
29996
330
1F
100
AcDbEntity
  8
D-MTR-MTXT
100
AcDbText
 10
13877.66693941399
 20
8841.862680738934
 30
0.0
 40
69.99999999999999
  1
鉄筋コンクリ－ト箱形
100
AcDbText
  0
LINE
  5
29997
330
1F
100
AcDbEntity
  8
D-MTR-MTXT
  6
Continuous
100
AcDbLine
 10
13909.67093621359
 20
8627.996048792223
 30
0.0
 11
14749.67141221354
 21
8627.996048792223
 31
0.0
  0
LINE
  5
29998
330
1F
100
AcDbEntity
  8
D-MTR-FRAM
  6
Continuous
100
AcDbLine
 10
13300.33769248025
 20
8045.996976992158
 30
0.0
 11
15368.33742368028
 21
8045.996976992158
 31
0.0
  0
LINE
  5
29999
330
1F
100
AcDbEntity
  8
D-MTR-FRAM
  6
Continuous
100
AcDbLine
 10
13300.33769248025
 20
8433.996918192162
 30
0.0
 11
15368.33742368028
 21
8433.996918192162
 31
0.0
  0
LINE
  5
2999A
330
1F
100
AcDbEntity
  8
D-MTR-FRAM
  6
Continuous
100
AcDbLine
 10
13300.33769248025
 20
8175.329730725563
 30
0.0
 11
13300.33769248025
 21
7916.662823258876
 31
0.0
  0
TEXT
  5
2999B
330
1F
100
AcDbEntity
  8
D-MTR
100
AcDbText
 10
13409.60819389884
 20
7342.191499820073
 30
0.0
 40
140.0
  1
　材　料　表　
100
AcDbText
  0
TEXT
  5
2999C
330
1F
100
AcDbEntity
  8
D-MTR-MTXT
100
AcDbText
 10
13877.66693941399
 20
7936.530044605515
 30
0.0
 40
69.99999999999999
  1
ＳＤ２９５Ａ　　
100
AcDbText
  0
TEXT
  5
2999D
330
1F
100
AcDbEntity
  8
D-MTR-MTXT
100
AcDbText
 10
13877.66693941399
 20
8065.862798338921
 30
0.0
 40
69.99999999999999
  1
設計基準強度　　
100
AcDbText
  0
TEXT
  5
2999E
330
1F
100
AcDbEntity
  8
D-MTR-TXT
100
AcDbText
 10
13328.33368168065
 20
8065.862798338921
 30
0.0
 40
69.99999999999999
  1
コンクリ－ト
100
AcDbText
  0
TEXT
  5
2999F
330
1F
100
AcDbEntity
  8
D-MTR-TXT
100
AcDbText
 10
13417.93395272063
 20
7936.530044605515
 30
0.0
 40
69.99999999999999
  1
鉄　　筋
100
AcDbText
  0
TEXT
  5
299A0
330
1F
100
AcDbEntity
  8
D-MTR-MTXT
100
AcDbText
 10
14102.71980694632
 20
7807.197277160556
 30
0.0
 40
70.0
  1
4,940
100
AcDbText
  0
TEXT
  5
299A1
330
1F
100
AcDbEntity
  8
D-MTR-MTXT
100
AcDbText
 10
13877.66693941399
 20
8453.862739538926
 30
0.0
 40
69.99999999999999
  1
γ＝19.0ｋＮ／ｍ
100
AcDbText
  0
TEXT
  5
299A2
330
1F
100
AcDbEntity
  8
D-MTR-MTXT
100
AcDbText
 10
13877.66693941399
 20
8971.196834472165
 30
0.0
 40
69.99999999999999
  1
Ｈ′＝
100
AcDbText
  0
TEXT
  5
299A3
330
1F
100
AcDbEntity
  8
D-MTR-TXT
100
AcDbText
 10
13328.33368168065
 20
8453.862739538926
 30
0.0
 40
69.99999999999999
  1
地下水位以上
100
AcDbText
  0
TEXT
  5
299A4
330
1F
100
AcDbEntity
  8
D-MTR-TXT
100
AcDbText
 10
13328.33368168065
 20
8324.529985805522
 30
0.0
 40
69.99999999999999
  1
地下水位以下
100
AcDbText
  0
LINE
  5
299A5
330
1F
100
AcDbEntity
  8
D-MTR-FRAM
  6
Continuous
100
AcDbLine
 10
13300.33769248025
 20
8563.32967192557
 30
0.0
 11
13300.33769248025
 21
8304.662484458917
 31
0.0
  0
TEXT
  5
299A6
330
1F
100
AcDbEntity
  8
D-MTR-TXT
100
AcDbText
 10
13412.3342332806
 20
8712.529927005526
 30
0.0
 40
69.99999999999999
  1
高
100
AcDbText
  0
TEXT
  5
299A7
330
1F
100
AcDbEntity
  8
D-MTR-TXT
100
AcDbText
 10
13324.60063338729
 20
8712.529927005526
 30
0.0
 40
69.99999999999999
  1
×
100
AcDbText
  0
TEXT
  5
299A8
330
1F
100
AcDbEntity
  8
D-MTR-TXT
100
AcDbText
 10
13513.40088650726
 20
8712.529927005526
 30
0.0
 40
69.99999999999999
  1
×
100
AcDbText
  0
TEXT
  5
299A9
330
1F
100
AcDbEntity
  8
D-MTR-TXT
100
AcDbText
 10
13614.46697973399
 20
8712.529927005526
 30
0.0
 40
69.99999999999999
  1
長）
100
AcDbText
  0
TEXT
  5
299AA
330
1F
100
AcDbEntity
  8
D-MTR-MTXT
100
AcDbText
 10
14191.26690805399
 20
8971.196834472165
 30
0.0
 40
69.99999999999999
  1
0.200
100
AcDbText
  0
TEXT
  5
299AB
330
1F
100
AcDbEntity
  8
D-MTR-MTXT
100
AcDbText
 10
13945.35795715001
 20
8712.529927005526
 30
0.0
 40
69.99999999999999
  1
1,200
100
AcDbText
  0
TEXT
  5
299AC
330
1F
100
AcDbEntity
  8
D-MTR-MTXT
100
AcDbText
 10
14303.80022346733
 20
8712.529927005526
 30
0.0
 40
69.99999999999999
  1
×
100
AcDbText
  0
TEXT
  5
299AD
330
1F
100
AcDbEntity
  8
D-MTR-MTXT
100
AcDbText
 10
15244.63298053949
 20
7975.846279692349
 30
0.0
 40
49.99999999999999
  1
2
100
AcDbText
  0
TEXT
  5
299AE
330
1F
100
AcDbEntity
  8
D-MTR-MTXT
100
AcDbText
 10
15274.71784863076
 20
8105.179033425756
 30
0.0
 40
49.99999999999999
  1
2
100
AcDbText
  0
TEXT
  5
299AF
330
1F
100
AcDbEntity
  8
D-MTR-MTXT
100
AcDbText
 10
14690.60603979092
 20
8971.196834472165
 30
0.0
 40
69.99999999999999
  1
1.000　ｍ
100
AcDbText
  0
LINE
  5
299B0
330
1F
100
AcDbEntity
  8
D-MTR-FRAM
  6
Continuous
100
AcDbLine
 10
13300.33769248025
 20
9209.996520592213
 30
0.0
 11
15368.33742368028
 21
9209.996520592213
 31
0.0
  0
TEXT
  5
299B1
330
1F
100
AcDbEntity
  8
D-MTR-MTXT
100
AcDbText
 10
13877.66693941399
 20
9229.864021938764
 30
0.0
 40
69.99999999999999
  1
Ｔ－25　（後輪１輪　100ｋＮ）
100
AcDbText
  0
TEXT
  5
299B2
330
1F
100
AcDbEntity
  8
D-MTR-MTXT
100
AcDbText
 10
13877.66693941399
 20
9100.529588205569
 30
0.0
 40
69.99999999999999
  1
ｉ＝0.3
100
AcDbText
  0
TEXT
  5
299B3
330
1F
100
AcDbEntity
  8
D-MTR
100
AcDbText
 10
13137.40434248765
 20
9423.329145925611
 30
0.0
 40
139.9999999999999
  1
　設　計　条　件　
100
AcDbText
  0
TEXT
  5
299B4
330
1F
100
AcDbEntity
  8
D-MTR-TXT
100
AcDbText
 10
13373.13423720059
 20
9100.529588205569
 30
0.0
 40
69.99999999999999
  1
衝　　　撃
100
AcDbText
  0
TEXT
  5
299B5
330
1F
100
AcDbEntity
  8
D-MTR-TXT
100
AcDbText
 10
13373.13423720059
 20
9229.864021938764
 30
0.0
 40
69.99999999999999
  1
活　荷　重
100
AcDbText
  0
TEXT
  5
299BD
330
1F
100
AcDbEntity
  8
D-MTR-MTXT
100
AcDbText
 10
14801.66545623863
 20
8712.529927005526
 30
0.0
 40
69.99999999999999
  1
×
100
AcDbText
  0
TEXT
  5
299BE
330
1F
100
AcDbEntity
  8
D-MTR-MTXT
100
AcDbText
 10
14952.1322537259
 20
8712.529927005526
 30
0.0
 40
69.99999999999999
  1
1,500
100
AcDbText
  0
VIEWPORT
  5
2E
102
{ACAD_XDICTIONARY
360
299CE
102
}
330
1B
100
AcDbEntity
 67
     1
  8
0
100
AcDbViewport
 10
473.1810839499198
 20
473.2126938647103
 30
0.0
 40
2443.154659054329
 41
1598.230339464706
 68
     1
 69
     1
 12
473.1810839499198
 22
473.2126938647103
 13
0.0
 23
0.0
 14
10.0
 24
10.0
 15
10.0
 25
10.0
 16
0.0
 26
0.0
 36
1.0
 17
0.0
 27
0.0
 37
0.0
 42
50.0
 43
0.0
 44
0.0
 45
1598.230339464706
 50
0.0
 51
0.0
 72
   100
 90
    32800
  1

281
     0
 71
     1
 74
     0
110
0.0
120
0.0
130
0.0
111
1.0
121
0.0
131
0.0
112
0.0
122
1.0
132
0.0
 79
     0
146
0.0
  0
ENDSEC
  0
SECTION
  2
OBJECTS
  0
DICTIONARY
  5
C
330
0
100
AcDbDictionary
281
     1
  3
ACAD_COLOR
350
299C4
  3
ACAD_GROUP
350
D
  3
ACAD_LAYOUT
350
1A
  3
ACAD_MATERIAL
350
299C3
  3
ACAD_MLINESTYLE
350
17
  3
ACAD_PLOTSETTINGS
350
19
  3
ACAD_PLOTSTYLENAME
350
7E80
  3
ACAD_TABLESTYLE
350
299C5
  3
AcadDim
350
8E27
  3
ACDBHEADERROUNDTRIPXREC
350
299CD
  3
AcDbVariableDictionary
350
7E86
1001
ACAD
1000
TREAT_AS_HARD
1070
     0
  0
DICTIONARY
  5
7BCB
330
1F
100
AcDbDictionary
280
     1
281
     1
  3
ACAD_LAYOUTSELFREF
360
7DA3
1001
ACAD
1000
TREAT_AS_HARD
1070
     1
  0
DICTIONARY
  5
7BCD
330
1B
100
AcDbDictionary
280
     1
281
     1
  3
ACAD_LAYOUTSELFREF
360
7DA2
1001
ACAD
1000
TREAT_AS_HARD
1070
     1
  0
DICTIONARY
  5
299CE
330
2E
100
AcDbDictionary
280
     1
281
     1
  3
ACAD_XREC_ROUNDTRIP
360
299CF
  0
DICTIONARY
  5
299C4
102
{ACAD_REACTORS
330
C
102
}
330
C
100
AcDbDictionary
281
     1
  0
DICTIONARY
  5
D
102
{ACAD_REACTORS
330
C
102
}
330
C
100
AcDbDictionary
281
     1
1001
ACAD
1000
TREAT_AS_HARD
1070
     0
  0
DICTIONARY
  5
1A
102
{ACAD_REACTORS
330
C
102
}
330
C
100
AcDbDictionary
281
     1
  3
Model
350
7E82
  3
ﾚｲｱｳﾄ1
350
7E83
1001
ACAD
1000
TREAT_AS_HARD
1070
     0
  0
DICTIONARY
  5
299C3
102
{ACAD_REACTORS
330
C
102
}
330
C
100
AcDbDictionary
281
     1
  0
DICTIONARY
  5
17
102
{ACAD_REACTORS
330
C
102
}
330
C
100
AcDbDictionary
281
     1
  3
STANDARD
350
18
1001
ACAD
1000
TREAT_AS_HARD
1070
     0
  0
DICTIONARY
  5
19
102
{ACAD_REACTORS
330
C
102
}
330
C
100
AcDbDictionary
281
     1
1001
ACAD
1000
TREAT_AS_HARD
1070
     0
  0
ACDBDICTIONARYWDFLT
  5
7E80
102
{ACAD_REACTORS
330
C
102
}
330
C
100
AcDbDictionary
281
     1
  3
Normal
350
7E81
100
AcDbDictionaryWithDefault
340
7E81
  0
DICTIONARY
  5
299C5
102
{ACAD_REACTORS
330
C
102
}
330
C
100
AcDbDictionary
281
     1
  3
Standard
350
299C6
  0
XRECORD
  5
8E27
102
{ACAD_REACTORS
330
C
102
}
330
C
100
AcDbXrecord
280
     1
 90
   990106
  3

 60
     0
 61
     0
 62
     1
 63
     3
 64
     0
 65
     0
 66
     0
 67
     3
 68
     1
 69
     0
 70
     0
 71
     0
 72
     0
 40
0.0
170
     0
340
0
  0
DICTIONARY
  5
299CD
102
{ACAD_REACTORS
330
C
102
}
330
C
100
AcDbDictionary
281
     1
  0
DICTIONARY
  5
7E86
102
{ACAD_REACTORS
330
C
102
}
330
C
100
AcDbDictionary
281
     1
  3
CTABLESTYLE
350
299CA
  3
DIMASSOC
350
7E87
  3
PROJECTNAME
350
299CB
  3
SORTENTS
350
B6AF
  0
XRECORD
  5
7DA3
102
{ACAD_REACTORS
330
7BCB
102
}
330
7BCB
100
AcDbXrecord
280
     1
340
1F
  0
XRECORD
  5
7DA2
102
{ACAD_REACTORS
330
7BCD
102
}
330
7BCD
100
AcDbXrecord
280
     1
340
1B
  0
XRECORD
  5
299CF
102
{ACAD_REACTORS
330
299CE
102
}
330
299CE
100
AcDbXrecord
280
     1
102
SHADEPLOT
 70
     0
  0
LAYOUT
  5
7E82
102
{ACAD_XDICTIONARY
360
299D0
102
}
102
{ACAD_REACTORS
330
1A
102
}
330
1A
100
AcDbPlotSettings
  1

  2
RICOH IPSiO NX730N RPCS
  4
A3
  6

 40
5.873749732971191
 41
5.873747825622558
 42
5.873748779296875
 43
5.873748779296875
 44
296.9259948730469
 45
419.9466552734374
 46
-5.91
 47
-6.15
 48
0.0
 49
0.0
140
16819.99993279995
141
11879.99995240002
142
1.0
143
40.0
 70
 11948
 72
     1
 73
     1
 74
     4
  7
canon国土交通省.ctb
 75
     0
147
0.025
148
0.0
149
0.0
100
AcDbLayout
  1
Model
 70
     1
 71
     0
 10
0.0
 20
0.0
 11
12.0
 21
9.0
 12
0.0
 22
0.0
 32
0.0
 14
0.0
 24
0.0
 34
0.0
 15
0.0
 25
0.0
 35
0.0
146
0.0
 13
0.0
 23
0.0
 33
0.0
 16
1.0
 26
0.0
 36
0.0
 17
0.0
 27
1.0
 37
0.0
 76
     0
330
1F
  0
LAYOUT
  5
7E83
102
{ACAD_XDICTIONARY
360
299D2
102
}
102
{ACAD_REACTORS
330
1A
102
}
330
1A
100
AcDbPlotSettings
  1

  2
Canon LASER SHOT LBP-740
  4

  6

 40
0.0
 41
0.0
 42
0.0
 43
0.0
 44
0.0
 45
0.0
 46
0.0
 47
0.0
 48
0.0
 49
0.0
140
0.0
141
0.0
142
1.0
143
0.000000000000000E+99
 70
   688
 72
     0
 73
     1
 74
     1
  7
canon国土交通省.ctb
 75
     0
147
0.0
148
182.4834335403793
149
501.366229236586
100
AcDbLayout
  1
ﾚｲｱｳﾄ1
 70
     1
 71
     1
 10
-7.184387147259029
 20
-19.73882792270024
 11
-7.184387147259029
 21
-19.73882792270024
 12
0.0
 22
0.0
 32
0.0
 14
-7.18438714725903
 24
-19.73882792270024
 34
-0.0015258207003583
 15
833.8481947040165
 25
574.2966304217307
 35
0.0000000349246037
146
0.0
 13
0.0
 23
0.0
 33
0.0
 16
1.0
 26
0.0
 36
0.0
 17
0.0
 27
1.0
 37
0.0
 76
     0
330
1B
331
2E
  0
MLINESTYLE
  5
18
102
{ACAD_REACTORS
330
17
102
}
330
17
100
AcDbMlineStyle
  2
STANDARD
 70
     0
  3

 62
   256
 51
90.0
 52
90.0
 71
     2
 49
0.5
 62
   256
  6
BYLAYER
 49
-0.5
 62
   256
  6
BYLAYER
  0
ACDBPLACEHOLDER
  5
7E81
102
{ACAD_REACTORS
330
7E80
102
}
330
7E80
  0
TABLESTYLE
  5
299C6
102
{ACAD_REACTORS
330
299C5
102
}
330
299C5
100
AcDbTableStyle
  3
Standard
 70
     0
 71
     0
 40
0.06
 41
0.06
280
     0
281
     0
  7
STANDARD
140
0.18
170
     2
 62
     0
 63
     7
283
     0
274
    -2
284
     1
 64
     0
275
    -2
285
     1
 65
     0
276
    -2
286
     1
 66
     0
277
    -2
287
     1
 67
     0
278
    -2
288
     1
 68
     0
279
    -2
289
     1
 69
     0
  7
STANDARD
140
0.25
170
     5
 62
     0
 63
     7
283
     0
274
    -2
284
     1
 64
     0
275
    -2
285
     1
 65
     0
276
    -2
286
     1
 66
     0
277
    -2
287
     1
 67
     0
278
    -2
288
     1
 68
     0
279
    -2
289
     1
 69
     0
  7
STANDARD
140
0.18
170
     5
 62
     0
 63
     7
283
     0
274
    -2
284
     1
 64
     0
275
    -2
285
     1
 65
     0
276
    -2
286
     1
 66
     0
277
    -2
287
     1
 67
     0
278
    -2
288
     1
 68
     0
279
    -2
289
     1
 69
     0
  0
DICTIONARYVAR
  5
299CA
102
{ACAD_REACTORS
330
7E86
102
}
330
7E86
100
DictionaryVariables
280
     0
  1
STANDARD
  0
DICTIONARYVAR
  5
7E87
102
{ACAD_REACTORS
330
7E86
102
}
330
7E86
100
DictionaryVariables
280
     0
  1
1
  0
DICTIONARYVAR
  5
299CB
102
{ACAD_REACTORS
330
7E86
102
}
330
7E86
100
DictionaryVariables
280
     0
  1

  0
DICTIONARYVAR
  5
B6AF
102
{ACAD_REACTORS
330
7E86
102
}
330
7E86
100
DictionaryVariables
280
     0
  1
112
  0
DICTIONARY
  5
299D0
330
7E82
100
AcDbDictionary
280
     1
281
     1
  3
ACAD_XREC_ROUNDTRIP
360
299D1
  0
DICTIONARY
  5
299D2
330
7E83
100
AcDbDictionary
280
     1
281
     1
  3
ACAD_XREC_ROUNDTRIP
360
299D3
  0
XRECORD
  5
299D1
102
{ACAD_REACTORS
330
299D0
102
}
330
299D0
100
AcDbXrecord
280
     1
102
SHADEPLOT
 70
     2
102
SHADEPLOTRESLEVEL
 70
     2
102
SHADEPLOTCUSTOMDPI
 70
   300
  0
XRECORD
  5
299D3
102
{ACAD_REACTORS
330
299D2
102
}
330
299D2
100
AcDbXrecord
280
     1
102
SHADEPLOT
 70
     0
102
SHADEPLOTRESLEVEL
 70
     2
102
SHADEPLOTCUSTOMDPI
 70
   300
  0
ENDSEC
  0
EOF
