  0
SECTION
  2
HEADER
  9
$ACADVER
  1
AC1015
  9
$ACADMAINTVER
 70
    20
  9
$DWGCODEPAGE
  3
ANSI_932
  9
$INSBASE
 10
0.0
 20
0.0
 30
0.0
  9
$EXTMIN
 10
0.0
 20
0.0
 30
0.0
  9
$EXTMAX
 10
16819.99993279995
 20
11879.99995240002
 30
0.0
  9
$LIMMIN
 10
0.0
 20
0.0
  9
$LIMMAX
 10
420.0
 20
297.0
  9
$ORTHOMODE
 70
     0
  9
$REGENMODE
 70
     1
  9
$FILLMODE
 70
     1
  9
$QTEXTMODE
 70
     0
  9
$MIRRTEXT
 70
     0
  9
$LTSCALE
 40
20.0
  9
$ATTMODE
 70
     1
  9
$TEXTSIZE
 40
2.5
  9
$TRACEWID
 40
1.0
  9
$TEXTSTYLE
  7
STANDARD
  9
$CLAYER
  8
0
  9
$CELTYPE
  6
BYLAYER
  9
$CECOLOR
 62
   256
  9
$CELTSCALE
 40
1.0
  9
$DISPSILH
 70
     0
  9
$DIMSCALE
 40
1.0
  9
$DIMASZ
 40
20.0
  9
$DIMEXO
 40
20.0
  9
$DIMDLI
 40
0.0
  9
$DIMRND
 40
0.0
  9
$DIMDLE
 40
0.0
  9
$DIMEXE
 40
20.0
  9
$DIMTP
 40
0.0
  9
$DIMTM
 40
0.0
  9
$DIMTXT
 40
70.0
  9
$DIMCEN
 40
20.0
  9
$DIMTSZ
 40
0.0
  9
$DIMTOL
 70
     0
  9
$DIMLIM
 70
     0
  9
$DIMTIH
 70
     0
  9
$DIMTOH
 70
     0
  9
$DIMSE1
 70
     0
  9
$DIMSE2
 70
     0
  9
$DIMTAD
 70
     1
  9
$DIMZIN
 70
     8
  9
$DIMBLK
  1
OPEN
  9
$DIMASO
 70
     1
  9
$DIMSHO
 70
     1
  9
$DIMPOST
  1

  9
$DIMAPOST
  1

  9
$DIMALT
 70
     0
  9
$DIMALTD
 70
     3
  9
$DIMALTF
 40
0.03937007874016
  9
$DIMLFAC
 40
1.0
  9
$DIMTOFL
 70
     1
  9
$DIMTVP
 40
0.0
  9
$DIMTIX
 70
     1
  9
$DIMSOXD
 70
     0
  9
$DIMSAH
 70
     0
  9
$DIMBLK1
  1

  9
$DIMBLK2
  1

  9
$DIMSTYLE
  2
20
  9
$DIMCLRD
 70
   256
  9
$DIMCLRE
 70
   256
  9
$DIMCLRT
 70
   256
  9
$DIMTFAC
 40
1.0
  9
$DIMGAP
 40
20.0
  9
$DIMJUST
 70
     0
  9
$DIMSD1
 70
     0
  9
$DIMSD2
 70
     0
  9
$DIMTOLJ
 70
     1
  9
$DIMTZIN
 70
     8
  9
$DIMALTZ
 70
     0
  9
$DIMALTTZ
 70
     0
  9
$DIMUPT
 70
     0
  9
$DIMDEC
 70
     0
  9
$DIMTDEC
 70
     0
  9
$DIMALTU
 70
     2
  9
$DIMALTTD
 70
     3
  9
$DIMTXSTY
  7
STANDARD
  9
$DIMAUNIT
 70
     1
  9
$DIMADEC
 70
     4
  9
$DIMALTRND
 40
0.0
  9
$DIMAZIN
 70
     0
  9
$DIMDSEP
 70
    46
  9
$DIMATFIT
 70
     3
  9
$DIMFRAC
 70
     0
  9
$DIMLDRBLK
  1
OPEN
  9
$DIMLUNIT
 70
     2
  9
$DIMLWD
 70
    -2
  9
$DIMLWE
 70
    -2
  9
$DIMTMOVE
 70
     1
  9
$LUNITS
 70
     2
  9
$LUPREC
 70
     4
  9
$SKETCHINC
 40
1.0
  9
$FILLETRAD
 40
10.0
  9
$AUNITS
 70
     0
  9
$AUPREC
 70
     0
  9
$MENU
  1
.
  9
$ELEVATION
 40
0.0
  9
$PELEVATION
 40
0.0
  9
$THICKNESS
 40
0.0
  9
$LIMCHECK
 70
     0
  9
$CHAMFERA
 40
150.0
  9
$CHAMFERB
 40
150.0
  9
$CHAMFERC
 40
20.0
  9
$CHAMFERD
 40
0.0
  9
$SKPOLY
 70
     0
  9
$TDCREATE
 40
2452404.412662234
  9
$TDUCREATE
 40
2452404.037662234
  9
$TDUPDATE
 40
2454744.612707419
  9
$TDUUPDATE
 40
2454744.237707419
  9
$TDINDWG
 40
1.7198692477
  9
$TDUSRTIMER
 40
1.7198685532
  9
$USRTIMER
 70
     1
  9
$ANGBASE
 50
0.0
  9
$ANGDIR
 70
     0
  9
$PDMODE
 70
     0
  9
$PDSIZE
 40
0.0
  9
$PLINEWID
 40
0.0
  9
$SPLFRAME
 70
     0
  9
$SPLINETYPE
 70
     6
  9
$SPLINESEGS
 70
     8
  9
$HANDSEED
  5
29048
  9
$SURFTAB1
 70
     6
  9
$SURFTAB2
 70
     6
  9
$SURFTYPE
 70
     6
  9
$SURFU
 70
     6
  9
$SURFV
 70
     6
  9
$UCSBASE
  2

  9
$UCSNAME
  2

  9
$UCSORG
 10
0.0
 20
0.0
 30
0.0
  9
$UCSXDIR
 10
1.0
 20
0.0
 30
0.0
  9
$UCSYDIR
 10
0.0
 20
1.0
 30
0.0
  9
$UCSORTHOREF
  2

  9
$UCSORTHOVIEW
 70
     0
  9
$UCSORGTOP
 10
0.0
 20
0.0
 30
0.0
  9
$UCSORGBOTTOM
 10
0.0
 20
0.0
 30
0.0
  9
$UCSORGLEFT
 10
0.0
 20
0.0
 30
0.0
  9
$UCSORGRIGHT
 10
0.0
 20
0.0
 30
0.0
  9
$UCSORGFRONT
 10
0.0
 20
0.0
 30
0.0
  9
$UCSORGBACK
 10
0.0
 20
0.0
 30
0.0
  9
$PUCSBASE
  2

  9
$PUCSNAME
  2

  9
$PUCSORG
 10
0.0
 20
0.0
 30
0.0
  9
$PUCSXDIR
 10
1.0
 20
0.0
 30
0.0
  9
$PUCSYDIR
 10
0.0
 20
1.0
 30
0.0
  9
$PUCSORTHOREF
  2

  9
$PUCSORTHOVIEW
 70
     0
  9
$PUCSORGTOP
 10
0.0
 20
0.0
 30
0.0
  9
$PUCSORGBOTTOM
 10
0.0
 20
0.0
 30
0.0
  9
$PUCSORGLEFT
 10
0.0
 20
0.0
 30
0.0
  9
$PUCSORGRIGHT
 10
0.0
 20
0.0
 30
0.0
  9
$PUCSORGFRONT
 10
0.0
 20
0.0
 30
0.0
  9
$PUCSORGBACK
 10
0.0
 20
0.0
 30
0.0
  9
$USERI1
 70
     0
  9
$USERI2
 70
     0
  9
$USERI3
 70
     0
  9
$USERI4
 70
     0
  9
$USERI5
 70
     0
  9
$USERR1
 40
0.0
  9
$USERR2
 40
0.0
  9
$USERR3
 40
0.0
  9
$USERR4
 40
0.0
  9
$USERR5
 40
0.0
  9
$WORLDVIEW
 70
     1
  9
$SHADEDGE
 70
     3
  9
$SHADEDIF
 70
    70
  9
$TILEMODE
 70
     1
  9
$MAXACTVP
 70
    48
  9
$PINSBASE
 10
0.0
 20
0.0
 30
0.0
  9
$PLIMCHECK
 70
     0
  9
$PEXTMIN
 10
-7.18438714725903
 20
-19.73882792270024
 30
-0.0015258207003583
  9
$PEXTMAX
 10
833.8481947040165
 20
574.2966304217307
 30
0.0000000349246037
  9
$PLIMMIN
 10
-7.184387147259029
 20
-19.73882792270024
  9
$PLIMMAX
 10
-7.184387147259029
 20
-19.73882792270024
  9
$UNITMODE
 70
     0
  9
$VISRETAIN
 70
     1
  9
$PLINEGEN
 70
     0
  9
$PSLTSCALE
 70
     1
  9
$TREEDEPTH
 70
  3020
  9
$CMLSTYLE
  2
STANDARD
  9
$CMLJUST
 70
     0
  9
$CMLSCALE
 40
20.0
  9
$PROXYGRAPHICS
 70
     1
  9
$MEASUREMENT
 70
     0
  9
$CELWEIGHT
370
    -1
  9
$ENDCAPS
280
     0
  9
$JOINSTYLE
280
     0
  9
$LWDISPLAY
290
     0
  9
$INSUNITS
 70
     0
  9
$HYPERLINKBASE
  1

  9
$STYLESHEET
  1
canon国土交通省.ctb
  9
$XEDIT
290
     1
  9
$CEPSNTYPE
380
     0
  9
$PSTYLEMODE
290
     1
  9
$FINGERPRINTGUID
  2
{2179596F-6415-11D6-8A52-000255ECC0C6}
  9
$VERSIONGUID
  2
{1F6376C9-9D01-11D6-9C0E-000629A6C5B5}
  9
$EXTNAMES
290
     1
  9
$PSVPSCALE
 40
0.0
  9
$OLESTARTUP
290
     0
  0
ENDSEC
  0
SECTION
  2
CLASSES
  0
CLASS
  1
ACDBDICTIONARYWDFLT
  2
AcDbDictionaryWithDefault
  3
ObjectDBX Classes
 90
        0
280
     0
281
     0
  0
CLASS
  1
ACDBPLACEHOLDER
  2
AcDbPlaceHolder
  3
ObjectDBX Classes
 90
        0
280
     0
281
     0
  0
CLASS
  1
LAYOUT
  2
AcDbLayout
  3
ObjectDBX Classes
 90
        0
280
     0
281
     0
  0
CLASS
  1
DICTIONARYVAR
  2
AcDbDictionaryVar
  3
ObjectDBX Classes
 90
        0
280
     0
281
     0
  0
CLASS
  1
PLOTSETTINGS
  2
AcDbPlotSettings
  3
ObjectDBX Classes
 90
    32768
280
     0
281
     0
  0
CLASS
  1
TABLESTYLE
  2
AcDbTableStyle
  3
ObjectDBX Classes
 90
     2047
280
     0
281
     0
  0
ENDSEC
  0
SECTION
  2
TABLES
  0
TABLE
  2
VPORT
  5
8
330
0
100
AcDbSymbolTable
 70
     2
  0
VPORT
  5
29040
330
8
100
AcDbSymbolTableRecord
100
AcDbViewportTableRecord
  2
*Active
 70
     0
 10
0.0
 20
0.0
 11
1.0
 21
1.0
 12
8410.000083893491
 22
6008.875531370484
 13
0.0
 23
0.0
 14
10.0
 24
10.0
 15
10.0
 25
10.0
 16
0.0
 26
0.0
 36
1.0
 17
0.0
 27
0.0
 37
0.0
 40
12137.51398434271
 41
1.786538461538461
 42
50.0
 43
0.0
 44
0.0
 50
0.0
 51
0.0
 71
     0
 72
   100
 73
     1
 74
     3
 75
     0
 76
     0
 77
     0
 78
     0
281
     0
 65
     1
110
0.0
120
0.0
130
0.0
111
1.0
121
0.0
131
0.0
112
0.0
122
1.0
132
0.0
 79
     0
146
0.0
  0
ENDTAB
  0
TABLE
  2
LTYPE
  5
5
330
0
100
AcDbSymbolTable
 70
     4
  0
LTYPE
  5
14
330
5
100
AcDbSymbolTableRecord
100
AcDbLinetypeTableRecord
  2
BYBLOCK
 70
     0
  3

 72
    65
 73
     0
 40
0.0
  0
LTYPE
  5
15
330
5
100
AcDbSymbolTableRecord
100
AcDbLinetypeTableRecord
  2
BYLAYER
 70
     0
  3

 72
    65
 73
     0
 40
0.0
  0
LTYPE
  5
16
330
5
100
AcDbSymbolTableRecord
100
AcDbLinetypeTableRecord
  2
CONTINUOUS
 70
     0
  3
Solid line
 72
    65
 73
     0
 40
0.0
  0
LTYPE
  5
86
330
5
100
AcDbSymbolTableRecord
100
AcDbLinetypeTableRecord
  2
CENTER
 70
     0
  3
____ _ ____ _ ____ _ ____ _ ____ _ ____ _ ____
 72
    65
 73
     4
 40
17.5
 49
13.0
 74
     0
 49
-1.5
 74
     0
 49
1.5
 74
     0
 49
-1.5
 74
     0
  0
LTYPE
  5
1CC8E
330
5
100
AcDbSymbolTableRecord
100
AcDbLinetypeTableRecord
  2
CENTER2
 70
     0
  3
----------  --  ----------  --  
 72
    65
 73
     4
 40
20.0
 49
12.5
 74
     0
 49
-2.5
 74
     0
 49
2.5
 74
     0
 49
-2.5
 74
     0
  0
LTYPE
  5
23AF1
330
5
100
AcDbSymbolTableRecord
100
AcDbLinetypeTableRecord
  2
DASHED1
 70
     0
  3
--  --  --  --  --  --  --  --  
 72
    65
 73
     2
 40
2.5
 49
1.25
 74
     0
 49
-1.25
 74
     0
  0
ENDTAB
  0
TABLE
  2
LAYER
  5
2
330
0
100
AcDbSymbolTable
 70
    16
  0
LAYER
  5
10
330
2
100
AcDbSymbolTableRecord
100
AcDbLayerTableRecord
  2
0
 70
     0
 62
     7
  6
CONTINUOUS
370
    13
390
7E81
  0
LAYER
  5
AC
330
2
100
AcDbSymbolTableRecord
100
AcDbLayerTableRecord
  2
D-STR-DIM
 70
     0
 62
     7
  6
CONTINUOUS
370
    13
390
7E81
  0
LAYER
  5
D6
330
2
100
AcDbSymbolTableRecord
100
AcDbLayerTableRecord
  2
D-TTL-TXT
 70
     0
 62
     7
  6
CONTINUOUS
370
    13
390
7E81
  0
LAYER
  5
3CD
330
2
100
AcDbSymbolTableRecord
100
AcDbLayerTableRecord
  2
DEFPOINTS
 70
     0
 62
     7
  6
CONTINUOUS
290
     0
370
    13
390
7E81
  0
LAYER
  5
3CE
330
2
100
AcDbSymbolTableRecord
100
AcDbLayerTableRecord
  2
D-TTL-LINE
 70
     0
 62
     7
  6
CONTINUOUS
370
    13
390
7E81
  0
LAYER
  5
1408F
330
2
100
AcDbSymbolTableRecord
100
AcDbLayerTableRecord
  2
D-STR
 70
     0
 62
     1
  6
CONTINUOUS
370
    18
390
7E81
  0
LAYER
  5
1620E
330
2
100
AcDbSymbolTableRecord
100
AcDbLayerTableRecord
  2
D-TTL
 70
     0
 62
     2
  6
CONTINUOUS
370
    13
390
7E81
  0
LAYER
  5
1620F
330
2
100
AcDbSymbolTableRecord
100
AcDbLayerTableRecord
  2
D-TTL-FRAM
 70
     0
 62
     2
  6
CONTINUOUS
290
     0
370
    13
390
7E81
  0
LAYER
  5
16212
330
2
100
AcDbSymbolTableRecord
100
AcDbLayerTableRecord
  2
D-BMK
 70
     0
 62
     2
  6
CENTER
370
    13
390
7E81
  0
LAYER
  5
16213
330
2
100
AcDbSymbolTableRecord
100
AcDbLayerTableRecord
  2
D-STR-HTXT
 70
     0
 62
     7
  6
CONTINUOUS
370
    13
390
7E81
  0
LAYER
  5
16216
330
2
100
AcDbSymbolTableRecord
100
AcDbLayerTableRecord
  2
D-MTR-FRAM
 70
     0
 62
     7
  6
CONTINUOUS
370
    13
390
7E81
  0
LAYER
  5
16217
330
2
100
AcDbSymbolTableRecord
100
AcDbLayerTableRecord
  2
D-MTR
 70
     0
 62
     6
  6
CONTINUOUS
370
    13
390
7E81
  0
LAYER
  5
16218
330
2
100
AcDbSymbolTableRecord
100
AcDbLayerTableRecord
  2
D-MTR-TXT
 70
     0
 62
     7
  6
CONTINUOUS
370
    13
390
7E81
  0
LAYER
  5
16219
330
2
100
AcDbSymbolTableRecord
100
AcDbLayerTableRecord
  2
D-MTR-MTXT
 70
     0
 62
     7
  6
CONTINUOUS
370
    13
390
7E81
  0
LAYER
  5
1621C
330
2
100
AcDbSymbolTableRecord
100
AcDbLayerTableRecord
  2
D-STR-STR2
 70
     0
 62
     1
  6
CONTINUOUS
370
    18
390
7E81
  0
LAYER
  5
244AE
330
2
100
AcDbSymbolTableRecord
100
AcDbLayerTableRecord
  2
D-DCR-HCH
 70
     0
 62
     5
  6
CONTINUOUS
370
    13
390
7E81
  0
ENDTAB
  0
TABLE
  2
STYLE
  5
3
330
0
100
AcDbSymbolTable
 70
     2
  0
STYLE
  5
11
330
3
100
AcDbSymbolTableRecord
100
AcDbTextStyleTableRecord
  2
STANDARD
 70
     0
 40
0.0
 41
1.0
 50
0.0
 71
     0
 42
2.5
  3
simplex.shx
  4
bigfont.shx
  0
STYLE
  5
1F432
330
3
100
AcDbSymbolTableRecord
100
AcDbTextStyleTableRecord
  2
明朝
 70
     0
 40
0.0
 41
1.0
 50
0.0
 71
     0
 42
10.0
  3
MS PMincho.ttf
  4

1001
ACAD
1000
MS PMincho
1071
    32786
  0
ENDTAB
  0
TABLE
  2
VIEW
  5
6
330
0
100
AcDbSymbolTable
 70
     0
  0
ENDTAB
  0
TABLE
  2
UCS
  5
7
330
0
100
AcDbSymbolTable
 70
     0
  0
ENDTAB
  0
TABLE
  2
APPID
  5
9
330
0
100
AcDbSymbolTable
 70
     2
  0
APPID
  5
12
330
9
100
AcDbSymbolTableRecord
100
AcDbRegAppTableRecord
  2
ACAD
 70
     0
  0
APPID
  5
7C1E
330
9
100
AcDbSymbolTableRecord
100
AcDbRegAppTableRecord
  2
CONTENTBLOCKICON
 70
     0
  0
ENDTAB
  0
TABLE
  2
DIMSTYLE
  5
A
330
0
100
AcDbSymbolTable
 70
     2
100
AcDbDimStyleTable
 71
     1
340
1CA9B
  0
DIMSTYLE
105
1CA9B
330
A
100
AcDbSymbolTableRecord
100
AcDbDimStyleTableRecord
  2
20
 70
     0
 41
20.0
 42
20.0
 43
0.0
 44
20.0
 73
     0
 74
     0
 77
     1
 78
     8
140
70.0
141
20.0
143
0.03937007874016
147
20.0
171
     3
172
     1
174
     1
176
   256
177
   256
178
   256
179
     4
271
     0
272
     0
274
     3
275
     1
279
     1
284
     8
340
11
341
31
342
31
  0
DIMSTYLE
105
1CC90
330
A
100
AcDbSymbolTableRecord
100
AcDbDimStyleTableRecord
  2
Standard
 70
     0
340
11
  0
ENDTAB
  0
TABLE
  2
BLOCK_RECORD
  5
1
330
0
100
AcDbSymbolTable
 70
     1
  0
BLOCK_RECORD
  5
1F
102
{ACAD_XDICTIONARY
360
7BCB
102
}
330
1
100
AcDbSymbolTableRecord
100
AcDbBlockTableRecord
  2
*MODEL_SPACE
340
7E82
  0
BLOCK_RECORD
  5
1B
102
{ACAD_XDICTIONARY
360
7BCD
102
}
330
1
100
AcDbSymbolTableRecord
100
AcDbBlockTableRecord
  2
*PAPER_SPACE
340
7E83
  0
BLOCK_RECORD
  5
31
330
1
100
AcDbSymbolTableRecord
100
AcDbBlockTableRecord
  2
_OPEN
340
0
310
2800000020000000200000000100080000000000000400000000000000000000000000000000000000000000000080000080000000808000800000008000800080800000C0C0C000C0DCC000F0CAA6000020400000206000002080000020A0000020C0000020E00000400000004020000040400000406000004080000040A0
310
000040C0000040E00000600000006020000060400000606000006080000060A0000060C0000060E00000800000008020000080400000806000008080000080A0000080C0000080E00000A0000000A0200000A0400000A0600000A0800000A0A00000A0C00000A0E00000C0000000C0200000C0400000C0600000C0800000C0
310
A00000C0C00000C0E00000E0000000E0200000E0400000E0600000E0800000E0A00000E0C00000E0E00040000000400020004000400040006000400080004000A0004000C0004000E00040200000402020004020400040206000402080004020A0004020C0004020E000404000004040200040404000404060004040800040
310
40A0004040C0004040E00040600000406020004060400040606000406080004060A0004060C0004060E00040800000408020004080400040806000408080004080A0004080C0004080E00040A0000040A0200040A0400040A0600040A0800040A0A00040A0C00040A0E00040C0000040C0200040C0400040C0600040C08000
310
40C0A00040C0C00040C0E00040E0000040E0200040E0400040E0600040E0800040E0A00040E0C00040E0E00080000000800020008000400080006000800080008000A0008000C0008000E00080200000802020008020400080206000802080008020A0008020C0008020E00080400000804020008040400080406000804080
310
008040A0008040C0008040E00080600000806020008060400080606000806080008060A0008060C0008060E00080800000808020008080400080806000808080008080A0008080C0008080E00080A0000080A0200080A0400080A0600080A0800080A0A00080A0C00080A0E00080C0000080C0200080C0400080C0600080C0
310
800080C0A00080C0C00080C0E00080E0000080E0200080E0400080E0600080E0800080E0A00080E0C00080E0E000C0000000C0002000C0004000C0006000C0008000C000A000C000C000C000E000C0200000C0202000C0204000C0206000C0208000C020A000C020C000C020E000C0400000C0402000C0404000C0406000C0
310
408000C040A000C040C000C040E000C0600000C0602000C0604000C0606000C0608000C060A000C060C000C060E000C0800000C0802000C0804000C0806000C0808000C080A000C080C000C080E000C0A00000C0A02000C0A04000C0A06000C0A08000C0A0A000C0A0C000C0A0E000C0C00000C0C02000C0C04000C0C06000
310
C0C08000C0C0A000F0FBFF00A4A0A000808080000000FF0000FF000000FFFF00FF000000FF00FF00FFFF0000FFFFFF0000000000000000000000000000000000000000000000000000000000000000000000000000000000000000000000000000000000000000000000000000000000000000000000000000000000000000
310
00000000000000000000000000000000000000000000000000000000000000000000000000000000000000000000000000000000000000000000000000000000000000000000000000000000000000000000000000000000000000000000000000000000000000000000000000000000000000000000000000000000000000
310
00000000000000000000000000000000000000000000000000000000000000000000000000000000000000000000000000000000000000000000000000000000000000000000000000000000000000000000000000000000000000000000000000000000000000000000000000000000000000000000000000000000000000
310
0000000000000000000000000000000000000000FFFFFF0000000000000000000000000000000000000000000000000000000000000000FFFFFFFFFFFF0000000000000000000000000000000000000000000000000000000000000000FFFFFFFFFFFF00000000000000000000000000000000000000000000000000000000
310
00000000FFFFFFFFFFFF0000000000000000000000000000000000000000000000000000000000000000FFFFFFFFFFFF0000000000FFFFFFFFFFFFFFFFFFFFFFFFFFFFFFFFFFFFFFFFFFFFFFFFFFFFFFFFFFFF000000000000000000000000000000000000000000FFFFFFFFFFFFFF00000000000000000000000000000000
310
00FFFFFFFFFFFFFFFF0000000000000000000000000000000000FFFFFFFFFFFFFF000000000000000000000000000000000000000000FFFFFFFF000000000000000000000000000000000000000000000000000000000000000000000000000000000000000000000000000000000000000000000000000000000000000000
310
00000000000000000000000000000000000000000000000000000000000000000000000000000000000000000000000000000000000000000000000000000000000000000000000000000000000000000000000000000000000000000000000000000000000000000000000000000000000000000000000000000000000000
310
00000000000000000000000000000000000000000000000000000000000000000000000000000000000000000000000000000000000000000000000000000000000000000000000000000000000000000000000000000000000000000000000000000000000000000000000000000000000000000000000000000000000000
310
0000000000000000000000000000000000000000000000000000000000000000000000000000000000000000000000000000000000000000
102
{BLKREFS
331
29032
102
}
  0
ENDTAB
  0
ENDSEC
  0
SECTION
  2
BLOCKS
  0
BLOCK
  5
20
330
1F
100
AcDbEntity
  8
0
100
AcDbBlockBegin
  2
*MODEL_SPACE
 70
     0
 10
0.0
 20
0.0
 30
0.0
  3
*MODEL_SPACE
  1

  0
ENDBLK
  5
21
330
1F
100
AcDbEntity
  8
0
100
AcDbBlockEnd
  0
BLOCK
  5
1C
330
1B
100
AcDbEntity
 67
     1
  8
0
100
AcDbBlockBegin
  2
*PAPER_SPACE
 70
     0
 10
0.0
 20
0.0
 30
0.0
  3
*PAPER_SPACE
  1

  0
ENDBLK
  5
1D
330
1B
100
AcDbEntity
 67
     1
  8
0
100
AcDbBlockEnd
  0
BLOCK
  5
35
330
31
100
AcDbEntity
  8
0
100
AcDbBlockBegin
  2
_OPEN
 70
     0
 10
0.0
 20
0.0
 30
0.0
  3
_OPEN
  1

  0
LINE
  5
32
330
31
100
AcDbEntity
  8
0
  6
ByBlock
 62
     0
100
AcDbLine
 10
-1.0
 20
0.1666666666666666
 30
0.0
 11
0.0
 21
0.0
 31
0.0
  0
LINE
  5
33
330
31
100
AcDbEntity
  8
0
  6
ByBlock
 62
     0
100
AcDbLine
 10
-1.0
 20
-0.1666666666666666
 30
0.0
 11
0.0
 21
0.0
 31
0.0
  0
LINE
  5
34
330
31
100
AcDbEntity
  8
0
  6
ByBlock
 62
     0
100
AcDbLine
 10
0.0
 20
0.0
 30
0.0
 11
-1.0
 21
0.0
 31
0.0
  0
ENDBLK
  5
36
330
31
100
AcDbEntity
  8
0
100
AcDbBlockEnd
  0
ENDSEC
  0
SECTION
  2
ENTITIES
  0
MTEXT
  5
74C
330
1F
100
AcDbEntity
  8
D-TTL-LINE
 62
     2
100
AcDbMText
 10
21100.96900863203
 20
11716.83874632694
 30
0.0
 40
140.0
 41
0.0
 71
     4
 72
     5
  1
 
 73
     1
 44
1.0
1001
ACAD
1000
MTEXTBEGIN
1070
    73
1070
     1
1070
    44
1040
1.0
1070
    74
1070
     0
1000
MTEXTEND
  0
MTEXT
  5
140A2
330
1F
100
AcDbEntity
  8
D-STR
 62
     2
100
AcDbMText
 10
133389.7438006938
 20
208126.6376526392
 30
0.0
 40
140.0
 41
0.0
 71
     4
 72
     1
  1
 
 73
     1
 44
1.0
1001
ACAD
1000
MTEXTBEGIN
1070
    73
1070
     1
1070
    44
1040
1.0
1070
    74
1070
     0
1000
MTEXTEND
  0
MTEXT
  5
170AD
330
1F
100
AcDbEntity
  8
D-STR
 62
     2
100
AcDbMText
 10
221722.4650715356
 20
207229.3774545898
 30
0.0
 40
140.0
 41
0.0
 71
     4
 72
     1
  1
 
 73
     1
 44
1.0
1001
ACAD
1000
MTEXTBEGIN
1070
    73
1070
     1
1070
    44
1040
1.0
1070
    74
1070
     0
1000
MTEXTEND
  0
LINE
  5
21BEC
330
1F
100
AcDbEntity
  8
D-TTL-FRAM
 48
20.0
100
AcDbLine
 10
16419.99993371339
 20
1599.999993589328
 30
0.0
 11
14419.99994172685
 21
1599.999993589328
 31
0.0
  0
LINE
  5
21BF3
330
1F
100
AcDbEntity
  8
D-TTL-FRAM
 48
20.0
100
AcDbLine
 10
14419.99994172685
 20
1599.999993589328
 30
0.0
 11
14419.99994172685
 21
399.9999983974072
 31
0.0
  0
TEXT
  5
2209C
330
1F
100
AcDbEntity
  8
D-TTL-TXT
  6
Continuous
100
AcDbText
 10
16012.30032772787
 20
11361.78187022015
 30
0.0
 40
69.9999997195286
  1
A4A13
 72
     4
 11
16168.96699376682
 21
11396.78187007991
 31
0.0
100
AcDbText
  0
LINE
  5
2209D
330
1F
100
AcDbEntity
  8
D-TTL-TXT
  6
Continuous
100
AcDbLine
 10
15679.99993667822
 20
11479.99995400271
 30
0.0
 11
16419.99993371327
 21
11479.99995400271
 31
0.0
  0
LINE
  5
2209E
330
1F
100
AcDbEntity
  8
D-TTL-TXT
  6
Continuous
100
AcDbLine
 10
15679.99993667822
 20
11319.9999546438
 30
0.0
 11
16419.99993371327
 21
11319.9999546438
 31
0.0
  0
TEXT
  5
220B9
330
1F
100
AcDbEntity
  8
D-TTL-TXT
  6
Continuous
100
AcDbText
 10
15731.42849647237
 20
11359.99995448351
 30
0.0
 40
69.9999997195286
  1
図番
100
AcDbText
  0
LINE
  5
220BA
330
1F
100
AcDbEntity
  8
D-TTL-TXT
  6
Continuous
100
AcDbLine
 10
15679.99993667822
 20
11479.99995400271
 30
0.0
 11
15679.99993667822
 21
11319.9999546438
 31
0.0
  0
LINE
  5
220BB
330
1F
100
AcDbEntity
  8
D-TTL-TXT
  6
Continuous
100
AcDbLine
 10
15919.99993571663
 20
11479.99995400271
 30
0.0
 11
15919.99993571663
 21
11319.9999546438
 31
0.0
  0
LINE
  5
220BC
330
1F
100
AcDbEntity
  8
D-TTL-TXT
  6
Continuous
100
AcDbLine
 10
16419.99993371327
 20
11479.99995400271
 30
0.0
 11
16419.99993371327
 21
11319.9999546438
 31
0.0
  0
TEXT
  5
220BD
330
1F
100
AcDbEntity
  8
D-TTL-TXT
100
AcDbText
 10
11748.45694671459
 20
11027.68936812968
 30
0.0
 40
99.99999000000102
  1
S = 1/20
100
AcDbText
  0
TEXT
  5
220BE
330
1F
100
AcDbEntity
  8
D-TTL-TXT
100
AcDbText
 10
4195.800114320402
 20
11035.6901673296
 30
0.0
 40
200.0
  1
Ｃ．Ｃ．ＢＯＸ　1,200×1,900×1,500　ＢＬタイプ　構造図　
100
AcDbText
  0
TEXT
  5
25AC3
330
1F
100
AcDbEntity
  8
D-STR-HTXT
100
AcDbText
 10
1365.759608711545
 20
4415.528717045277
 30
0.0
 40
70.0
  1
　　（セラミック）
100
AcDbText
  0
TEXT
  5
25AC4
330
1F
100
AcDbEntity
  8
D-STR-HTXT
100
AcDbText
 10
1358.011141417228
 20
4511.528916639488
 30
0.0
 40
70.0
  1
　インサート　Ｍ16
100
AcDbText
  0
LINE
  5
25AC5
330
1F
100
AcDbEntity
  8
D-STR-HTXT
  6
Continuous
100
AcDbLine
 10
2147.920606339983
 20
4495.52911670712
 30
0.0
 11
1428.507331526794
 21
4495.52911670712
 31
0.0
  0
LINE
  5
25AC6
330
1F
100
AcDbEntity
  8
D-STR-HTXT
  6
Continuous
100
AcDbLine
 10
2147.920606339983
 20
4495.52911670712
 30
0.0
 11
2456.231005036749
 21
4838.096315259108
 31
0.0
  0
LINE
  5
25ADD
330
1F
100
AcDbEntity
  8
D-STR-HTXT
  6
Continuous
100
AcDbLine
 10
2424.230205171989
 20
4813.083115364838
 30
0.0
 11
2456.231005036749
 21
4838.096315259108
 31
0.0
  0
LINE
  5
25AF3
330
1F
100
AcDbEntity
  8
D-STR-HTXT
  6
Continuous
100
AcDbLine
 10
2147.920606339983
 20
6045.528910155362
 30
0.0
 11
1797.216145565864
 21
6045.528910155362
 31
0.0
  0
LINE
  5
25AFC
330
1F
100
AcDbEntity
  8
D-STR-HTXT
  6
Continuous
100
AcDbLine
 10
2147.920606339983
 20
6045.528910155362
 30
0.0
 11
2397.920805283244
 21
6295.52850909863
 31
0.0
  0
TEXT
  5
25AFD
330
1F
100
AcDbEntity
  8
D-STR-HTXT
100
AcDbText
 10
1732.142822505557
 20
6061.528510087732
 30
0.0
 40
70.0
  1
　連結金具
100
AcDbText
  0
LINE
  5
25B02
330
1F
100
AcDbEntity
  8
D-STR-HTXT
  6
Continuous
100
AcDbLine
 10
2364.649205423873
 20
6272.231709197107
 30
0.0
 11
2397.920805283244
 21
6295.52850909863
 31
0.0
  0
TEXT
  5
25B14
330
1F
100
AcDbEntity
  8
D-STR-DIM
100
AcDbText
 10
5481.920592247385
 20
8233.669099638147
 30
0.0
 40
70.0
  1
250
 50
90.0
100
AcDbText
  0
LINE
  5
25B15
330
1F
100
AcDbEntity
  8
D-STR-DIM
  6
Continuous
100
AcDbLine
 10
5497.920592179736
 20
8195.528899799361
 30
0.0
 11
5497.920592179736
 21
8320.528699270992
 31
0.0
  0
LINE
  5
25B16
330
1F
100
AcDbEntity
  8
D-STR-DIM
  6
Continuous
100
AcDbLine
 10
8237.920400597934
 20
8195.528899799361
 30
0.0
 11
8237.920400597934
 21
8945.528896629154
 31
0.0
  0
LINE
  5
25B17
330
1F
100
AcDbEntity
  8
D-STR
  6
Continuous
100
AcDbLine
 10
7537.920383556786
 20
8195.528899799361
 30
0.0
 11
7537.920383556786
 21
9695.52889345895
 31
0.0
  0
LINE
  5
25B18
330
1F
100
AcDbEntity
  8
D-STR
  6
Continuous
100
AcDbLine
 10
5897.920390488966
 20
8195.528899799361
 30
0.0
 11
5897.920390488966
 21
9695.52889345895
 31
0.0
  0
LINE
  5
25B19
330
1F
100
AcDbEntity
  8
D-STR-DIM
  6
Continuous
100
AcDbLine
 10
5877.920390488966
 20
8195.528899799361
 30
0.0
 11
5467.920592306546
 21
8195.528899799361
 31
0.0
  0
CIRCLE
  5
25B7A
330
1F
100
AcDbEntity
  8
D-STR-DIM
  6
Continuous
100
AcDbCircle
 10
5497.920592179736
 20
8195.528899799361
 30
0.0
 40
5.999997974638371
  0
LINE
  5
25B88
330
1F
100
AcDbEntity
  8
D-STR-HTXT
  6
Continuous
100
AcDbLine
 10
7283.525136964351
 20
4295.529317552507
 30
0.0
 11
6415.420388301526
 21
4295.529317552507
 31
0.0
  0
LINE
  5
25B8B
330
1F
100
AcDbEntity
  8
D-STR-HTXT
  6
Continuous
100
AcDbLine
 10
6415.420388301526
 20
4295.529317552507
 30
0.0
 11
6680.420507181356
 21
4560.529716432367
 31
0.0
  0
TEXT
  5
25B9B
330
1F
100
AcDbEntity
  8
D-STR-HTXT
100
AcDbText
 10
6392.560588398148
 20
4215.528917890664
 30
0.0
 40
70.0
  1
　ピットバルブ　φ75
100
AcDbText
  0
TEXT
  5
25B9C
330
1F
100
AcDbEntity
  8
D-STR-HTXT
100
AcDbText
 10
6552.560587721837
 20
4311.52891748488
 30
0.0
 40
70.0
  1
　排水ピット
100
AcDbText
  0
LINE
  5
25BB3
330
1F
100
AcDbEntity
  8
D-STR-HTXT
  6
Continuous
100
AcDbLine
 10
6647.148907321986
 20
4537.231716530849
 30
0.0
 11
6680.420507181356
 21
4560.528716432371
 31
0.0
  0
LINE
  5
25BF6
330
1F
100
AcDbEntity
  8
D-STR-DIM
  6
Continuous
100
AcDbLine
 10
7217.919884909385
 20
7195.528705294385
 30
0.0
 11
6717.920047022835
 21
7195.528705294385
 31
0.0
  0
LINE
  5
25BF7
330
1F
100
AcDbEntity
  8
D-STR-DIM
  6
Continuous
100
AcDbLine
 10
7317.920484486673
 20
7495.529104026302
 30
0.0
 11
6717.920427022891
 21
7495.529104026302
 31
0.0
  0
LINE
  5
25BFA
330
1F
100
AcDbEntity
  8
D-STR
  6
Continuous
100
AcDbLine
 10
5897.920390488966
 20
8195.528899799361
 30
0.0
 11
7537.920383556786
 21
8195.528899799361
 31
0.0
  0
TEXT
  5
25BFB
330
1F
100
AcDbEntity
  8
D-STR-DIM
100
AcDbText
 10
6599.060587525298
 20
7211.528505226752
 30
0.0
 40
70.0
  1
1000
100
AcDbText
  0
TEXT
  5
25BFC
330
1F
100
AcDbEntity
  8
D-STR-DIM
100
AcDbText
 10
6066.175389777753
 20
7211.528505226752
 30
0.0
 40
70.0
  1
100
100
AcDbText
  0
LINE
  5
25BFD
330
1F
100
AcDbEntity
  8
D-STR-DIM
  6
Continuous
100
AcDbLine
 10
6117.920389559039
 20
6815.528906985159
 30
0.0
 11
6117.920389559039
 21
7525.52890389949
 31
0.0
  0
LINE
  5
25BFE
330
1F
100
AcDbEntity
  8
D-STR-DIM
  6
Continuous
100
AcDbLine
 10
5897.920390488966
 20
8165.529299926168
 30
0.0
 11
5897.920390488966
 21
6825.528506858353
 31
0.0
  0
LINE
  5
25BFF
330
1F
100
AcDbEntity
  8
D-STR-DIM
  6
Continuous
100
AcDbLine
 10
6217.920389136347
 20
7195.528705294385
 30
0.0
 11
6717.920047022835
 21
7195.528705294385
 31
0.0
  0
LINE
  5
25C09
330
1F
100
AcDbEntity
  8
D-STR-DIM
  6
Continuous
100
AcDbLine
 10
6217.920389136347
 20
6815.528906985159
 30
0.0
 11
6217.920389136347
 21
7225.528505167577
 31
0.0
  0
CIRCLE
  5
25C0A
330
1F
100
AcDbEntity
  8
D-STR-DIM
  6
Continuous
100
AcDbCircle
 10
6217.920389136347
 20
7195.528705294385
 30
0.0
 40
5.999997974638371
  0
CIRCLE
  5
25C0B
330
1F
100
AcDbEntity
  8
D-STR-DIM
  6
Continuous
100
AcDbCircle
 10
6117.920389559039
 20
7195.528705294385
 30
0.0
 40
5.999997974638371
  0
LINE
  5
25C0C
330
1F
100
AcDbEntity
  8
D-STR-DIM
  6
Continuous
100
AcDbLine
 10
6217.920389136347
 20
7195.528705294385
 30
0.0
 11
6167.920389347695
 21
7195.528705294385
 31
0.0
  0
LINE
  5
25C0D
330
1F
100
AcDbEntity
  8
D-STR-DIM
  6
Continuous
100
AcDbLine
 10
6117.920389559039
 20
7195.528705294385
 30
0.0
 11
6167.920389347695
 21
7195.528705294385
 31
0.0
  0
LINE
  5
25C0E
330
1F
100
AcDbEntity
  8
D-STR-DIM
  6
Continuous
100
AcDbLine
 10
6117.920389559039
 20
7495.529104026302
 30
0.0
 11
6717.920427022891
 21
7495.529104026302
 31
0.0
  0
LINE
  5
25C0F
330
1F
100
AcDbEntity
  8
D-STR-DIM
  6
Continuous
100
AcDbLine
 10
6117.920389559039
 20
7495.529104026302
 30
0.0
 11
6007.920390024003
 21
7495.529104026302
 31
0.0
  0
TEXT
  5
25C10
330
1F
100
AcDbEntity
  8
D-STR-DIM
100
AcDbText
 10
5931.060590348865
 20
7511.528903958669
 30
0.0
 40
70.0
  1
220
100
AcDbText
  0
LINE
  5
25C11
330
1F
100
AcDbEntity
  8
D-STR-DIM
  6
Continuous
100
AcDbLine
 10
5897.920390488966
 20
7495.529104026302
 30
0.0
 11
6007.920390024003
 21
7495.529104026302
 31
0.0
  0
CIRCLE
  5
25C12
330
1F
100
AcDbEntity
  8
D-STR-DIM
  6
Continuous
100
AcDbCircle
 10
5897.920390488966
 20
7495.529104026302
 30
0.0
 40
5.999997974638371
  0
CIRCLE
  5
25C13
330
1F
100
AcDbEntity
  8
D-STR-DIM
  6
Continuous
100
AcDbCircle
 10
6117.920389559039
 20
7495.529104026302
 30
0.0
 40
5.999997974638371
  0
TEXT
  5
25C14
330
1F
100
AcDbEntity
  8
D-STR-DIM
100
AcDbText
 10
6599.060587525298
 20
7511.528903958669
 30
0.0
 40
70.0
  1
1200
100
AcDbText
  0
TEXT
  5
25C15
330
1F
100
AcDbEntity
  8
D-STR-DIM
100
AcDbText
 10
7164.089065136924
 20
7211.528505226752
 30
0.0
 40
70.0
  1
100
100
AcDbText
  0
LINE
  5
25C16
330
1F
100
AcDbEntity
  8
D-STR-DIM
  6
Continuous
100
AcDbLine
 10
7317.920484486673
 20
6815.528906985159
 30
0.0
 11
7317.920484486673
 21
7525.52890389949
 31
0.0
  0
LINE
  5
25C17
330
1F
100
AcDbEntity
  8
D-STR-DIM
  6
Continuous
100
AcDbLine
 10
7537.920383556786
 20
8165.529299926168
 30
0.0
 11
7537.920383556786
 21
6825.528506858353
 31
0.0
  0
LINE
  5
25C3D
330
1F
100
AcDbEntity
  8
D-STR-DIM
  6
Continuous
100
AcDbLine
 10
7217.919884909385
 20
6815.528906985159
 30
0.0
 11
7217.919884909385
 21
7225.528505167577
 31
0.0
  0
LINE
  5
25C3F
330
1F
100
AcDbEntity
  8
D-STR-DIM
  6
Continuous
100
AcDbLine
 10
7217.919884909385
 20
7195.528705294385
 30
0.0
 11
7267.919864698029
 21
7195.528705294385
 31
0.0
  0
CIRCLE
  5
25C40
330
1F
100
AcDbEntity
  8
D-STR-DIM
  6
Continuous
100
AcDbCircle
 10
7217.919884909385
 20
7195.528705294385
 30
0.0
 40
5.999997974638371
  0
CIRCLE
  5
25C41
330
1F
100
AcDbEntity
  8
D-STR-DIM
  6
Continuous
100
AcDbCircle
 10
7317.919864486684
 20
7195.528705294385
 30
0.0
 40
5.999997974638371
  0
LINE
  5
25C42
330
1F
100
AcDbEntity
  8
D-STR-DIM
  6
Continuous
100
AcDbLine
 10
7317.919864486684
 20
7195.528705294385
 30
0.0
 11
7267.919864698029
 21
7195.528705294385
 31
0.0
  0
LINE
  5
25C53
330
1F
100
AcDbEntity
  8
D-STR-DIM
  6
Continuous
100
AcDbLine
 10
7557.920383556787
 20
8195.528899799361
 30
0.0
 11
8267.920420471135
 21
8195.528899799361
 31
0.0
  0
TEXT
  5
25C54
330
1F
100
AcDbEntity
  8
D-STR-DIM
100
AcDbText
 10
7331.060424431169
 20
7511.528903958669
 30
0.0
 40
70.0
  1
220
100
AcDbText
  0
LINE
  5
25C55
330
1F
100
AcDbEntity
  8
D-STR-DIM
  6
Continuous
100
AcDbLine
 10
7317.920484486673
 20
7495.529104026302
 30
0.0
 11
7427.920364021741
 21
7495.529104026302
 31
0.0
  0
CIRCLE
  5
25C56
330
1F
100
AcDbEntity
  8
D-STR-DIM
  6
Continuous
100
AcDbCircle
 10
7317.920484486673
 20
7495.529104026302
 30
0.0
 40
5.999997974638371
  0
CIRCLE
  5
25C57
330
1F
100
AcDbEntity
  8
D-STR-DIM
  6
Continuous
100
AcDbCircle
 10
7537.920383556786
 20
7495.529104026302
 30
0.0
 40
5.999997974638371
  0
LINE
  5
25C58
330
1F
100
AcDbEntity
  8
D-STR-DIM
  6
Continuous
100
AcDbLine
 10
7537.920383556786
 20
7495.529104026302
 30
0.0
 11
7427.920364021741
 21
7495.529104026302
 31
0.0
  0
CIRCLE
  5
25C59
330
1F
100
AcDbEntity
  8
D-STR-DIM
  6
Continuous
100
AcDbCircle
 10
8237.920400597934
 20
8195.528899799361
 30
0.0
 40
5.999997974638371
  0
LINE
  5
25C5A
330
1F
100
AcDbEntity
  8
D-STR-DIM
  6
Continuous
100
AcDbLine
 10
5877.920390488966
 20
9695.52889345895
 30
0.0
 11
5467.920592306546
 21
9695.52889345895
 31
0.0
  0
LINE
  5
25C5B
330
1F
100
AcDbEntity
  8
D-STR-DIM
  6
Continuous
100
AcDbLine
 10
5877.920390488966
 20
9445.529094515688
 30
0.0
 11
5467.920592306546
 21
9445.529094515688
 31
0.0
  0
LINE
  5
25C5C
330
1F
100
AcDbEntity
  8
D-STR-DIM
  6
Continuous
100
AcDbLine
 10
5877.920390488966
 20
8445.52849874263
 30
0.0
 11
5467.920592306546
 21
8445.52849874263
 31
0.0
  0
LINE
  5
25C5D
330
1F
100
AcDbEntity
  8
D-STR-DIM
  6
Continuous
100
AcDbLine
 10
5497.920592179736
 20
9695.52889345895
 30
0.0
 11
5497.920592179736
 21
9570.529093987317
 31
0.0
  0
TEXT
  5
25C5E
330
1F
100
AcDbEntity
  8
D-STR-DIM
100
AcDbText
 10
5481.920592247385
 20
8826.668897131568
 30
0.0
 40
70.0
  1
1000
 50
90.0
100
AcDbText
  0
LINE
  5
25C5F
330
1F
100
AcDbEntity
  8
D-STR-DIM
  6
Continuous
100
AcDbLine
 10
5497.920592179736
 20
9445.529094515688
 30
0.0
 11
5497.920592179736
 21
8945.528896629154
 31
0.0
  0
LINE
  5
25C60
330
1F
100
AcDbEntity
  8
D-STR-DIM
  6
Continuous
100
AcDbLine
 10
5497.920592179736
 20
8445.52849874263
 30
0.0
 11
5497.920592179736
 21
8945.528896629154
 31
0.0
  0
CIRCLE
  5
25C61
330
1F
100
AcDbEntity
  8
D-STR-DIM
  6
Continuous
100
AcDbCircle
 10
5497.920592179736
 20
8445.52849874263
 30
0.0
 40
5.999997974638371
  0
LINE
  5
25C62
330
1F
100
AcDbEntity
  8
D-STR-DIM
  6
Continuous
100
AcDbLine
 10
5497.920592179736
 20
8445.52849874263
 30
0.0
 11
5497.920592179736
 21
8320.528699270992
 31
0.0
  0
TEXT
  5
25C63
330
1F
100
AcDbEntity
  8
D-STR-DIM
100
AcDbText
 10
5481.920592247385
 20
9483.668294354474
 30
0.0
 40
70.0
  1
250
 50
90.0
100
AcDbText
  0
CIRCLE
  5
25C64
330
1F
100
AcDbEntity
  8
D-STR-DIM
  6
Continuous
100
AcDbCircle
 10
5497.920592179736
 20
9445.529094515688
 30
0.0
 40
5.999997974638371
  0
LINE
  5
25C65
330
1F
100
AcDbEntity
  8
D-STR-DIM
  6
Continuous
100
AcDbLine
 10
5497.920592179736
 20
9445.529094515688
 30
0.0
 11
5497.920592179736
 21
9570.529093987317
 31
0.0
  0
CIRCLE
  5
25C6B
330
1F
100
AcDbEntity
  8
D-STR-DIM
  6
Continuous
100
AcDbCircle
 10
5497.920592179736
 20
9695.52889345895
 30
0.0
 40
5.999997974638371
  0
LINE
  5
25C6C
330
1F
100
AcDbEntity
  8
D-STR-DIM
  6
Continuous
100
AcDbLine
 10
7067.92042554346
 20
10095.52869176817
 30
0.0
 11
7302.920404550125
 21
10095.52869176817
 31
0.0
  0
LINE
  5
25C6D
330
1F
100
AcDbEntity
  8
D-STR-HTXT
  6
Continuous
100
AcDbLine
 10
7098.288465415055
 20
9485.871294345164
 30
0.0
 11
7074.991385513555
 21
9452.599494485797
 31
0.0
  0
LINE
  5
25C6E
330
1F
100
AcDbEntity
  8
D-STR-HTXT
  6
Continuous
100
AcDbLine
 10
6376.9303884642
 20
9449.865494497355
 30
0.0
 11
7737.921002711388
 21
10095.52769176818
 31
0.0
  0
LINE
  5
25C6F
330
1F
100
AcDbEntity
  8
D-STR-HTXT
  6
Continuous
100
AcDbLine
 10
7074.992625513532
 20
9452.598494485801
 30
0.0
 11
7737.921622711375
 21
10095.52769176818
 31
0.0
  0
LINE
  5
25C70
330
1F
100
AcDbEntity
  8
D-BMK
  6
CENTER2
100
AcDbLine
 10
7107.920365374365
 20
8445.52849874263
 30
0.0
 11
7027.920365712517
 21
8445.52849874263
 31
0.0
  0
LINE
  5
25C71
330
1F
100
AcDbEntity
  8
D-BMK
  6
CENTER2
100
AcDbLine
 10
7107.920365374365
 20
9445.529094515688
 30
0.0
 11
7027.920365712517
 21
9445.529094515688
 31
0.0
  0
LINE
  5
25C72
330
1F
100
AcDbEntity
  8
D-STR
  6
Continuous
100
AcDbLine
 10
5897.920390488966
 20
9695.52889345895
 30
0.0
 11
7537.920383556786
 21
9695.52889345895
 31
0.0
  0
CIRCLE
  5
25C73
330
1F
100
AcDbEntity
  8
D-STR-STR2
  6
Continuous
100
AcDbCircle
 10
6367.9205885023
 20
8445.52849874263
 30
0.0
 40
9.999997957730611
  0
LINE
  5
25C74
330
1F
100
AcDbEntity
  8
D-BMK
  6
CENTER2
100
AcDbLine
 10
6367.9205885023
 20
8405.529298911702
 30
0.0
 11
6367.9205885023
 21
8485.528698573549
 31
0.0
  0
LINE
  5
25C75
330
1F
100
AcDbEntity
  8
D-BMK
  6
CENTER2
100
AcDbLine
 10
6407.920588333222
 20
8445.52849874263
 30
0.0
 11
6327.920388671384
 21
8445.52849874263
 31
0.0
  0
CIRCLE
  5
25C76
330
1F
100
AcDbEntity
  8
D-STR-STR2
  6
Continuous
100
AcDbCircle
 10
6367.9205885023
 20
9445.529094515688
 30
0.0
 40
9.999997957730611
  0
LINE
  5
25C77
330
1F
100
AcDbEntity
  8
D-STR-HTXT
  6
Continuous
100
AcDbLine
 10
6409.910788324811
 20
9473.574694397141
 30
0.0
 11
6376.9303884642
 21
9449.867494497349
 31
0.0
  0
LINE
  5
25C78
330
1F
100
AcDbEntity
  8
D-BMK
  6
CENTER2
100
AcDbLine
 10
6407.920588333222
 20
9445.529094515688
 30
0.0
 11
6327.920388671384
 21
9445.529094515688
 31
0.0
  0
LINE
  5
25C79
330
1F
100
AcDbEntity
  8
D-BMK
  6
CENTER2
100
AcDbLine
 10
6367.9205885023
 20
9485.528294346613
 30
0.0
 11
6367.9205885023
 21
9405.529094684764
 31
0.0
  0
CIRCLE
  5
25C7A
330
1F
100
AcDbEntity
  8
D-STR-STR2
  6
Continuous
100
AcDbCircle
 10
7067.92042554346
 20
8445.52849874263
 30
0.0
 40
9.999997957730611
  0
LINE
  5
25C7B
330
1F
100
AcDbEntity
  8
D-BMK
  6
CENTER2
100
AcDbLine
 10
7067.92042554346
 20
8405.529298911702
 30
0.0
 11
7067.92042554346
 21
8485.528698573549
 31
0.0
  0
CIRCLE
  5
25C7C
330
1F
100
AcDbEntity
  8
D-STR-STR2
  6
Continuous
100
AcDbCircle
 10
7067.92042554346
 20
9445.529094515688
 30
0.0
 40
9.999997957730611
  0
LINE
  5
25C7D
330
1F
100
AcDbEntity
  8
D-BMK
  6
CENTER2
100
AcDbLine
 10
7067.92042554346
 20
9485.528294346613
 30
0.0
 11
7067.92042554346
 21
9405.529094684764
 31
0.0
  0
LINE
  5
25C7E
330
1F
100
AcDbEntity
  8
D-STR-DIM
  6
Continuous
100
AcDbLine
 10
6367.9205885023
 20
10095.52869176817
 30
0.0
 11
6717.920427022891
 21
10095.52869176817
 31
0.0
  0
TEXT
  5
25C7F
330
1F
100
AcDbEntity
  8
D-STR-DIM
100
AcDbText
 10
6046.060589862769
 20
10111.52849170054
 30
0.0
 40
70.0
  1
470
100
AcDbText
  0
LINE
  5
25C80
330
1F
100
AcDbEntity
  8
D-STR-DIM
  6
Continuous
100
AcDbLine
 10
5897.920390488966
 20
10095.52869176817
 30
0.0
 11
6132.920589495633
 21
10095.52869176817
 31
0.0
  0
LINE
  5
25C81
330
1F
100
AcDbEntity
  8
D-STR-DIM
  6
Continuous
100
AcDbLine
 10
5897.920390488966
 20
9715.528893458952
 30
0.0
 11
5897.920390488966
 21
10125.52829164137
 31
0.0
  0
CIRCLE
  5
25C82
330
1F
100
AcDbEntity
  8
D-STR-DIM
  6
Continuous
100
AcDbCircle
 10
5897.920390488966
 20
10095.52869176817
 30
0.0
 40
5.999997974638371
  0
LINE
  5
25C83
330
1F
100
AcDbEntity
  8
D-STR-DIM
  6
Continuous
100
AcDbLine
 10
6367.9205885023
 20
9715.528893458952
 30
0.0
 11
6367.9205885023
 21
10125.52829164137
 31
0.0
  0
LINE
  5
25C84
330
1F
100
AcDbEntity
  8
D-STR-DIM
  6
Continuous
100
AcDbLine
 10
6367.9205885023
 20
10095.52869176817
 30
0.0
 11
6132.920589495633
 21
10095.52869176817
 31
0.0
  0
CIRCLE
  5
25C85
330
1F
100
AcDbEntity
  8
D-STR-DIM
  6
Continuous
100
AcDbCircle
 10
6367.9205885023
 20
10095.52869176817
 30
0.0
 40
5.999997974638371
  0
TEXT
  5
25C86
330
1F
100
AcDbEntity
  8
D-STR-DIM
100
AcDbText
 10
6631.060587390006
 20
10111.52849170054
 30
0.0
 40
70.0
  1
700
100
AcDbText
  0
LINE
  5
25C87
330
1F
100
AcDbEntity
  8
D-STR-DIM
  6
Continuous
100
AcDbLine
 10
7067.92042554346
 20
10095.52869176817
 30
0.0
 11
6717.920427022891
 21
10095.52869176817
 31
0.0
  0
LINE
  5
25C88
330
1F
100
AcDbEntity
  8
D-STR-DIM
  6
Continuous
100
AcDbLine
 10
7067.92042554346
 20
9715.528893458952
 30
0.0
 11
7067.92042554346
 21
10125.52829164137
 31
0.0
  0
CIRCLE
  5
25C89
330
1F
100
AcDbEntity
  8
D-STR-DIM
  6
Continuous
100
AcDbCircle
 10
7067.92042554346
 20
10095.52869176817
 30
0.0
 40
5.999997974638371
  0
LINE
  5
25C8A
330
1F
100
AcDbEntity
  8
D-STR-DIM
  6
Continuous
100
AcDbLine
 10
8237.920400597934
 20
9695.52889345895
 30
0.0
 11
8237.920400597934
 21
8945.528896629154
 31
0.0
  0
TEXT
  5
25C8B
330
1F
100
AcDbEntity
  8
D-STR-DIM
100
AcDbText
 10
8221.920400665506
 20
8826.668897131568
 30
0.0
 40
70.0
  1
1500
 50
90.0
100
AcDbText
  0
LINE
  5
25C8C
330
1F
100
AcDbEntity
  8
D-STR-DIM
  6
Continuous
100
AcDbLine
 10
7557.920383556787
 20
9695.52889345895
 30
0.0
 11
8267.920420471135
 21
9695.52889345895
 31
0.0
  0
LINE
  5
25C8D
330
1F
100
AcDbEntity
  8
D-STR-HTXT
  6
Continuous
100
AcDbLine
 10
7737.920442711343
 20
10095.52869176817
 30
0.0
 11
8445.477526219008
 21
10095.52869176817
 31
0.0
  0
LINE
  5
25C8E
330
1F
100
AcDbEntity
  8
D-STR-DIM
  6
Continuous
100
AcDbLine
 10
7537.920383556786
 20
10095.52869176817
 30
0.0
 11
7302.920404550125
 21
10095.52869176817
 31
0.0
  0
TEXT
  5
25C8F
330
1F
100
AcDbEntity
  8
D-STR-DIM
100
AcDbText
 10
7216.060404917262
 20
10111.52849170054
 30
0.0
 40
70.0
  1
470
100
AcDbText
  0
LINE
  5
25C90
330
1F
100
AcDbEntity
  8
D-STR-DIM
  6
Continuous
100
AcDbLine
 10
7537.920383556786
 20
9715.528893458952
 30
0.0
 11
7537.920383556786
 21
10125.52829164137
 31
0.0
  0
CIRCLE
  5
25C91
330
1F
100
AcDbEntity
  8
D-STR-DIM
  6
Continuous
100
AcDbCircle
 10
7537.920383556786
 20
10095.52869176817
 30
0.0
 40
5.999997974638371
  0
TEXT
  5
25C92
330
1F
100
AcDbEntity
  8
D-STR-HTXT
100
AcDbText
 10
7939.060381861207
 20
10015.52829210633
 30
0.0
 40
70.0
  1
Ｍ20
100
AcDbText
  0
TEXT
  5
25C93
330
1F
100
AcDbEntity
  8
D-STR-HTXT
100
AcDbText
 10
7715.060442807974
 20
10111.52849170054
 30
0.0
 40
70.0
  1
　吊り用インサート
100
AcDbText
  0
CIRCLE
  5
25C94
330
1F
100
AcDbEntity
  8
D-STR-DIM
  6
Continuous
100
AcDbCircle
 10
8237.920400597934
 20
9695.52889345895
 30
0.0
 40
5.999997974638371
  0
TEXT
  5
25CB4
330
1F
100
AcDbEntity
  8
D-STR-HTXT
100
AcDbText
 10
10589.87905065622
 20
6915.528506477929
 30
0.0
 40
70.0
  1
　　（セラミック）
100
AcDbText
  0
TEXT
  5
25CB5
330
1F
100
AcDbEntity
  8
D-STR-HTXT
100
AcDbText
 10
10589.87905065622
 20
7011.528506072142
 30
0.0
 40
70.0
  1
　インサート　Ｍ16
100
AcDbText
  0
LINE
  5
25CC2
330
1F
100
AcDbEntity
  8
D-STR-HTXT
  6
Continuous
100
AcDbLine
 10
11071.1917686218
 20
6272.231709197107
 30
0.0
 11
11037.92016876243
 21
6295.52850909863
 31
0.0
  0
LINE
  5
25CC3
330
1F
100
AcDbEntity
  8
D-STR-HTXT
  6
Continuous
100
AcDbLine
 10
11369.41106868716
 20
6995.528906139769
 30
0.0
 11
10612.73913055962
 21
6995.528906139769
 31
0.0
  0
LINE
  5
25CC5
330
1F
100
AcDbEntity
  8
D-STR-HTXT
  6
Continuous
100
AcDbLine
 10
11287.92016770569
 20
6045.528910155362
 30
0.0
 11
11037.92016876243
 21
6295.52850909863
 31
0.0
  0
LINE
  5
25D71
330
1F
100
AcDbEntity
  8
D-STR-HTXT
  6
Continuous
100
AcDbLine
 10
10244.1068921178
 20
6527.385108118588
 30
0.0
 11
10612.73913055962
 21
6995.528906139769
 31
0.0
  0
LINE
  5
25D72
330
1F
100
AcDbEntity
  8
D-STR-HTXT
  6
Continuous
100
AcDbLine
 10
10342.92033170013
 20
6528.189908115185
 30
0.0
 11
10612.73913055962
 21
6995.528906139769
 31
0.0
  0
LINE
  5
25D84
330
1F
100
AcDbEntity
  8
D-STR-HTXT
  6
Continuous
100
AcDbLine
 10
10263.31175203665
 20
6563.175907967302
 30
0.0
 11
10244.1068921178
 21
6527.385108118588
 31
0.0
  0
LINE
  5
25D85
330
1F
100
AcDbEntity
  8
D-STR-HTXT
  6
Continuous
100
AcDbLine
 10
10356.8121516414
 20
6566.356707953857
 30
0.0
 11
10342.92033170013
 21
6528.188908115187
 31
0.0
  0
TEXT
  5
25DC4
330
1F
100
AcDbEntity
  8
D-STR-HTXT
100
AcDbText
 10
11265.06016780232
 20
6061.528510087732
 30
0.0
 40
70.0
  1
　連結金具
100
AcDbText
  0
LINE
  5
25DC5
330
1F
100
AcDbEntity
  8
D-STR-HTXT
  6
Continuous
100
AcDbLine
 10
11287.92016770569
 20
6045.528910155362
 30
0.0
 11
11689.24788960391
 21
6045.528910155362
 31
0.0
  0
TEXT
  5
26768
330
1F
100
AcDbEntity
  8
D-TTL-TXT
100
AcDbText
 10
5155.559073286504
 20
10005.36421456047
 30
0.0
 40
140.0
  1
 頂　版　
100
AcDbText
  0
TEXT
  5
26769
330
1F
100
AcDbEntity
  8
D-TTL-TXT
100
AcDbText
 10
5155.559073286504
 20
7479.336508812251
 30
0.0
 40
140.0
  1
 断面図
100
AcDbText
  0
TEXT
  5
2676A
330
1F
100
AcDbEntity
  8
D-TTL-TXT
100
AcDbText
 10
5044.881874478726
 20
7247.927940130084
 30
0.0
 40
100.0
  1
　車　道　側　
100
AcDbText
  0
TEXT
  5
2676B
330
1F
100
AcDbEntity
  8
D-TTL-TXT
100
AcDbText
 10
5155.559073286503
 20
2960.98525274348
 30
0.0
 40
140.0
  1
 底　版　
100
AcDbText
  0
TEXT
  5
2676C
330
1F
100
AcDbEntity
  8
D-TTL-TXT
100
AcDbText
 10
2723.328584883794
 20
7829.863459919856
 30
0.0
 40
140.0
  1
側壁（車道側）
100
AcDbText
  0
TEXT
  5
2676D
330
1F
100
AcDbEntity
  8
D-TTL-TXT
100
AcDbText
 10
7653.046518270705
 20
7247.927940130084
 30
0.0
 40
100.0
  1
　民　地　側　
100
AcDbText
  0
TEXT
  5
2676E
330
1F
100
AcDbEntity
  8
D-TTL-TXT
100
AcDbText
 10
9774.458401367441
 20
7829.863459919856
 30
0.0
 40
140.0
  1
側壁（民地側）
100
AcDbText
  0
TEXT
  5
26779
330
1F
100
AcDbEntity
  8
D-TTL-TXT
100
AcDbText
 10
7015.840054270608
 20
10724.60112948968
 30
0.0
 40
200.0
  1
（横断管路用タイプ）
100
AcDbText
  0
TEXT
  5
26D0D
330
1F
100
AcDbEntity
  8
D-STR-DIM
100
AcDbText
 10
8021.920421510902
 20
6440.61070848538
 30
0.0
 40
70.0
  1
100
 50
90.0
100
AcDbText
  0
TEXT
  5
26D0E
330
1F
100
AcDbEntity
  8
D-STR-DIM
100
AcDbText
 10
8021.920421510902
 20
4641.814316088782
 30
0.0
 40
70.0
  1
100
 50
90.0
100
AcDbText
  0
TEXT
  5
26D0F
330
1F
100
AcDbEntity
  8
D-STR-DIM
100
AcDbText
 10
8021.920421510902
 20
5526.669112348555
 30
0.0
 40
70.0
  1
1700
 50
90.0
100
AcDbText
  0
LINE
  5
26D19
330
1F
100
AcDbEntity
  8
D-STR-DIM
  6
Continuous
100
AcDbLine
 10
7557.920383556787
 20
4695.529115861734
 30
0.0
 11
8367.92040004836
 21
4695.529115861734
 31
0.0
  0
LINE
  5
26D1A
330
1F
100
AcDbEntity
  8
D-STR-DIM
  6
Continuous
100
AcDbLine
 10
7807.920422499993
 20
4795.529515439037
 30
0.0
 11
8067.920421316449
 21
4795.529515439037
 31
0.0
  0
LINE
  5
26D1B
330
1F
100
AcDbEntity
  8
D-STR-DIM
  6
Continuous
100
AcDbLine
 10
7807.920422499993
 20
6495.528508253244
 30
0.0
 11
8067.920421316449
 21
6495.528508253244
 31
0.0
  0
LINE
  5
26D1C
330
1F
100
AcDbEntity
  8
D-STR-DIM
  6
Continuous
100
AcDbLine
 10
7557.920383556787
 20
6595.528907830547
 30
0.0
 11
8367.92040004836
 21
6595.528907830547
 31
0.0
  0
LINE
  5
26D20
330
1F
100
AcDbEntity
  8
D-STR-DIM
  6
Continuous
100
AcDbLine
 10
7567.92040342991
 20
6795.528906985158
 30
0.0
 11
9507.920375229714
 21
6795.528906985158
 31
0.0
  0
LINE
  5
26D21
330
1F
100
AcDbEntity
  8
D-STR-DIM
  6
Continuous
100
AcDbLine
 10
7567.92040342991
 20
4495.529116707121
 30
0.0
 11
9507.920375229714
 21
4495.529116707121
 31
0.0
  0
TEXT
  5
26DC3
330
1F
100
AcDbEntity
  8
D-STR-DIM
100
AcDbText
 10
2623.908604328012
 20
7211.528505226754
 30
0.0
 40
70.0
  1
125
100
AcDbText
  0
LINE
  5
26DC7
330
1F
100
AcDbEntity
  8
D-STR-DIM
  6
Continuous
100
AcDbLine
 10
2672.920804120837
 20
7495.529104026303
 30
0.0
 11
3147.92080211304
 21
7495.529104026303
 31
0.0
  0
LINE
  5
26DC8
330
1F
100
AcDbEntity
  8
D-STR-DIM
  6
Continuous
100
AcDbLine
 10
2797.920803592468
 20
7195.528705294385
 30
0.0
 11
2735.420803856654
 21
7195.528705294385
 31
0.0
  0
LINE
  5
26DCD
330
1F
100
AcDbEntity
  8
D-STR
  6
Continuous
100
AcDbLine
 10
2507.920804818281
 20
6495.528508253244
 30
0.0
 11
3037.920802578003
 21
6495.528508253244
 31
0.0
  0
LINE
  5
26DCE
330
1F
100
AcDbEntity
  8
D-STR
  6
Continuous
100
AcDbLine
 10
2507.920804818281
 20
4795.528515439041
 30
0.0
 11
2797.920803436933
 21
4795.528515439041
 31
0.0
  0
LINE
  5
26DCF
330
1F
100
AcDbEntity
  8
D-STR
  6
Continuous
100
AcDbLine
 10
2397.920805283244
 20
4695.529115861734
 30
0.0
 11
3897.920798942836
 21
4695.529115861734
 31
0.0
  0
LINE
  5
26DD0
330
1F
100
AcDbEntity
  8
D-STR
  6
Continuous
100
AcDbLine
 10
2397.920805283244
 20
6595.528907830547
 30
0.0
 11
3897.920798942836
 21
6595.528907830547
 31
0.0
  0
LINE
  5
26DD1
330
1F
100
AcDbEntity
  8
D-STR
  6
Continuous
100
AcDbLine
 10
2397.920805283244
 20
4495.529116707121
 30
0.0
 11
3897.920798942836
 21
4495.529116707121
 31
0.0
  0
LINE
  5
26DD2
330
1F
100
AcDbEntity
  8
D-STR
  6
Continuous
100
AcDbLine
 10
2397.920805283244
 20
6795.528906985158
 30
0.0
 11
3897.920798942836
 21
6795.528906985158
 31
0.0
  0
LINE
  5
26DD3
330
1F
100
AcDbEntity
  8
D-STR
  6
Continuous
100
AcDbLine
 10
2507.920804818281
 20
6595.528907830547
 30
0.0
 11
2507.920804818281
 21
4695.529115861734
 31
0.0
  0
LINE
  5
26DD4
330
1F
100
AcDbEntity
  8
D-STR
  6
Continuous
100
AcDbLine
 10
2397.920805283244
 20
6795.528906985158
 30
0.0
 11
2397.920805283244
 21
4495.529116707121
 31
0.0
  0
LINE
  5
26DD5
330
1F
100
AcDbEntity
  8
D-STR
  6
Continuous
100
AcDbLine
 10
2497.920804860551
 20
6585.52850787282
 30
0.0
 11
2497.920804860551
 21
4705.528715819464
 31
0.0
  0
LINE
  5
26DE7
330
1F
100
AcDbEntity
  8
D-STR
  6
Continuous
100
AcDbLine
 10
2397.920805283244
 20
4695.529115861734
 30
0.0
 11
2507.920804818281
 21
4695.529115861734
 31
0.0
  0
LINE
  5
26DE8
330
1F
100
AcDbEntity
  8
D-STR
  6
Continuous
100
AcDbLine
 10
2397.920805283244
 20
4705.528715819464
 30
0.0
 11
2497.920804860551
 21
4705.528715819464
 31
0.0
  0
LINE
  5
26DE9
330
1F
100
AcDbEntity
  8
D-STR
  6
Continuous
100
AcDbLine
 10
2497.920804860551
 20
4705.528715819464
 30
0.0
 11
2507.920804818281
 21
4695.529115861734
 31
0.0
  0
CIRCLE
  5
26DEB
330
1F
100
AcDbEntity
  8
D-STR-STR2
  6
Continuous
100
AcDbCircle
 10
2462.920805008493
 20
4845.529315227691
 30
0.0
 40
9.999997957730611
  0
LINE
  5
26DF0
330
1F
100
AcDbEntity
  8
D-BMK
  6
CENTER2
100
AcDbLine
 10
2502.920604839423
 20
4845.529315227691
 30
0.0
 11
2422.920805177572
 21
4845.529315227691
 31
0.0
  0
LINE
  5
26DF1
330
1F
100
AcDbEntity
  8
D-BMK
  6
CENTER2
100
AcDbLine
 10
2462.920805008493
 20
4885.528515058616
 30
0.0
 11
2462.920805008493
 21
4805.52911539677
 31
0.0
  0
LINE
  5
26DF4
330
1F
100
AcDbEntity
  8
D-STR-DIM
  6
Continuous
100
AcDbLine
 10
2397.920805283244
 20
6815.528906985159
 30
0.0
 11
2397.920805283244
 21
7525.528903899493
 31
0.0
  0
LINE
  5
26DF5
330
1F
100
AcDbEntity
  8
D-STR-DIM
  6
Continuous
100
AcDbLine
 10
2672.920804120837
 20
6815.528906985159
 30
0.0
 11
2672.920804120837
 21
7525.528903899493
 31
0.0
  0
LINE
  5
26DF7
330
1F
100
AcDbEntity
  8
D-STR-DIM
  6
Continuous
100
AcDbLine
 10
2337.920805283244
 20
6295.528509098631
 30
0.0
 11
1967.920807100829
 21
6295.528509098631
 31
0.0
  0
LINE
  5
26DF8
330
1F
100
AcDbEntity
  8
D-STR-DIM
  6
Continuous
100
AcDbLine
 10
2377.920805283244
 20
6595.528907830547
 30
0.0
 11
1967.920807100829
 21
6595.528907830547
 31
0.0
  0
TEXT
  5
26DFA
330
1F
100
AcDbEntity
  8
D-STR-DIM
100
AcDbText
 10
1981.920807041592
 20
6358.669108831742
 30
0.0
 40
70.0
  1
300
 50
90.0
100
AcDbText
  0
LINE
  5
26DFB
330
1F
100
AcDbEntity
  8
D-STR-DIM
  6
Continuous
100
AcDbLine
 10
1997.920406974033
 20
6595.528907830547
 30
0.0
 11
1997.920406974033
 21
6445.52870846459
 31
0.0
  0
CIRCLE
  5
26DFC
330
1F
100
AcDbEntity
  8
D-STR-DIM
  6
Continuous
100
AcDbCircle
 10
1997.920406974033
 20
6295.528509098631
 30
0.0
 40
5.999997974638371
  0
LINE
  5
26DFD
330
1F
100
AcDbEntity
  8
D-STR-DIM
  6
Continuous
100
AcDbLine
 10
1997.920406974033
 20
6295.528509098631
 30
0.0
 11
1997.920406974033
 21
6445.52870846459
 31
0.0
  0
CIRCLE
  5
26DFE
330
1F
100
AcDbEntity
  8
D-STR-DIM
  6
Continuous
100
AcDbCircle
 10
1997.920406974033
 20
6595.528907830547
 30
0.0
 40
5.999997974638371
  0
LINE
  5
26DFF
330
1F
100
AcDbEntity
  8
D-BMK
  6
CENTER2
100
AcDbLine
 10
2462.920805008493
 20
6485.528908295511
 30
0.0
 11
2462.920805008493
 21
6405.528508633668
 31
0.0
  0
LINE
  5
26E01
330
1F
100
AcDbEntity
  8
D-BMK
  6
CENTER2
100
AcDbLine
 10
2367.920805410053
 20
6295.528509098631
 30
0.0
 11
2511.920804801317
 21
6295.528509098631
 31
0.0
  0
LINE
  5
26E02
330
1F
100
AcDbEntity
  8
D-STR-STR2
  6
Continuous
100
AcDbLine
 10
2397.920805283244
 20
6345.529308887281
 30
0.0
 11
2481.920604928128
 21
6345.529308887281
 31
0.0
  0
LINE
  5
26E03
330
1F
100
AcDbEntity
  8
D-STR-STR2
  6
Continuous
100
AcDbLine
 10
2481.920604928128
 20
6245.528909309976
 30
0.0
 11
2397.920805283244
 21
6245.528909309976
 31
0.0
  0
CIRCLE
  5
26E08
330
1F
100
AcDbEntity
  8
D-STR-STR2
  6
Continuous
100
AcDbCircle
 10
2462.920805008493
 20
6445.52870846459
 30
0.0
 40
9.999997957730611
  0
LINE
  5
26E09
330
1F
100
AcDbEntity
  8
D-BMK
  6
CENTER2
100
AcDbLine
 10
2422.920805177572
 20
6445.52870846459
 30
0.0
 11
2502.920604839423
 21
6445.52870846459
 31
0.0
  0
LINE
  5
26E0A
330
1F
100
AcDbEntity
  8
D-STR-STR2
  6
Continuous
100
AcDbLine
 10
2481.920604928128
 20
6345.529308887281
 30
0.0
 11
2481.920604928128
 21
6245.528909309976
 31
0.0
  0
LINE
  5
26E0E
330
1F
100
AcDbEntity
  8
D-STR
  6
Continuous
100
AcDbLine
 10
2397.920805283244
 20
6585.52850787282
 30
0.0
 11
2497.920804860551
 21
6585.52850787282
 31
0.0
  0
LINE
  5
26E0F
330
1F
100
AcDbEntity
  8
D-STR
  6
Continuous
100
AcDbLine
 10
2397.920805283244
 20
6595.528907830547
 30
0.0
 11
2507.920804818281
 21
6595.528907830547
 31
0.0
  0
LINE
  5
26E10
330
1F
100
AcDbEntity
  8
D-STR
  6
Continuous
100
AcDbLine
 10
2507.920804818281
 20
6595.528907830547
 30
0.0
 11
2497.919404860521
 21
6585.52850787282
 31
0.0
  0
LINE
  5
26E11
330
1F
100
AcDbEntity
  8
D-STR-DIM
  6
Continuous
100
AcDbLine
 10
2397.920805283244
 20
7495.529104026303
 30
0.0
 11
2535.42080470204
 21
7495.529104026303
 31
0.0
  0
CIRCLE
  5
26E12
330
1F
100
AcDbEntity
  8
D-STR-DIM
  6
Continuous
100
AcDbCircle
 10
2397.920805283244
 20
7495.529104026303
 30
0.0
 40
5.999997974638371
  0
CIRCLE
  5
26E13
330
1F
100
AcDbEntity
  8
D-STR-DIM
  6
Continuous
100
AcDbCircle
 10
2672.920804120837
 20
7195.528705294385
 30
0.0
 40
5.999997974638371
  0
LINE
  5
26E14
330
1F
100
AcDbEntity
  8
D-STR-DIM
  6
Continuous
100
AcDbLine
 10
2672.920804120837
 20
7195.528705294385
 30
0.0
 11
2735.420803856654
 21
7195.528705294385
 31
0.0
  0
TEXT
  5
26E15
330
1F
100
AcDbEntity
  8
D-STR-DIM
100
AcDbText
 10
2448.560805069178
 20
7511.528903958671
 30
0.0
 40
70.0
  1
275
100
AcDbText
  0
LINE
  5
26E16
330
1F
100
AcDbEntity
  8
D-STR-DIM
  6
Continuous
100
AcDbLine
 10
2672.920804120837
 20
7495.529104026303
 30
0.0
 11
2535.42080470204
 21
7495.529104026303
 31
0.0
  0
CIRCLE
  5
26E17
330
1F
100
AcDbEntity
  8
D-STR-DIM
  6
Continuous
100
AcDbCircle
 10
2672.920804120837
 20
7495.529104026303
 30
0.0
 40
5.999997974638371
  0
LINE
  5
26E1D
330
1F
100
AcDbEntity
  8
D-STR-DIM
  6
Continuous
100
AcDbLine
 10
5867.92059061577
 20
4495.529116707121
 30
0.0
 11
3927.920398816037
 21
4495.529116707121
 31
0.0
  0
LINE
  5
26E1E
330
1F
100
AcDbEntity
  8
D-STR-DIM
  6
Continuous
100
AcDbLine
 10
5867.92059061577
 20
6795.528906985158
 30
0.0
 11
3927.920398816037
 21
6795.528906985158
 31
0.0
  0
LINE
  5
26E21
330
1F
100
AcDbEntity
  8
D-STR-DIM
  6
Continuous
100
AcDbLine
 10
5097.920793870508
 20
6795.528906985158
 30
0.0
 11
5097.920793870508
 21
5645.529111846141
 31
0.0
  0
LINE
  5
26E24
330
1F
100
AcDbEntity
  8
D-STR
  6
Continuous
100
AcDbLine
 10
3797.92039936554
 20
6585.52850787282
 30
0.0
 11
3797.92039936554
 21
4705.528715819464
 31
0.0
  0
LINE
  5
26E27
330
1F
100
AcDbEntity
  8
D-STR
  6
Continuous
100
AcDbLine
 10
3897.920798942836
 20
6795.528906985158
 30
0.0
 11
3897.920798942836
 21
4495.529116707121
 31
0.0
  0
LINE
  5
26E2A
330
1F
100
AcDbEntity
  8
D-STR
  6
Continuous
100
AcDbLine
 10
3787.920799407799
 20
6595.528907830547
 30
0.0
 11
3787.920799407799
 21
4695.529115861734
 31
0.0
  0
LINE
  5
26E40
330
1F
100
AcDbEntity
  8
D-STR
  6
Continuous
100
AcDbLine
 10
3497.920400789154
 20
4795.528515439041
 30
0.0
 11
3787.920799407799
 21
4795.528515439041
 31
0.0
  0
LINE
  5
26E64
330
1F
100
AcDbEntity
  8
D-STR
  6
Continuous
100
AcDbLine
 10
3897.920798942836
 20
4705.528715819464
 30
0.0
 11
3797.92039936554
 21
4705.528715819464
 31
0.0
  0
LINE
  5
26E65
330
1F
100
AcDbEntity
  8
D-STR
  6
Continuous
100
AcDbLine
 10
3897.920798942836
 20
4695.529115861734
 30
0.0
 11
3787.920799407799
 21
4695.529115861734
 31
0.0
  0
LINE
  5
26E66
330
1F
100
AcDbEntity
  8
D-STR
  6
Continuous
100
AcDbLine
 10
3797.92039936554
 20
4705.529715819462
 30
0.0
 11
3787.920799407799
 21
4695.529115861734
 31
0.0
  0
CIRCLE
  5
26E69
330
1F
100
AcDbEntity
  8
D-STR-STR2
  6
Continuous
100
AcDbCircle
 10
3832.920799217588
 20
4845.529315227691
 30
0.0
 40
9.999997957730611
  0
LINE
  5
26E6D
330
1F
100
AcDbEntity
  8
D-BMK
  6
CENTER2
100
AcDbLine
 10
3872.920399048518
 20
4845.529315227691
 30
0.0
 11
3792.920599386671
 21
4845.529315227691
 31
0.0
  0
LINE
  5
26E6E
330
1F
100
AcDbEntity
  8
D-BMK
  6
CENTER2
100
AcDbLine
 10
3832.920799217588
 20
4885.528515058616
 30
0.0
 11
3832.920799217588
 21
4805.52911539677
 31
0.0
  0
LINE
  5
26E75
330
1F
100
AcDbEntity
  8
D-STR-DIM
  6
Continuous
100
AcDbLine
 10
5097.920793870508
 20
4495.529116707121
 30
0.0
 11
5097.920793870508
 21
5645.529111846141
 31
0.0
  0
CIRCLE
  5
26E76
330
1F
100
AcDbEntity
  8
D-STR-DIM
  6
Continuous
100
AcDbCircle
 10
5097.920793870508
 20
4495.529116707121
 30
0.0
 40
5.999997974638371
  0
TEXT
  5
26E77
330
1F
100
AcDbEntity
  8
D-STR-DIM
100
AcDbText
 10
5081.920593938084
 20
5526.669112348555
 30
0.0
 40
70.0
  1
2300
 50
90.0
100
AcDbText
  0
LINE
  5
26E7E
330
1F
100
AcDbEntity
  8
D-STR-DIM
  6
Continuous
100
AcDbLine
 10
3622.920800105243
 20
6815.528906985157
 30
0.0
 11
3622.920800105243
 21
7525.528903899493
 31
0.0
  0
LINE
  5
26E7F
330
1F
100
AcDbEntity
  8
D-STR-DIM
  6
Continuous
100
AcDbLine
 10
3897.920798942837
 20
6815.528906985157
 30
0.0
 11
3897.920798942836
 21
7525.528903899493
 31
0.0
  0
LINE
  5
26E80
330
1F
100
AcDbEntity
  8
D-STR-DIM
  6
Continuous
100
AcDbLine
 10
2797.920803592468
 20
6815.528906985159
 30
0.0
 11
2797.920803592468
 21
7225.528505167578
 31
0.0
  0
LINE
  5
26E81
330
1F
100
AcDbEntity
  8
D-STR-DIM
  6
Continuous
100
AcDbLine
 10
3497.920400633623
 20
6815.528906985159
 30
0.0
 11
3497.920400633623
 21
7225.528505167578
 31
0.0
  0
LINE
  5
26E86
330
1F
100
AcDbEntity
  8
D-STR
  6
Continuous
100
AcDbLine
 10
3257.920801648077
 20
6495.528508253244
 30
0.0
 11
3787.920799407799
 21
6495.528508253244
 31
0.0
  0
LINE
  5
26EA3
330
1F
100
AcDbEntity
  8
D-BMK
  6
CENTER2
100
AcDbLine
 10
3832.920799217588
 20
6485.528908295511
 30
0.0
 11
3832.920799217588
 21
6405.528508633668
 31
0.0
  0
LINE
  5
26EAF
330
1F
100
AcDbEntity
  8
D-BMK
  6
CENTER2
100
AcDbLine
 10
3927.920398816037
 20
6295.528509098631
 30
0.0
 11
3783.920399424704
 21
6295.528509098631
 31
0.0
  0
LINE
  5
26EB0
330
1F
100
AcDbEntity
  8
D-STR-STR2
  6
Continuous
100
AcDbLine
 10
3813.920599297889
 20
6245.528909309976
 30
0.0
 11
3897.920798942836
 21
6245.528909309976
 31
0.0
  0
LINE
  5
26EB1
330
1F
100
AcDbEntity
  8
D-STR-STR2
  6
Continuous
100
AcDbLine
 10
3897.920798942836
 20
6345.529308887281
 30
0.0
 11
3813.920599297889
 21
6345.529308887281
 31
0.0
  0
CIRCLE
  5
26EB2
330
1F
100
AcDbEntity
  8
D-STR-STR2
  6
Continuous
100
AcDbCircle
 10
3832.920799217588
 20
6445.52870846459
 30
0.0
 40
9.999997957730611
  0
LINE
  5
26EB3
330
1F
100
AcDbEntity
  8
D-BMK
  6
CENTER2
100
AcDbLine
 10
3792.920599386671
 20
6445.52870846459
 30
0.0
 11
3872.920399048518
 21
6445.52870846459
 31
0.0
  0
LINE
  5
26EB4
330
1F
100
AcDbEntity
  8
D-STR-STR2
  6
Continuous
100
AcDbLine
 10
3813.920599297889
 20
6345.529308887281
 30
0.0
 11
3813.920599297889
 21
6245.528909309976
 31
0.0
  0
LINE
  5
26EBB
330
1F
100
AcDbEntity
  8
D-STR
  6
Continuous
100
AcDbLine
 10
3897.920798942836
 20
6595.528907830547
 30
0.0
 11
3787.920799407799
 21
6595.528907830547
 31
0.0
  0
LINE
  5
26EBC
330
1F
100
AcDbEntity
  8
D-STR
  6
Continuous
100
AcDbLine
 10
3897.920798942836
 20
6585.52850787282
 30
0.0
 11
3797.92039936554
 21
6585.52850787282
 31
0.0
  0
LINE
  5
26EBD
330
1F
100
AcDbEntity
  8
D-STR
  6
Continuous
100
AcDbLine
 10
3787.919399407766
 20
6595.529907830545
 30
0.0
 11
3797.919399365499
 21
6585.529507872815
 31
0.0
  0
LINE
  5
26EBF
330
1F
100
AcDbEntity
  8
D-STR-DIM
  6
Continuous
100
AcDbLine
 10
3622.920800105243
 20
7495.529104026303
 30
0.0
 11
3147.92080211304
 21
7495.529104026303
 31
0.0
  0
LINE
  5
26EC0
330
1F
100
AcDbEntity
  8
D-STR-DIM
  6
Continuous
100
AcDbLine
 10
3497.920400633623
 20
7195.528705294385
 30
0.0
 11
3147.92080211304
 21
7195.528705294385
 31
0.0
  0
TEXT
  5
26EC1
330
1F
100
AcDbEntity
  8
D-STR-DIM
100
AcDbText
 10
3061.060802480177
 20
7511.528903958671
 30
0.0
 40
70.0
  1
950
100
AcDbText
  0
TEXT
  5
26EC2
330
1F
100
AcDbEntity
  8
D-STR-DIM
100
AcDbText
 10
3061.060802480177
 20
7211.528505226754
 30
0.0
 40
70.0
  1
700
100
AcDbText
  0
LINE
  5
26EC3
330
1F
100
AcDbEntity
  8
D-STR-DIM
  6
Continuous
100
AcDbLine
 10
2797.920803592468
 20
7195.528705294385
 30
0.0
 11
3147.92080211304
 21
7195.528705294385
 31
0.0
  0
CIRCLE
  5
26EC4
330
1F
100
AcDbEntity
  8
D-STR-DIM
  6
Continuous
100
AcDbCircle
 10
2797.920803592468
 20
7195.528705294385
 30
0.0
 40
5.999997974638371
  0
TEXT
  5
26EC6
330
1F
100
AcDbEntity
  8
D-STR-DIM
100
AcDbText
 10
3673.560599891182
 20
7511.528903958671
 30
0.0
 40
70.0
  1
275
100
AcDbText
  0
LINE
  5
26EC7
330
1F
100
AcDbEntity
  8
D-STR-DIM
  6
Continuous
100
AcDbLine
 10
3622.920800105243
 20
7495.529104026303
 30
0.0
 11
3760.42079952404
 21
7495.529104026303
 31
0.0
  0
TEXT
  5
26EC8
330
1F
100
AcDbEntity
  8
D-STR-DIM
100
AcDbText
 10
3512.657200571288
 20
7211.528505226754
 30
0.0
 40
70.0
  1
125
100
AcDbText
  0
LINE
  5
26EC9
330
1F
100
AcDbEntity
  8
D-STR-DIM
  6
Continuous
100
AcDbLine
 10
3622.920800105243
 20
7195.528705294385
 30
0.0
 11
3560.42040036944
 21
7195.528705294385
 31
0.0
  0
CIRCLE
  5
26ECA
330
1F
100
AcDbEntity
  8
D-STR-DIM
  6
Continuous
100
AcDbCircle
 10
3497.920400633623
 20
7195.528705294385
 30
0.0
 40
5.999997974638371
  0
LINE
  5
26ECB
330
1F
100
AcDbEntity
  8
D-STR-DIM
  6
Continuous
100
AcDbLine
 10
3497.920400633623
 20
7195.528705294385
 30
0.0
 11
3560.42040036944
 21
7195.528705294385
 31
0.0
  0
CIRCLE
  5
26ECC
330
1F
100
AcDbEntity
  8
D-STR-DIM
  6
Continuous
100
AcDbCircle
 10
3622.920800105243
 20
7195.528705294385
 30
0.0
 40
5.999997974638371
  0
CIRCLE
  5
26ECD
330
1F
100
AcDbEntity
  8
D-STR-DIM
  6
Continuous
100
AcDbCircle
 10
3622.920800105243
 20
7495.529104026303
 30
0.0
 40
5.999997974638371
  0
CIRCLE
  5
26ECE
330
1F
100
AcDbEntity
  8
D-STR-DIM
  6
Continuous
100
AcDbCircle
 10
3897.920798942836
 20
7495.529104026303
 30
0.0
 40
5.999997974638371
  0
LINE
  5
26ECF
330
1F
100
AcDbEntity
  8
D-STR-DIM
  6
Continuous
100
AcDbLine
 10
3897.920798942836
 20
7495.529104026303
 30
0.0
 11
3760.42079952404
 21
7495.529104026303
 31
0.0
  0
CIRCLE
  5
26EDD
330
1F
100
AcDbEntity
  8
D-STR-DIM
  6
Continuous
100
AcDbCircle
 10
5097.920793870508
 20
6795.528906985158
 30
0.0
 40
5.999997974638371
  0
LINE
  5
26EE4
330
1F
100
AcDbEntity
  8
D-STR-DIM
  6
Continuous
100
AcDbLine
 10
7787.920422499992
 20
6519.529108151797
 30
0.0
 11
7787.920422499992
 21
5649.029111831348
 31
0.0
  0
LINE
  5
26EE5
330
1F
100
AcDbEntity
  8
D-STR
  6
Continuous
100
AcDbLine
 10
7317.920484486673
 20
4795.528515439041
 30
0.0
 11
7317.920484486673
 21
6495.528508253244
 31
0.0
  0
LINE
  5
26EE6
330
1F
100
AcDbEntity
  8
D-STR
  6
Continuous
100
AcDbLine
 10
6117.920389559039
 20
4795.528515439041
 30
0.0
 11
6117.920389559039
 21
6495.528508253244
 31
0.0
  0
LINE
  5
26EE7
330
1F
100
AcDbEntity
  8
D-STR
  6
Continuous
100
AcDbLine
 10
7537.920383556786
 20
4495.529116707121
 30
0.0
 11
7537.920383556786
 21
6795.528906985158
 31
0.0
  0
LINE
  5
26EE8
330
1F
100
AcDbEntity
  8
D-STR
  6
Continuous
100
AcDbLine
 10
5897.920390488966
 20
4495.529116707121
 30
0.0
 11
5897.920390488966
 21
6795.528906985158
 31
0.0
  0
LINE
  5
26EE9
330
1F
100
AcDbEntity
  8
D-STR
  6
Continuous
100
AcDbLine
 10
7402.920364127417
 20
5670.529511740465
 30
0.0
 11
7402.920364127417
 21
5920.529110683732
 31
0.0
  0
LINE
  5
26EEA
330
1F
100
AcDbEntity
  8
D-STR
  6
Continuous
100
AcDbLine
 10
7452.920483916037
 20
5670.529511740465
 30
0.0
 11
7452.920483916037
 21
5920.529110683732
 31
0.0
  0
LINE
  5
26EEB
330
1F
100
AcDbEntity
  8
D-STR
  6
Continuous
100
AcDbLine
 10
6092.920589664707
 20
4695.529115861734
 30
0.0
 11
6092.920589664707
 21
6595.528907830547
 31
0.0
  0
LINE
  5
26EEC
330
1F
100
AcDbEntity
  8
D-STR
  6
Continuous
100
AcDbLine
 10
7342.920464380994
 20
4695.529115861734
 30
0.0
 11
7342.920464380994
 21
6595.528907830547
 31
0.0
  0
TEXT
  5
26EEE
330
1F
100
AcDbEntity
  8
D-STR-DIM
100
AcDbText
 10
6599.060587525226
 20
5111.528714103329
 30
0.0
 40
70.0
  1
φ300
100
AcDbText
  0
LINE
  5
26EF3
330
1F
100
AcDbEntity
  8
D-STR-DIM
  6
Continuous
100
AcDbLine
 10
6567.92058765691
 20
5095.528914170956
 30
0.0
 11
6717.920427022818
 21
5095.528914170956
 31
0.0
  0
LINE
  5
26EF6
330
1F
100
AcDbEntity
  8
D-STR
  6
Continuous
100
AcDbLine
 10
5897.920390488966
 20
4495.529116707121
 30
0.0
 11
7537.920383556786
 21
4495.529116707121
 31
0.0
  0
LINE
  5
26EF7
330
1F
100
AcDbEntity
  8
D-STR
  6
Continuous
100
AcDbLine
 10
6217.920389136347
 20
4695.529115861734
 30
0.0
 11
7217.920384909408
 21
4695.529115861734
 31
0.0
  0
LINE
  5
26EF8
330
1F
100
AcDbEntity
  8
D-STR-STR2
  6
Continuous
100
AcDbLine
 10
6567.92058765691
 20
4625.529316157618
 30
0.0
 11
6867.920506388803
 21
4625.529316157618
 31
0.0
  0
CIRCLE
  5
26F0C
330
1F
100
AcDbEntity
  8
D-STR-DIM
  6
Continuous
100
AcDbCircle
 10
6567.92058765691
 20
5095.528914170956
 30
0.0
 40
5.999997974638371
  0
CIRCLE
  5
26F0D
330
1F
100
AcDbEntity
  8
D-STR-DIM
  6
Continuous
100
AcDbCircle
 10
6547.920387741455
 20
5095.528914170956
 30
0.0
 40
5.999997974638371
  0
CIRCLE
  5
26F0E
330
1F
100
AcDbEntity
  8
D-STR-DIM
  6
Continuous
100
AcDbCircle
 10
6117.920389559039
 20
5095.528914170956
 30
0.0
 40
5.999997974638371
  0
CIRCLE
  5
26F0F
330
1F
100
AcDbEntity
  8
D-STR-DIM
  6
Continuous
100
AcDbCircle
 10
6092.920589664707
 20
5095.528914170956
 30
0.0
 40
5.999997974638371
  0
LINE
  5
26F10
330
1F
100
AcDbEntity
  8
D-STR-DIM
  6
Continuous
100
AcDbLine
 10
6567.92058765691
 20
4715.529115861733
 30
0.0
 11
6567.92058765691
 21
5125.52871404415
 31
0.0
  0
LINE
  5
26F11
330
1F
100
AcDbEntity
  8
D-STR-DIM
  6
Continuous
100
AcDbLine
 10
6547.920387741455
 20
4715.529115861733
 30
0.0
 11
6547.920387741455
 21
5125.52871404415
 31
0.0
  0
LINE
  5
26F12
330
1F
100
AcDbEntity
  8
D-STR
  6
Continuous
100
AcDbLine
 10
6217.920389136347
 20
4695.529115861734
 30
0.0
 11
6117.921789559001
 21
4795.528515439041
 31
0.0
  0
LINE
  5
26F13
330
1F
100
AcDbEntity
  8
D-STR
  6
Continuous
100
AcDbLine
 10
6092.921789664673
 20
4695.528115861738
 30
0.0
 11
6217.921589136313
 21
4695.528115861738
 31
0.0
  0
LINE
  5
26F14
330
1F
100
AcDbEntity
  8
D-STR-DIM
  6
Continuous
100
AcDbLine
 10
6105.420589611873
 20
5095.528914170956
 30
0.0
 11
6247.290789012172
 21
5095.528914170956
 31
0.0
  0
LINE
  5
26F15
330
1F
100
AcDbEntity
  8
D-STR-DIM
  6
Continuous
100
AcDbLine
 10
6117.920389559039
 20
5095.528914170956
 30
0.0
 11
6105.420589611873
 21
5095.528914170956
 31
0.0
  0
LINE
  5
26F16
330
1F
100
AcDbEntity
  8
D-STR-DIM
  6
Continuous
100
AcDbLine
 10
6092.920589664707
 20
5095.528914170956
 30
0.0
 11
6105.420589611873
 21
5095.528914170956
 31
0.0
  0
LINE
  5
26F17
330
1F
100
AcDbEntity
  8
D-BMK
  6
CENTER2
100
AcDbLine
 10
6417.920588290951
 20
4725.528715734926
 30
0.0
 11
6417.920588290951
 21
4581.528716343606
 31
0.0
  0
LINE
  5
26F18
330
1F
100
AcDbEntity
  8
D-STR-STR2
  6
Continuous
100
AcDbLine
 10
6467.920588079607
 20
4611.528316216799
 30
0.0
 11
6467.920588079607
 21
4695.529115861734
 31
0.0
  0
LINE
  5
26F19
330
1F
100
AcDbEntity
  8
D-STR-STR2
  6
Continuous
100
AcDbLine
 10
6367.9205885023
 20
4695.529115861734
 30
0.0
 11
6367.9205885023
 21
4611.528316216799
 31
0.0
  0
LINE
  5
26F1A
330
1F
100
AcDbEntity
  8
D-STR-STR2
  6
Continuous
100
AcDbLine
 10
6367.9205885023
 20
4611.528316216799
 30
0.0
 11
6467.920588079607
 21
4611.528316216799
 31
0.0
  0
LINE
  5
26F1C
330
1F
100
AcDbEntity
  8
D-STR-STR2
  6
Continuous
100
AcDbLine
 10
6547.921787741415
 20
4695.529115861734
 30
0.0
 11
6567.921587656882
 21
4625.529316157618
 31
0.0
  0
LINE
  5
26F1D
330
1F
100
AcDbEntity
  8
D-STR-STR2
  6
Continuous
100
AcDbLine
 10
6680.420507181356
 20
4625.529316157618
 30
0.0
 11
6680.420507181356
 21
4495.529116707121
 31
0.0
  0
TEXT
  5
26F1E
330
1F
100
AcDbEntity
  8
D-STR-DIM
100
AcDbText
 10
6503.060387931033
 20
4999.208914578098
 30
0.0
 40
70.0
  1
20
100
AcDbText
  0
LINE
  5
26F1F
330
1F
100
AcDbEntity
  8
D-STR-DIM
  6
Continuous
100
AcDbLine
 10
6567.92058765691
 20
5095.528914170956
 30
0.0
 11
6557.920587699183
 21
5095.528914170956
 31
0.0
  0
LINE
  5
26F20
330
1F
100
AcDbEntity
  8
D-STR-DIM
  6
Continuous
100
AcDbLine
 10
6547.920387741455
 20
5095.528914170956
 30
0.0
 11
6557.920587699183
 21
5095.528914170956
 31
0.0
  0
TEXT
  5
26F21
330
1F
100
AcDbEntity
  8
D-STR-DIM
100
AcDbText
 10
6137.570989475928
 20
5111.528714103329
 30
0.0
 40
70.0
  1
25
100
AcDbText
  0
CIRCLE
  5
26F2A
330
1F
100
AcDbEntity
  8
D-STR-DIM
  6
Continuous
100
AcDbCircle
 10
7342.920464380994
 20
5095.528914170956
 30
0.0
 40
5.999997974638371
  0
LINE
  5
26F2B
330
1F
100
AcDbEntity
  8
D-STR-STR2
  6
Continuous
100
AcDbLine
 10
7422.920464042839
 20
4768.535515553138
 30
0.0
 11
7342.920464380994
 21
4768.535515553138
 31
0.0
  0
LINE
  5
26F2C
330
1F
100
AcDbEntity
  8
D-STR-STR2
  6
Continuous
100
AcDbLine
 10
7422.920464042839
 20
4788.5355154686
 30
0.0
 11
7342.920464380994
 21
4788.534515468604
 31
0.0
  0
LINE
  5
26F2D
330
1F
100
AcDbEntity
  8
D-STR
  6
Continuous
100
AcDbLine
 10
7317.92096448669
 20
5660.528911782736
 30
0.0
 11
7402.920364127417
 21
5670.529511740465
 31
0.0
  0
CIRCLE
  5
26F2E
330
1F
100
AcDbEntity
  8
D-STR-DIM
  6
Continuous
100
AcDbCircle
 10
7317.920484486673
 20
5095.528914170956
 30
0.0
 40
5.999997974638371
  0
CIRCLE
  5
26F2F
330
1F
100
AcDbEntity
  8
D-STR-DIM
  6
Continuous
100
AcDbCircle
 10
6887.921086304238
 20
5095.528914170956
 30
0.0
 40
5.999997974638371
  0
CIRCLE
  5
26F30
330
1F
100
AcDbEntity
  8
D-STR-DIM
  6
Continuous
100
AcDbCircle
 10
6867.920506388803
 20
5095.528914170956
 30
0.0
 40
5.999997974638371
  0
LINE
  5
26F31
330
1F
100
AcDbEntity
  8
D-STR-DIM
  6
Continuous
100
AcDbLine
 10
6887.921086304238
 20
4715.529115861733
 30
0.0
 11
6887.921086304238
 21
5125.52871404415
 31
0.0
  0
LINE
  5
26F32
330
1F
100
AcDbEntity
  8
D-STR-DIM
  6
Continuous
100
AcDbLine
 10
6867.920506388803
 20
4715.529115861733
 30
0.0
 11
6867.920506388803
 21
5125.52871404415
 31
0.0
  0
LINE
  5
26F33
330
1F
100
AcDbEntity
  8
D-STR-STR2
  6
Continuous
100
AcDbLine
 10
6967.920465966097
 20
4611.528316216799
 30
0.0
 11
7067.920425543388
 21
4611.528316216799
 31
0.0
  0
TEXT
  5
26F34
330
1F
100
AcDbEntity
  8
D-STR-DIM
100
AcDbText
 10
6789.4204067206
 20
4735.73351569179
 30
0.0
 40
70.0
  1
70
 50
90.0
100
AcDbText
  0
LINE
  5
26F35
330
1F
100
AcDbEntity
  8
D-STR-DIM
  6
Continuous
100
AcDbLine
 10
6805.420466652972
 20
4660.529116009676
 30
0.0
 11
6805.420466652972
 21
4845.452915228014
 31
0.0
  0
CIRCLE
  5
26F36
330
1F
100
AcDbEntity
  8
D-STR-DIM
  6
Continuous
100
AcDbCircle
 10
6805.420466652972
 20
4695.529115861734
 30
0.0
 40
5.999997974638371
  0
CIRCLE
  5
26F37
330
1F
100
AcDbEntity
  8
D-STR-DIM
  6
Continuous
100
AcDbCircle
 10
6805.420466652972
 20
4625.529316157618
 30
0.0
 40
5.999997974638371
  0
LINE
  5
26F38
330
1F
100
AcDbEntity
  8
D-STR-DIM
  6
Continuous
100
AcDbLine
 10
6805.420466652972
 20
4695.529115861734
 30
0.0
 11
6805.420466652972
 21
4660.529116009676
 31
0.0
  0
LINE
  5
26F39
330
1F
100
AcDbEntity
  8
D-STR-DIM
  6
Continuous
100
AcDbLine
 10
6805.420466652972
 20
4625.529316157618
 30
0.0
 11
6805.420466652972
 21
4660.529116009676
 31
0.0
  0
LINE
  5
26F3A
330
1F
100
AcDbEntity
  8
D-BMK
  6
CENTER2
100
AcDbLine
 10
6717.920427022818
 20
4725.528715734926
 30
0.0
 11
6717.920427022818
 21
4465.528516833932
 31
0.0
  0
LINE
  5
26F3B
330
1F
100
AcDbEntity
  8
D-STR-STR2
  6
Continuous
100
AcDbLine
 10
6755.420466864322
 20
4625.529316157618
 30
0.0
 11
6755.420466864322
 21
4495.529116707121
 31
0.0
  0
LINE
  5
26F3C
330
1F
100
AcDbEntity
  8
D-BMK
  6
CENTER2
100
AcDbLine
 10
7017.920445754743
 20
4725.528715734926
 30
0.0
 11
7017.920445754743
 21
4581.528716343606
 31
0.0
  0
LINE
  5
26F3D
330
1F
100
AcDbEntity
  8
D-STR-STR2
  6
Continuous
100
AcDbLine
 10
6867.920986388817
 20
4625.528316157622
 30
0.0
 11
6887.921086304238
 21
4695.528115861738
 31
0.0
  0
LINE
  5
26F3E
330
1F
100
AcDbEntity
  8
D-STR-STR2
  6
Continuous
100
AcDbLine
 10
6967.920465966097
 20
4695.529115861734
 30
0.0
 11
6967.920465966097
 21
4611.528316216799
 31
0.0
  0
TEXT
  5
26F3F
330
1F
100
AcDbEntity
  8
D-STR-DIM
100
AcDbText
 10
6823.060386578415
 20
4999.208914578098
 30
0.0
 40
70.0
  1
20
100
AcDbText
  0
LINE
  5
26F40
330
1F
100
AcDbEntity
  8
D-STR-DIM
  6
Continuous
100
AcDbLine
 10
6867.920506388803
 20
5095.528914170956
 30
0.0
 11
6717.920427022818
 21
5095.528914170956
 31
0.0
  0
LINE
  5
26F41
330
1F
100
AcDbEntity
  8
D-STR-DIM
  6
Continuous
100
AcDbLine
 10
6887.921086304238
 20
5095.528914170956
 30
0.0
 11
6877.920786346556
 21
5095.528914170956
 31
0.0
  0
LINE
  5
26F42
330
1F
100
AcDbEntity
  8
D-STR-DIM
  6
Continuous
100
AcDbLine
 10
6867.920506388803
 20
5095.528914170956
 30
0.0
 11
6877.920786346556
 21
5095.528914170956
 31
0.0
  0
LINE
  5
26F43
330
1F
100
AcDbEntity
  8
D-STR
  6
Continuous
100
AcDbLine
 10
7317.920484486673
 20
4795.529515439037
 30
0.0
 11
7217.920384909408
 21
4695.530115861729
 31
0.0
  0
LINE
  5
26F44
330
1F
100
AcDbEntity
  8
D-STR-STR2
  6
Continuous
100
AcDbLine
 10
7067.920425543388
 20
4611.528316216799
 30
0.0
 11
7067.920425543388
 21
4695.529115861734
 31
0.0
  0
LINE
  5
26F45
330
1F
100
AcDbEntity
  8
D-STR
  6
Continuous
100
AcDbLine
 10
7342.919224381017
 20
4695.528115861738
 30
0.0
 11
7217.919264909396
 21
4695.528115861738
 31
0.0
  0
LINE
  5
26F46
330
1F
100
AcDbEntity
  8
D-STR-DIM
  6
Continuous
100
AcDbLine
 10
7317.920484486673
 20
5095.528914170956
 30
0.0
 11
7330.420404433811
 21
5095.528914170956
 31
0.0
  0
LINE
  5
26F47
330
1F
100
AcDbEntity
  8
D-STR-DIM
  6
Continuous
100
AcDbLine
 10
7330.420404433811
 20
5095.528914170956
 30
0.0
 11
7188.550245033527
 21
5095.528914170956
 31
0.0
  0
LINE
  5
26F48
330
1F
100
AcDbEntity
  8
D-STR-DIM
  6
Continuous
100
AcDbLine
 10
7342.920464380994
 20
5095.528914170956
 30
0.0
 11
7330.420404433811
 21
5095.528914170956
 31
0.0
  0
TEXT
  5
26F49
330
1F
100
AcDbEntity
  8
D-STR-DIM
100
AcDbText
 10
7188.54998503351
 20
5111.528714103329
 30
0.0
 40
70.0
  1
25
100
AcDbText
  0
LINE
  5
26F4A
330
1F
100
AcDbEntity
  8
D-STR-DIM
  6
Continuous
100
AcDbLine
 10
7787.920422499992
 20
4778.529115510897
 30
0.0
 11
7787.920422499992
 21
5649.029111831348
 31
0.0
  0
LINE
  5
26F4B
330
1F
100
AcDbEntity
  8
D-STR-DIM
  6
Continuous
100
AcDbLine
 10
7557.920383556787
 20
4778.529115510897
 30
0.0
 11
7817.92044237319
 21
4778.529115510897
 31
0.0
  0
LINE
  5
26F4C
330
1F
100
AcDbEntity
  8
D-STR-DIM
  6
Continuous
100
AcDbLine
 10
7567.92040342991
 20
4795.529515439037
 30
0.0
 11
7757.920402626794
 21
4795.529515439037
 31
0.0
  0
LINE
  5
26F4D
330
1F
100
AcDbEntity
  8
D-STR-STR2
  6
Continuous
100
AcDbLine
 10
7422.920464042839
 20
4768.535515553138
 30
0.0
 11
7422.920464042839
 21
4788.5355154686
 31
0.0
  0
LINE
  5
26F4E
330
1F
100
AcDbEntity
  8
D-STR-DIM
  6
Continuous
100
AcDbLine
 10
7787.920422499992
 20
4778.529115510897
 30
0.0
 11
7787.920422499992
 21
4737.028515686315
 31
0.0
  0
TEXT
  5
26F4F
330
1F
100
AcDbEntity
  8
D-STR-DIM
100
AcDbText
 10
7771.920442567644
 20
4639.246916099634
 30
0.0
 40
70.0
  1
83
 50
90.0
100
AcDbText
  0
CIRCLE
  5
26F50
330
1F
100
AcDbEntity
  8
D-STR-DIM
  6
Continuous
100
AcDbCircle
 10
7787.920422499992
 20
4695.529115861734
 30
0.0
 40
5.999997974638371
  0
LINE
  5
26F51
330
1F
100
AcDbEntity
  8
D-STR-DIM
  6
Continuous
100
AcDbLine
 10
7787.920422499992
 20
4737.028515686315
 30
0.0
 11
7787.920422499992
 21
4639.246916099634
 31
0.0
  0
LINE
  5
26F52
330
1F
100
AcDbEntity
  8
D-STR-DIM
  6
Continuous
100
AcDbLine
 10
7787.920422499992
 20
4695.529115861734
 30
0.0
 11
7787.920422499992
 21
4737.028515686315
 31
0.0
  0
CIRCLE
  5
26F53
330
1F
100
AcDbEntity
  8
D-STR-DIM
  6
Continuous
100
AcDbCircle
 10
7787.920422499992
 20
4778.529115510897
 30
0.0
 40
5.999997974638371
  0
LINE
  5
26F54
330
1F
100
AcDbEntity
  8
D-STR
  6
Continuous
100
AcDbLine
 10
7452.920983916057
 20
5670.529511740465
 30
0.0
 11
7537.919763556725
 21
5660.528911782736
 31
0.0
  0
TEXT
  5
26F55
330
1F
100
AcDbEntity
  8
D-STR-DIM
100
AcDbText
 10
7771.920442567644
 20
5530.169112333759
 30
0.0
 40
70.0
  1
1741
 50
90.0
100
AcDbText
  0
LINE
  5
26F5A
330
1F
100
AcDbEntity
  8
D-STR
  6
Continuous
100
AcDbLine
 10
6217.920389136347
 20
6595.528907830547
 30
0.0
 11
7217.920384909408
 21
6595.528907830547
 31
0.0
  0
LINE
  5
26F5B
330
1F
100
AcDbEntity
  8
D-STR
  6
Continuous
100
AcDbLine
 10
5897.920390488966
 20
6795.528906985158
 30
0.0
 11
7537.920383556786
 21
6795.528906985158
 31
0.0
  0
LINE
  5
26F66
330
1F
100
AcDbEntity
  8
D-STR-STR2
  6
Continuous
100
AcDbLine
 10
6012.92039000287
 20
6435.529308506857
 30
0.0
 11
6092.920589664707
 21
6435.529308506857
 31
0.0
  0
LINE
  5
26F67
330
1F
100
AcDbEntity
  8
D-STR-STR2
  6
Continuous
100
AcDbLine
 10
6012.92039000287
 20
6455.529308422318
 30
0.0
 11
6092.920589664707
 21
6455.529308422318
 31
0.0
  0
LINE
  5
26F6C
330
1F
100
AcDbEntity
  8
D-BMK
  6
CENTER2
100
AcDbLine
 10
6147.920589432226
 20
6295.528509098631
 30
0.0
 11
6003.920190040902
 21
6295.528509098631
 31
0.0
  0
LINE
  5
26F7E
330
1F
100
AcDbEntity
  8
D-STR-STR2
  6
Continuous
100
AcDbLine
 10
6012.92039000287
 20
6435.529308506857
 30
0.0
 11
6012.92039000287
 21
6455.529308422318
 31
0.0
  0
LINE
  5
26F89
330
1F
100
AcDbEntity
  8
D-STR-STR2
  6
Continuous
100
AcDbLine
 10
6033.920389914088
 20
6245.528909309976
 30
0.0
 11
6117.920389559039
 21
6245.528909309976
 31
0.0
  0
LINE
  5
26F8A
330
1F
100
AcDbEntity
  8
D-STR-STR2
  6
Continuous
100
AcDbLine
 10
6117.920389559039
 20
6345.529308887281
 30
0.0
 11
6033.920389914088
 21
6345.529308887281
 31
0.0
  0
LINE
  5
26F8B
330
1F
100
AcDbEntity
  8
D-STR-STR2
  6
Continuous
100
AcDbLine
 10
6033.920389914088
 20
6345.529308887281
 30
0.0
 11
6033.920389914088
 21
6245.528909309976
 31
0.0
  0
LINE
  5
26F8F
330
1F
100
AcDbEntity
  8
D-STR
  6
Continuous
100
AcDbLine
 10
6117.920389559039
 20
6495.529508253238
 30
0.0
 11
6217.920389136347
 21
6595.529907830545
 31
0.0
  0
LINE
  5
26F90
330
1F
100
AcDbEntity
  8
D-STR
  6
Continuous
100
AcDbLine
 10
6092.919389664672
 20
6595.528907830547
 30
0.0
 11
6217.920389136347
 21
6595.528907830547
 31
0.0
  0
LINE
  5
26FA5
330
1F
100
AcDbEntity
  8
D-STR-DIM
  6
Continuous
100
AcDbLine
 10
7317.920484486673
 20
6040.528710176499
 30
0.0
 11
7360.420424307008
 21
6040.528710176499
 31
0.0
  0
LINE
  5
26FA6
330
1F
100
AcDbEntity
  8
D-STR-DIM
  6
Continuous
100
AcDbLine
 10
7360.420424307008
 20
6040.528710176499
 30
0.0
 11
7174.842465091424
 21
6040.528710176499
 31
0.0
  0
LINE
  5
26FA7
330
1F
100
AcDbEntity
  8
D-STR-STR2
  6
Continuous
100
AcDbLine
 10
7422.906964042907
 20
6509.535508194037
 30
0.0
 11
7342.906964381064
 21
6509.534508194041
 31
0.0
  0
LINE
  5
26FA8
330
1F
100
AcDbEntity
  8
D-STR-STR2
  6
Continuous
100
AcDbLine
 10
7422.906964042907
 20
6529.535508109498
 30
0.0
 11
7342.906964381064
 21
6529.534508109502
 31
0.0
  0
LINE
  5
26FA9
330
1F
100
AcDbEntity
  8
D-BMK
  6
CENTER2
100
AcDbLine
 10
7287.920464613475
 20
6295.528509098631
 30
0.0
 11
7431.920664004806
 21
6295.528509098631
 31
0.0
  0
LINE
  5
26FAA
330
1F
100
AcDbEntity
  8
D-STR
  6
Continuous
100
AcDbLine
 10
7317.919864486684
 20
6160.529109669267
 30
0.0
 11
7402.919264127413
 21
6170.528709626998
 31
0.0
  0
LINE
  5
26FAB
330
1F
100
AcDbEntity
  8
D-STR-STR2
  6
Continuous
100
AcDbLine
 10
7401.920644131606
 20
6245.528909309976
 30
0.0
 11
7317.920484486673
 21
6245.528909309976
 31
0.0
  0
LINE
  5
26FAC
330
1F
100
AcDbEntity
  8
D-STR-STR2
  6
Continuous
100
AcDbLine
 10
7317.920484486673
 20
6345.529308887281
 30
0.0
 11
7401.920644131606
 21
6345.529308887281
 31
0.0
  0
LINE
  5
26FAD
330
1F
100
AcDbEntity
  8
D-STR
  6
Continuous
100
AcDbLine
 10
7402.920364127417
 20
6420.528508570264
 30
0.0
 11
7317.920484486673
 21
6430.527908527996
 31
0.0
  0
LINE
  5
26FAE
330
1F
100
AcDbEntity
  8
D-STR
  6
Continuous
100
AcDbLine
 10
7402.920984127407
 20
5920.529110683732
 30
0.0
 11
7317.919864486684
 21
5930.528710641464
 31
0.0
  0
TEXT
  5
26FAF
330
1F
100
AcDbEntity
  8
D-STR-DIM
100
AcDbText
 10
7183.982625052816
 20
6056.529310108866
 30
0.0
 40
70.0
  1
85
100
AcDbText
  0
CIRCLE
  5
26FB0
330
1F
100
AcDbEntity
  8
D-STR-DIM
  6
Continuous
100
AcDbCircle
 10
7317.920484486673
 20
6040.528710176499
 30
0.0
 40
5.999997974638371
  0
LINE
  5
26FB1
330
1F
100
AcDbEntity
  8
D-STR
  6
Continuous
100
AcDbLine
 10
7342.921084380981
 20
6595.528907830547
 30
0.0
 11
7217.919884909385
 21
6595.528907830547
 31
0.0
  0
LINE
  5
26FB2
330
1F
100
AcDbEntity
  8
D-STR
  6
Continuous
100
AcDbLine
 10
7217.920384909408
 20
6595.528907830547
 30
0.0
 11
7317.920484486673
 21
6495.529508253238
 31
0.0
  0
LINE
  5
26FB3
330
1F
100
AcDbEntity
  8
D-STR-DIM
  6
Continuous
100
AcDbLine
 10
7495.420423736374
 20
6040.528710176499
 30
0.0
 11
7682.533402945475
 21
6040.528710176499
 31
0.0
  0
LINE
  5
26FB4
330
1F
100
AcDbEntity
  8
D-STR-DIM
  6
Continuous
100
AcDbLine
 10
7402.920364127417
 20
6150.528709626997
 30
0.0
 11
7402.920364127417
 21
6010.528910303307
 31
0.0
  0
LINE
  5
26FB5
330
1F
100
AcDbEntity
  8
D-STR-DIM
  6
Continuous
100
AcDbLine
 10
7452.920483916037
 20
6150.528709626997
 30
0.0
 11
7452.920483916037
 21
6010.528910303307
 31
0.0
  0
LINE
  5
26FB6
330
1F
100
AcDbEntity
  8
D-STR-DIM
  6
Continuous
100
AcDbLine
 10
7537.920383556786
 20
6040.528710176499
 30
0.0
 11
7495.420423736374
 21
6040.528710176499
 31
0.0
  0
LINE
  5
26FB7
330
1F
100
AcDbEntity
  8
D-STR
  6
Continuous
100
AcDbLine
 10
7537.920383556786
 20
5930.528710641464
 30
0.0
 11
7452.920483916037
 21
5920.529110683732
 31
0.0
  0
TEXT
  5
26FB8
330
1F
100
AcDbEntity
  8
D-STR-DIM
100
AcDbText
 10
7373.060444253617
 20
5944.208510583639
 30
0.0
 40
70.0
  1
50
100
AcDbText
  0
CIRCLE
  5
26FB9
330
1F
100
AcDbEntity
  8
D-STR-DIM
  6
Continuous
100
AcDbCircle
 10
7402.920364127417
 20
6040.528710176499
 30
0.0
 40
5.999997974638371
  0
CIRCLE
  5
26FBA
330
1F
100
AcDbEntity
  8
D-STR-DIM
  6
Continuous
100
AcDbCircle
 10
7452.920483916037
 20
6040.528710176499
 30
0.0
 40
5.999997974638371
  0
LINE
  5
26FBB
330
1F
100
AcDbEntity
  8
D-STR-DIM
  6
Continuous
100
AcDbLine
 10
7402.920364127417
 20
6040.528710176499
 30
0.0
 11
7360.420424307008
 21
6040.528710176499
 31
0.0
  0
LINE
  5
26FBC
330
1F
100
AcDbEntity
  8
D-STR-DIM
  6
Continuous
100
AcDbLine
 10
7402.920364127417
 20
6040.528710176499
 30
0.0
 11
7427.920364021741
 21
6040.528710176499
 31
0.0
  0
LINE
  5
26FBD
330
1F
100
AcDbEntity
  8
D-STR-DIM
  6
Continuous
100
AcDbLine
 10
7452.920483916037
 20
6040.528710176499
 30
0.0
 11
7427.920364021741
 21
6040.528710176499
 31
0.0
  0
LINE
  5
26FBE
330
1F
100
AcDbEntity
  8
D-STR-DIM
  6
Continuous
100
AcDbLine
 10
7452.920483916037
 20
6040.528710176499
 30
0.0
 11
7495.420423736374
 21
6040.528710176499
 31
0.0
  0
TEXT
  5
26FBF
330
1F
100
AcDbEntity
  8
D-STR-DIM
100
AcDbText
 10
7563.673243447924
 20
6056.529310108866
 30
0.0
 40
70.0
  1
85
100
AcDbText
  0
CIRCLE
  5
26FC0
330
1F
100
AcDbEntity
  8
D-STR-DIM
  6
Continuous
100
AcDbCircle
 10
7537.920383556786
 20
6040.528710176499
 30
0.0
 40
5.999997974638371
  0
LINE
  5
26FC1
330
1F
100
AcDbEntity
  8
D-STR
  6
Continuous
100
AcDbLine
 10
7537.921003556774
 20
6430.527908527996
 30
0.0
 11
7452.919863916045
 21
6420.528508570264
 31
0.0
  0
LINE
  5
26FC2
330
1F
100
AcDbEntity
  8
D-STR
  6
Continuous
100
AcDbLine
 10
7452.920483916037
 20
6170.528709626998
 30
0.0
 11
7537.920383556786
 21
6160.529109669267
 31
0.0
  0
LINE
  5
26FC3
330
1F
100
AcDbEntity
  8
D-STR
  6
Continuous
100
AcDbLine
 10
7402.920364127417
 20
6170.528709626998
 30
0.0
 11
7402.920364127417
 21
6420.528508570264
 31
0.0
  0
LINE
  5
26FC4
330
1F
100
AcDbEntity
  8
D-STR
  6
Continuous
100
AcDbLine
 10
7452.920483916037
 20
6170.528709626998
 30
0.0
 11
7452.920483916037
 21
6420.528508570264
 31
0.0
  0
LINE
  5
26FC5
330
1F
100
AcDbEntity
  8
D-STR-STR2
  6
Continuous
100
AcDbLine
 10
7401.920644131606
 20
6345.529308887281
 30
0.0
 11
7401.920644131606
 21
6245.528909309976
 31
0.0
  0
LINE
  5
26FC6
330
1F
100
AcDbEntity
  8
D-STR-DIM
  6
Continuous
100
AcDbLine
 10
7557.920383556787
 20
6519.529108151797
 30
0.0
 11
7817.92044237319
 21
6519.529108151797
 31
0.0
  0
LINE
  5
26FC7
330
1F
100
AcDbEntity
  8
D-STR-DIM
  6
Continuous
100
AcDbLine
 10
7567.92040342991
 20
6495.528508253244
 30
0.0
 11
7757.920402626794
 21
6495.528508253244
 31
0.0
  0
LINE
  5
26FC8
330
1F
100
AcDbEntity
  8
D-STR-STR2
  6
Continuous
100
AcDbLine
 10
7422.906964042907
 20
6509.535508194037
 30
0.0
 11
7422.906964042907
 21
6529.535508109498
 31
0.0
  0
TEXT
  5
26FC9
330
1F
100
AcDbEntity
  8
D-STR-DIM
100
AcDbText
 10
7771.920442567644
 20
6544.846508044777
 30
0.0
 40
70.0
  1
76
 50
90.0
100
AcDbText
  0
CIRCLE
  5
26FCA
330
1F
100
AcDbEntity
  8
D-STR-DIM
  6
Continuous
100
AcDbCircle
 10
7787.920422499992
 20
6595.528907830547
 30
0.0
 40
5.999997974638371
  0
CIRCLE
  5
26FCB
330
1F
100
AcDbEntity
  8
D-STR-DIM
  6
Continuous
100
AcDbCircle
 10
7787.920422499992
 20
6519.529108151797
 30
0.0
 40
5.999997974638371
  0
LINE
  5
26FCC
330
1F
100
AcDbEntity
  8
D-STR-DIM
  6
Continuous
100
AcDbLine
 10
7787.920422499992
 20
6595.528907830547
 30
0.0
 11
7787.920422499992
 21
6557.529507991169
 31
0.0
  0
LINE
  5
26FCD
330
1F
100
AcDbEntity
  8
D-STR-DIM
  6
Continuous
100
AcDbLine
 10
7787.920422499992
 20
6557.529507991169
 30
0.0
 11
7787.920422499992
 21
6654.566107581003
 31
0.0
  0
LINE
  5
26FCE
330
1F
100
AcDbEntity
  8
D-STR-DIM
  6
Continuous
100
AcDbLine
 10
7787.920422499992
 20
6519.529108151797
 30
0.0
 11
7787.920422499992
 21
6557.529507991169
 31
0.0
  0
TEXT
  5
27041
330
1F
100
AcDbEntity
  8
D-STR-DIM
100
AcDbText
 10
10576.06031071472
 20
7511.528903958671
 30
0.0
 40
70.0
  1
750
100
AcDbText
  0
TEXT
  5
27042
330
1F
100
AcDbEntity
  8
D-STR-DIM
100
AcDbText
 10
10568.5602707464
 20
4111.528918330266
 30
0.0
 40
70.0
  1
635
100
AcDbText
  0
TEXT
  5
27043
330
1F
100
AcDbEntity
  8
D-STR-DIM
100
AcDbText
 10
10576.06031071472
 20
5476.528712560496
 30
0.0
 40
70.0
  1
250
100
AcDbText
  0
LINE
  5
27044
330
1F
100
AcDbEntity
  8
D-STR-DIM
  6
Continuous
100
AcDbLine
 10
10287.92031193268
 20
7495.529104026303
 30
0.0
 11
10662.92017034753
 21
7495.529104026303
 31
0.0
  0
LINE
  5
27045
330
1F
100
AcDbEntity
  8
D-STR-DIM
  6
Continuous
100
AcDbLine
 10
10662.92017034753
 20
7195.528705294385
 30
0.0
 11
10287.92031193268
 21
7195.528705294385
 31
0.0
  0
LINE
  5
27046
330
1F
100
AcDbEntity
  8
D-STR-DIM
  6
Continuous
100
AcDbLine
 10
10337.92031172133
 20
4095.529318397896
 30
0.0
 11
10655.42017037923
 21
4095.529318397896
 31
0.0
  0
LINE
  5
27047
330
1F
100
AcDbEntity
  8
D-STR-DIM
  6
Continuous
100
AcDbLine
 10
11037.92016876243
 20
3795.528919665979
 30
0.0
 11
10287.92031193268
 21
3795.528919665979
 31
0.0
  0
LINE
  5
27048
330
1F
100
AcDbEntity
  8
D-STR-DIM
  6
Continuous
100
AcDbLine
 10
10537.92037087597
 20
5460.528912628124
 30
0.0
 11
10662.92017034753
 21
5460.528912628124
 31
0.0
  0
LINE
  5
2704A
330
1F
100
AcDbEntity
  8
D-STR
  6
Continuous
100
AcDbLine
 10
11037.92016876243
 20
4495.529116707121
 30
0.0
 11
9537.920315102885
 21
4495.529116707121
 31
0.0
  0
LINE
  5
2704B
330
1F
100
AcDbEntity
  8
D-STR
  6
Continuous
100
AcDbLine
 10
11037.92016876243
 20
6795.528906985158
 30
0.0
 11
9537.920315102885
 21
6795.528906985158
 31
0.0
  0
LINE
  5
2704C
330
1F
100
AcDbEntity
  8
D-STR-STR2
  6
Continuous
100
AcDbLine
 10
10787.92036981923
 20
6420.528508570264
 30
0.0
 11
10537.92037087597
 21
6420.528508570264
 31
0.0
  0
LINE
  5
2704D
330
1F
100
AcDbEntity
  8
D-STR-STR2
  6
Continuous
100
AcDbLine
 10
10787.92036981923
 20
6170.528709626998
 30
0.0
 11
10537.92037087597
 21
6170.528709626998
 31
0.0
  0
LINE
  5
2704E
330
1F
100
AcDbEntity
  8
D-STR-STR2
  6
Continuous
100
AcDbLine
 10
10797.92016977689
 20
6160.529109669267
 30
0.0
 11
10527.92031091821
 21
6160.529109669267
 31
0.0
  0
LINE
  5
2704F
330
1F
100
AcDbEntity
  8
D-STR-STR2
  6
Continuous
100
AcDbLine
 10
10797.92016977689
 20
6430.528908527993
 30
0.0
 11
10527.92031091821
 21
6430.528908527993
 31
0.0
  0
LINE
  5
27050
330
1F
100
AcDbEntity
  8
D-BMK
  6
CENTER2
100
AcDbLine
 10
10827.92016965009
 20
6295.528509098631
 30
0.0
 11
10497.92031104502
 21
6295.528509098631
 31
0.0
  0
LINE
  5
27051
330
1F
100
AcDbEntity
  8
D-STR
  6
Continuous
100
AcDbLine
 10
11037.92016876243
 20
6595.528907830547
 30
0.0
 11
9537.920315102885
 21
6595.528907830547
 31
0.0
  0
LINE
  5
27052
330
1F
100
AcDbEntity
  8
D-STR-STR2
  6
Continuous
100
AcDbLine
 10
10787.92036981923
 20
5920.529110683732
 30
0.0
 11
10537.92037087597
 21
5920.529110683732
 31
0.0
  0
LINE
  5
27053
330
1F
100
AcDbEntity
  8
D-STR-STR2
  6
Continuous
100
AcDbLine
 10
10787.92036981923
 20
5670.529511740465
 30
0.0
 11
10537.92037087597
 21
5670.529511740465
 31
0.0
  0
LINE
  5
27054
330
1F
100
AcDbEntity
  8
D-STR-STR2
  6
Continuous
100
AcDbLine
 10
10797.92016977689
 20
5660.528911782736
 30
0.0
 11
10527.92031091821
 21
5660.528911782736
 31
0.0
  0
LINE
  5
27055
330
1F
100
AcDbEntity
  8
D-STR-STR2
  6
Continuous
100
AcDbLine
 10
10797.92016977689
 20
5930.528710641464
 30
0.0
 11
10527.92031091821
 21
5930.528710641464
 31
0.0
  0
LINE
  5
27056
330
1F
100
AcDbEntity
  8
D-BMK
  6
CENTER2
100
AcDbLine
 10
10827.92016965009
 20
5795.529311212098
 30
0.0
 11
10497.92031104502
 21
5795.529311212098
 31
0.0
  0
LINE
  5
27057
330
1F
100
AcDbEntity
  8
D-STR
  6
Continuous
100
AcDbLine
 10
11037.92016876243
 20
4695.529115861734
 30
0.0
 11
9537.920315102885
 21
4695.529115861734
 31
0.0
  0
LINE
  5
27058
330
1F
100
AcDbEntity
  8
D-STR
  6
Continuous
100
AcDbLine
 10
10927.92016922739
 20
4795.528515439041
 30
0.0
 11
10397.92033146772
 21
4795.528515439041
 31
0.0
  0
LINE
  5
27059
330
1F
100
AcDbEntity
  8
D-STR
  6
Continuous
100
AcDbLine
 10
10927.92016922739
 20
6495.528508253244
 30
0.0
 11
10397.92033146772
 21
6495.528508253244
 31
0.0
  0
LINE
  5
2705A
330
1F
100
AcDbEntity
  8
D-STR-DIM
  6
Continuous
100
AcDbLine
 10
9137.920356793678
 20
5795.529311212098
 30
0.0
 11
9137.920356793678
 21
5245.529113536917
 31
0.0
  0
LINE
  5
2705B
330
1F
100
AcDbEntity
  8
D-STR-DIM
  6
Continuous
100
AcDbLine
 10
8037.920401443249
 20
6495.528508253244
 30
0.0
 11
8037.920401443249
 21
5645.529111846141
 31
0.0
  0
LINE
  5
2705C
330
1F
100
AcDbEntity
  8
D-STR-DIM
  6
Continuous
100
AcDbLine
 10
8337.920400175171
 20
6595.528907830547
 30
0.0
 11
8337.920400175171
 21
5645.529111846141
 31
0.0
  0
LINE
  5
2705D
330
1F
100
AcDbEntity
  8
D-STR
  6
Continuous
100
AcDbLine
 10
10397.92033146772
 20
6595.528907830547
 30
0.0
 11
10397.92033146772
 21
4695.529115861734
 31
0.0
  0
LINE
  5
2705E
330
1F
100
AcDbEntity
  8
D-STR
  6
Continuous
100
AcDbLine
 10
9647.92033463793
 20
6595.528907830547
 30
0.0
 11
9647.92033463793
 21
4695.529115861734
 31
0.0
  0
LINE
  5
2705F
330
1F
100
AcDbEntity
  8
D-STR
  6
Continuous
100
AcDbLine
 10
10177.92031239765
 20
6595.528907830547
 30
0.0
 11
10177.92031239765
 21
4695.529115861734
 31
0.0
  0
LINE
  5
27060
330
1F
100
AcDbEntity
  8
D-STR
  6
Continuous
100
AcDbLine
 10
9537.920315102885
 20
6795.528906985158
 30
0.0
 11
9537.920315102885
 21
4495.529116707121
 31
0.0
  0
LINE
  5
27061
330
1F
100
AcDbEntity
  8
D-STR
  6
Continuous
100
AcDbLine
 10
10187.92035235539
 20
6585.52850787282
 30
0.0
 11
10187.92035235539
 21
4705.528715819464
 31
0.0
  0
LINE
  5
27062
330
1F
100
AcDbEntity
  8
D-STR
  6
Continuous
100
AcDbLine
 10
10387.92029150998
 20
6585.52850787282
 30
0.0
 11
10387.92029150998
 21
4705.528715819464
 31
0.0
  0
LINE
  5
27063
330
1F
100
AcDbEntity
  8
D-STR
  6
Continuous
100
AcDbLine
 10
9637.920354680209
 20
6585.52850787282
 30
0.0
 11
9637.920354680209
 21
4705.528715819464
 31
0.0
  0
LINE
  5
27064
330
1F
100
AcDbEntity
  8
D-STR-STR2
  6
Continuous
100
AcDbLine
 10
10047.92033294716
 20
5930.528710641464
 30
0.0
 11
10047.92033294716
 21
5660.528911782736
 31
0.0
  0
LINE
  5
27065
330
1F
100
AcDbEntity
  8
D-STR-STR2
  6
Continuous
100
AcDbLine
 10
9777.92031408842
 20
5930.528710641464
 30
0.0
 11
9777.92031408842
 21
5660.528911782736
 31
0.0
  0
LINE
  5
27066
330
1F
100
AcDbEntity
  8
D-STR-STR2
  6
Continuous
100
AcDbLine
 10
10537.92037087597
 20
5920.529110683732
 30
0.0
 11
10537.92037087597
 21
5670.529511740465
 31
0.0
  0
LINE
  5
27067
330
1F
100
AcDbEntity
  8
D-BMK
  6
CENTER2
100
AcDbLine
 10
9912.920313517785
 20
5960.529310514654
 30
0.0
 11
9912.920313517785
 21
5630.529311909543
 31
0.0
  0
LINE
  5
27068
330
1F
100
AcDbEntity
  8
D-STR-STR2
  6
Continuous
100
AcDbLine
 10
10037.9202729894
 20
5920.529110683732
 30
0.0
 11
10037.9202729894
 21
5670.529511740465
 31
0.0
  0
LINE
  5
27069
330
1F
100
AcDbEntity
  8
D-STR-STR2
  6
Continuous
100
AcDbLine
 10
9787.920354046168
 20
5920.529110683732
 30
0.0
 11
9787.920354046168
 21
5670.529511740465
 31
0.0
  0
LINE
  5
2706A
330
1F
100
AcDbEntity
  8
D-STR-STR2
  6
Continuous
100
AcDbLine
 10
10527.92031091821
 20
5930.528710641464
 30
0.0
 11
10527.92031091821
 21
5660.528911782736
 31
0.0
  0
LINE
  5
2706B
330
1F
100
AcDbEntity
  8
D-STR-DIM
  6
Continuous
100
AcDbLine
 10
9517.920315102886
 20
6595.528907830547
 30
0.0
 11
9107.920336920477
 21
6595.528907830547
 31
0.0
  0
LINE
  5
2706C
330
1F
100
AcDbEntity
  8
D-STR-DIM
  6
Continuous
100
AcDbLine
 10
8037.920401443249
 20
4795.529515439037
 30
0.0
 11
8037.920401443249
 21
5645.529111846141
 31
0.0
  0
LINE
  5
2706D
330
1F
100
AcDbEntity
  8
D-STR-DIM
  6
Continuous
100
AcDbLine
 10
8337.920400175171
 20
4695.529115861734
 30
0.0
 11
8337.920400175171
 21
5645.529111846141
 31
0.0
  0
CIRCLE
  5
2706E
330
1F
100
AcDbEntity
  8
D-STR-DIM
  6
Continuous
100
AcDbCircle
 10
8337.920400175171
 20
4695.529115861734
 30
0.0
 40
5.999997974638371
  0
CIRCLE
  5
2706F
330
1F
100
AcDbEntity
  8
D-STR-DIM
  6
Continuous
100
AcDbCircle
 10
8337.920400175171
 20
4495.529116707121
 30
0.0
 40
5.999997974638371
  0
LINE
  5
27070
330
1F
100
AcDbEntity
  8
D-STR-DIM
  6
Continuous
100
AcDbLine
 10
8037.920401443249
 20
4795.529515439037
 30
0.0
 11
8037.920401443249
 21
4745.529915650383
 31
0.0
  0
CIRCLE
  5
27071
330
1F
100
AcDbEntity
  8
D-STR-DIM
  6
Continuous
100
AcDbCircle
 10
8037.920401443249
 20
4695.529115861734
 30
0.0
 40
5.999997974638371
  0
LINE
  5
27072
330
1F
100
AcDbEntity
  8
D-STR-DIM
  6
Continuous
100
AcDbLine
 10
8037.920401443249
 20
4695.529115861734
 30
0.0
 11
8037.920401443249
 21
4745.529915650383
 31
0.0
  0
TEXT
  5
27073
330
1F
100
AcDbEntity
  8
D-STR-DIM
100
AcDbText
 10
8321.920400242815
 20
4508.668916651578
 30
0.0
 40
70.0
  1
200
 50
90.0
100
AcDbText
  0
CIRCLE
  5
27074
330
1F
100
AcDbEntity
  8
D-STR-DIM
  6
Continuous
100
AcDbCircle
 10
8037.920401443249
 20
4795.529515439037
 30
0.0
 40
5.999997974638371
  0
LINE
  5
27075
330
1F
100
AcDbEntity
  8
D-STR-DIM
  6
Continuous
100
AcDbLine
 10
8337.920400175171
 20
4695.529115861734
 30
0.0
 11
8337.920400175171
 21
4595.528716284428
 31
0.0
  0
LINE
  5
27076
330
1F
100
AcDbEntity
  8
D-STR-DIM
  6
Continuous
100
AcDbLine
 10
8337.920400175171
 20
4495.529116707121
 30
0.0
 11
8337.920400175171
 21
4595.528716284428
 31
0.0
  0
TEXT
  5
27077
330
1F
100
AcDbEntity
  8
D-STR-DIM
100
AcDbText
 10
8321.920400242815
 20
5526.669112348555
 30
0.0
 40
70.0
  1
1900
 50
90.00001500002756
100
AcDbText
  0
LINE
  5
27078
330
1F
100
AcDbEntity
  8
D-STR-DIM
  6
Continuous
100
AcDbLine
 10
9137.920356793678
 20
4695.529115861734
 30
0.0
 11
9137.920356793678
 21
5245.529113536917
 31
0.0
  0
CIRCLE
  5
27079
330
1F
100
AcDbEntity
  8
D-STR-DIM
  6
Continuous
100
AcDbCircle
 10
9137.920356793678
 20
4695.529115861734
 30
0.0
 40
5.999997974638371
  0
TEXT
  5
2707A
330
1F
100
AcDbEntity
  8
D-STR-DIM
100
AcDbText
 10
9121.920336861244
 20
5126.669114039331
 30
0.0
 40
70.0
  1
1100
 50
90.0
100
AcDbText
  0
LINE
  5
2707B
330
1F
100
AcDbEntity
  8
D-STR-DIM
  6
Continuous
100
AcDbLine
 10
10337.92031172133
 20
4475.529116707122
 30
0.0
 11
10337.92031172133
 21
4065.528718524706
 31
0.0
  0
LINE
  5
2707C
330
1F
100
AcDbEntity
  8
D-STR-DIM
  6
Continuous
100
AcDbLine
 10
10237.92033214403
 20
4475.529116707122
 30
0.0
 11
10237.92033214403
 21
4065.528718524706
 31
0.0
  0
LINE
  5
2707D
330
1F
100
AcDbEntity
  8
D-STR-DIM
  6
Continuous
100
AcDbLine
 10
9602.920314828139
 20
4475.529116707122
 30
0.0
 11
9602.920314828139
 21
4065.528718524706
 31
0.0
  0
LINE
  5
2707E
330
1F
100
AcDbEntity
  8
D-STR-DIM
  6
Continuous
100
AcDbLine
 10
9537.920315102885
 20
4475.529116707122
 30
0.0
 11
9537.920315102885
 21
3765.529319792786
 31
0.0
  0
TEXT
  5
2707F
330
1F
100
AcDbEntity
  8
D-STR-DIM
100
AcDbText
 10
9833.560353853231
 20
4111.528918330266
 30
0.0
 40
70.0
  1
635
100
AcDbText
  0
LINE
  5
27080
330
1F
100
AcDbEntity
  8
D-STR-DIM
  6
Continuous
100
AcDbLine
 10
10237.92033214403
 20
4095.529318397896
 30
0.0
 11
9920.420353486093
 21
4095.529318397896
 31
0.0
  0
LINE
  5
27081
330
1F
100
AcDbEntity
  8
D-STR-DIM
  6
Continuous
100
AcDbLine
 10
9537.920315102885
 20
3795.528919665979
 30
0.0
 11
10287.92031193268
 21
3795.528919665979
 31
0.0
  0
LINE
  5
27082
330
1F
100
AcDbEntity
  8
D-STR-DIM
  6
Continuous
100
AcDbLine
 10
9602.920314828139
 20
4095.529318397896
 30
0.0
 11
9920.420353486093
 21
4095.529318397896
 31
0.0
  0
TEXT
  5
27083
330
1F
100
AcDbEntity
  8
D-STR-DIM
100
AcDbText
 10
9483.060355334748
 20
3999.209118805037
 30
0.0
 40
70.0
  1
65
100
AcDbText
  0
CIRCLE
  5
27084
330
1F
100
AcDbEntity
  8
D-STR-DIM
  6
Continuous
100
AcDbCircle
 10
9537.920315102885
 20
3795.528919665979
 30
0.0
 40
5.999997974638371
  0
CIRCLE
  5
27085
330
1F
100
AcDbEntity
  8
D-STR-DIM
  6
Continuous
100
AcDbCircle
 10
9602.920314828139
 20
4095.529318397896
 30
0.0
 40
5.999997974638371
  0
CIRCLE
  5
27086
330
1F
100
AcDbEntity
  8
D-STR-DIM
  6
Continuous
100
AcDbCircle
 10
9537.920315102885
 20
4095.529318397896
 30
0.0
 40
5.999997974638371
  0
LINE
  5
27087
330
1F
100
AcDbEntity
  8
D-STR-DIM
  6
Continuous
100
AcDbLine
 10
9537.920315102885
 20
4095.529318397896
 30
0.0
 11
9570.420354965525
 21
4095.529318397896
 31
0.0
  0
LINE
  5
27088
330
1F
100
AcDbEntity
  8
D-STR-DIM
  6
Continuous
100
AcDbLine
 10
9602.920314828139
 20
4095.529318397896
 30
0.0
 11
9570.420354965525
 21
4095.529318397896
 31
0.0
  0
TEXT
  5
27089
330
1F
100
AcDbEntity
  8
D-STR-DIM
100
AcDbText
 10
10201.06031229982
 20
3999.209118805037
 30
0.0
 40
70.0
  1
100
100
AcDbText
  0
TEXT
  5
2708A
330
1F
100
AcDbEntity
  8
D-STR-DIM
100
AcDbText
 10
10169.06033243512
 20
3811.528519598349
 30
0.0
 40
70.0
  1
1500
100
AcDbText
  0
LINE
  5
2708B
330
1F
100
AcDbEntity
  8
D-STR-DIM
  6
Continuous
100
AcDbLine
 10
10337.92031172133
 20
4095.529318397896
 30
0.0
 11
10287.92031193268
 21
4095.529318397896
 31
0.0
  0
CIRCLE
  5
2708C
330
1F
100
AcDbEntity
  8
D-STR-DIM
  6
Continuous
100
AcDbCircle
 10
10237.92033214403
 20
4095.529318397896
 30
0.0
 40
5.999997974638371
  0
LINE
  5
2708D
330
1F
100
AcDbEntity
  8
D-STR-DIM
  6
Continuous
100
AcDbLine
 10
10237.92033214403
 20
4095.529318397896
 30
0.0
 11
10287.92031193268
 21
4095.529318397896
 31
0.0
  0
CIRCLE
  5
2708E
330
1F
100
AcDbEntity
  8
D-STR-DIM
  6
Continuous
100
AcDbCircle
 10
10337.92031172133
 20
4095.529318397896
 30
0.0
 40
5.999997974638371
  0
LINE
  5
2708F
330
1F
100
AcDbEntity
  8
D-STR-STR2
  6
Continuous
100
AcDbLine
 10
10047.92033294716
 20
5660.528911782736
 30
0.0
 11
9777.92031408842
 21
5660.528911782736
 31
0.0
  0
LINE
  5
27090
330
1F
100
AcDbEntity
  8
D-STR-STR2
  6
Continuous
100
AcDbLine
 10
10037.9202729894
 20
5670.529511740465
 30
0.0
 11
9787.920354046168
 21
5670.529511740465
 31
0.0
  0
LINE
  5
27091
330
1F
100
AcDbEntity
  8
D-STR
  6
Continuous
100
AcDbLine
 10
10177.92031239765
 20
4795.528515439041
 30
0.0
 11
9647.92033463793
 21
4795.528515439041
 31
0.0
  0
CIRCLE
  5
27092
330
1F
100
AcDbEntity
  8
D-STR-DIM
  6
Continuous
100
AcDbCircle
 10
9637.920354680209
 20
5158.30056975538
 30
0.0
 40
5.999997974638371
  0
CIRCLE
  5
27093
330
1F
100
AcDbEntity
  8
D-STR-DIM
  6
Continuous
100
AcDbCircle
 10
9537.920315102885
 20
5158.30056975538
 30
0.0
 40
5.999997974638371
  0
CIRCLE
  5
27094
330
1F
100
AcDbEntity
  8
D-STR-DIM
  6
Continuous
100
AcDbCircle
 10
9647.92033463793
 20
5158.30056975538
 30
0.0
 40
5.999997974638371
  0
LINE
  5
27095
330
1F
100
AcDbEntity
  8
D-STR-DIM
  6
Continuous
100
AcDbLine
 10
9647.92033463793
 20
5158.30056975538
 30
0.0
 11
9642.920314659059
 21
5158.30056975538
 31
0.0
  0
LINE
  5
27096
330
1F
100
AcDbEntity
  8
D-STR-DIM
  6
Continuous
100
AcDbLine
 10
9642.920314659059
 20
5158.30056975538
 30
0.0
 11
9771.182674116911
 21
5158.30056975538
 31
0.0
  0
LINE
  5
27097
330
1F
100
AcDbEntity
  8
D-STR
  6
Continuous
100
AcDbLine
 10
9537.920315102885
 20
4695.529115861734
 30
0.0
 11
9647.92033463793
 21
4695.529115861734
 31
0.0
  0
LINE
  5
27098
330
1F
100
AcDbEntity
  8
D-STR
  6
Continuous
100
AcDbLine
 10
9637.920354680209
 20
4705.528715819464
 30
0.0
 11
9647.92033463793
 21
4695.528115861738
 31
0.0
  0
LINE
  5
27099
330
1F
100
AcDbEntity
  8
D-BMK
  6
CENTER2
100
AcDbLine
 10
9602.920314828139
 20
4818.529315341818
 30
0.0
 11
9602.920314828139
 21
4738.528915679976
 31
0.0
  0
LINE
  5
2709A
330
1F
100
AcDbEntity
  8
D-STR
  6
Continuous
100
AcDbLine
 10
9537.920315102885
 20
4705.528715819464
 30
0.0
 11
9637.920354680209
 21
4705.528715819464
 31
0.0
  0
LINE
  5
2709B
330
1F
100
AcDbEntity
  8
D-STR-DIM
  6
Continuous
100
AcDbLine
 10
9587.920374891561
 20
5158.30056975538
 30
0.0
 11
9421.070335596764
 21
5158.30056975538
 31
0.0
  0
CIRCLE
  5
2709C
330
1F
100
AcDbEntity
  8
D-STR-STR2
  6
Continuous
100
AcDbCircle
 10
9602.920314828139
 20
4778.529115510897
 30
0.0
 40
9.999997957730611
  0
LINE
  5
2709D
330
1F
100
AcDbEntity
  8
D-STR-DIM
  6
Continuous
100
AcDbLine
 10
9637.920354680209
 20
5158.30056975538
 30
0.0
 11
9587.920374891561
 21
5158.30056975538
 31
0.0
  0
LINE
  5
2709E
330
1F
100
AcDbEntity
  8
D-STR-DIM
  6
Continuous
100
AcDbLine
 10
9537.920315102885
 20
5158.30056975538
 30
0.0
 11
9587.920374891561
 21
5158.30056975538
 31
0.0
  0
LINE
  5
2709F
330
1F
100
AcDbEntity
  8
D-STR-DIM
  6
Continuous
100
AcDbLine
 10
9637.920354680209
 20
5158.30056975538
 30
0.0
 11
9642.920314659059
 21
5158.30056975538
 31
0.0
  0
LINE
  5
270A0
330
1F
100
AcDbEntity
  8
D-BMK
  6
CENTER2
100
AcDbLine
 10
9562.920314997212
 20
4778.529115510897
 30
0.0
 11
9642.920314659059
 21
4778.529115510897
 31
0.0
  0
TEXT
  5
270A1
330
1F
100
AcDbEntity
  8
D-STR-DIM
100
AcDbText
 10
9421.070755596756
 20
5174.300369687752
 30
0.0
 40
70.0
  1
100
100
AcDbText
  0
TEXT
  5
270A2
330
1F
100
AcDbEntity
  8
D-STR-DIM
100
AcDbText
 10
9661.46235458064
 20
5174.300369687752
 30
0.0
 40
70.0
  1
10
100
AcDbText
  0
CIRCLE
  5
270A3
330
1F
100
AcDbEntity
  8
D-STR-DIM
  6
Continuous
100
AcDbCircle
 10
10387.92029150998
 20
5095.528914170956
 30
0.0
 40
5.999997974638371
  0
CIRCLE
  5
270A4
330
1F
100
AcDbEntity
  8
D-STR-DIM
  6
Continuous
100
AcDbCircle
 10
10397.92033146772
 20
5095.528914170956
 30
0.0
 40
5.999997974638371
  0
CIRCLE
  5
270A5
330
1F
100
AcDbEntity
  8
D-STR-DIM
  6
Continuous
100
AcDbCircle
 10
10187.92035235539
 20
5095.528914170956
 30
0.0
 40
5.999997974638371
  0
CIRCLE
  5
270A6
330
1F
100
AcDbEntity
  8
D-STR-DIM
  6
Continuous
100
AcDbCircle
 10
10177.92031239765
 20
5095.528914170956
 30
0.0
 40
5.999997974638371
  0
LINE
  5
270A7
330
1F
100
AcDbEntity
  8
D-STR-DIM
  6
Continuous
100
AcDbLine
 10
10387.92029150998
 20
5095.528914170956
 30
0.0
 11
10287.92031193268
 21
5095.528914170956
 31
0.0
  0
LINE
  5
270A8
330
1F
100
AcDbEntity
  8
D-STR
  6
Continuous
100
AcDbLine
 10
10397.92033146772
 20
4695.529115861734
 30
0.0
 11
10177.92031239765
 21
4695.529115861734
 31
0.0
  0
LINE
  5
270A9
330
1F
100
AcDbEntity
  8
D-BMK
  6
CENTER2
100
AcDbLine
 10
10297.92037189043
 20
4778.529115510897
 30
0.0
 11
10377.92037155228
 21
4778.529115510897
 31
0.0
  0
LINE
  5
270AA
330
1F
100
AcDbEntity
  8
D-STR
  6
Continuous
100
AcDbLine
 10
10387.92029150998
 20
4705.528715819464
 30
0.0
 11
10187.92035235539
 21
4705.528715819464
 31
0.0
  0
LINE
  5
270AB
330
1F
100
AcDbEntity
  8
D-BMK
  6
CENTER2
100
AcDbLine
 10
10237.92033214403
 20
4818.529315341818
 30
0.0
 11
10237.92033214403
 21
4738.528915679976
 31
0.0
  0
LINE
  5
270AC
330
1F
100
AcDbEntity
  8
D-STR
  6
Continuous
100
AcDbLine
 10
10187.92035235539
 20
4705.528715819464
 30
0.0
 11
10177.92093239763
 21
4695.528115861738
 31
0.0
  0
TEXT
  5
270AD
330
1F
100
AcDbEntity
  8
D-STR-DIM
100
AcDbText
 10
10128.06029260835
 20
4999.208914578098
 30
0.0
 40
70.0
  1
10
100
AcDbText
  0
CIRCLE
  5
270AE
330
1F
100
AcDbEntity
  8
D-STR-STR2
  6
Continuous
100
AcDbCircle
 10
10237.92033214403
 20
4778.529115510897
 30
0.0
 40
9.999997957730611
  0
LINE
  5
270AF
330
1F
100
AcDbEntity
  8
D-STR-DIM
  6
Continuous
100
AcDbLine
 10
10187.92035235539
 20
5095.528914170956
 30
0.0
 11
10287.92031193268
 21
5095.528914170956
 31
0.0
  0
LINE
  5
270B0
330
1F
100
AcDbEntity
  8
D-STR-DIM
  6
Continuous
100
AcDbLine
 10
10177.92031239765
 20
5095.528914170956
 30
0.0
 11
10182.92033237651
 21
5095.528914170956
 31
0.0
  0
LINE
  5
270B1
330
1F
100
AcDbEntity
  8
D-STR-DIM
  6
Continuous
100
AcDbLine
 10
10187.92035235539
 20
5095.528914170956
 30
0.0
 11
10182.92033237651
 21
5095.528914170956
 31
0.0
  0
LINE
  5
270B2
330
1F
100
AcDbEntity
  8
D-BMK
  6
CENTER2
100
AcDbLine
 10
10197.92027231309
 20
4778.529115510897
 30
0.0
 11
10277.92027197494
 21
4778.529115510897
 31
0.0
  0
LINE
  5
270B3
330
1F
100
AcDbEntity
  8
D-BMK
  6
CENTER2
100
AcDbLine
 10
10337.92031172133
 20
4818.529315341818
 30
0.0
 11
10337.92031172133
 21
4738.528915679976
 31
0.0
  0
LINE
  5
270B4
330
1F
100
AcDbEntity
  8
D-STR
  6
Continuous
100
AcDbLine
 10
10397.92033146772
 20
4695.528115861738
 30
0.0
 11
10387.91967150999
 21
4705.528715819464
 31
0.0
  0
TEXT
  5
270B5
330
1F
100
AcDbEntity
  8
D-STR-DIM
100
AcDbText
 10
10338.06027172076
 20
4999.208914578098
 30
0.0
 40
70.0
  1
10
100
AcDbText
  0
CIRCLE
  5
270B6
330
1F
100
AcDbEntity
  8
D-STR-STR2
  6
Continuous
100
AcDbCircle
 10
10337.92031172133
 20
4778.529115510897
 30
0.0
 40
9.999997957730611
  0
LINE
  5
270B7
330
1F
100
AcDbEntity
  8
D-STR-DIM
  6
Continuous
100
AcDbLine
 10
10387.92029150998
 20
5095.528914170956
 30
0.0
 11
10392.92031148885
 21
5095.528914170956
 31
0.0
  0
LINE
  5
270B8
330
1F
100
AcDbEntity
  8
D-STR-DIM
  6
Continuous
100
AcDbLine
 10
10397.92033146772
 20
5095.528914170956
 30
0.0
 11
10392.92031148885
 21
5095.528914170956
 31
0.0
  0
TEXT
  5
270B9
330
1F
100
AcDbEntity
  8
D-STR-DIM
100
AcDbText
 10
10201.06031229982
 20
5111.528714103329
 30
0.0
 40
70.0
  1
200
100
AcDbText
  0
LINE
  5
270BA
330
1F
100
AcDbEntity
  8
D-STR-DIM
  6
Continuous
100
AcDbLine
 10
10537.92037087597
 20
5640.528911782736
 30
0.0
 11
10537.92037087597
 21
5430.529312754931
 31
0.0
  0
LINE
  5
270BB
330
1F
100
AcDbEntity
  8
D-STR-DIM
  6
Continuous
100
AcDbLine
 10
10527.92031091821
 20
5640.528911782736
 30
0.0
 11
10527.92031091821
 21
5430.529312754931
 31
0.0
  0
TEXT
  5
270BC
330
1F
100
AcDbEntity
  8
D-STR-DIM
100
AcDbText
 10
10478.06031112892
 20
5364.208913035264
 30
0.0
 40
70.0
  1
10
100
AcDbText
  0
CIRCLE
  5
270BD
330
1F
100
AcDbEntity
  8
D-STR-DIM
  6
Continuous
100
AcDbCircle
 10
10537.92037087597
 20
5460.528912628124
 30
0.0
 40
5.999997974638371
  0
CIRCLE
  5
270BE
330
1F
100
AcDbEntity
  8
D-STR-DIM
  6
Continuous
100
AcDbCircle
 10
10527.92031091821
 20
5460.528912628124
 30
0.0
 40
5.999997974638371
  0
LINE
  5
270BF
330
1F
100
AcDbEntity
  8
D-STR-DIM
  6
Continuous
100
AcDbLine
 10
10527.92031091821
 20
5460.528912628124
 30
0.0
 11
10532.92033089709
 21
5460.528912628124
 31
0.0
  0
LINE
  5
270C0
330
1F
100
AcDbEntity
  8
D-STR-DIM
  6
Continuous
100
AcDbLine
 10
10537.92037087597
 20
5460.528912628124
 30
0.0
 11
10532.92033089709
 21
5460.528912628124
 31
0.0
  0
LINE
  5
270C2
330
1F
100
AcDbEntity
  8
D-STR-DIM
  6
Continuous
100
AcDbLine
 10
9517.920315102886
 20
5795.529311212098
 30
0.0
 11
9107.920336920477
 21
5795.529311212098
 31
0.0
  0
LINE
  5
270C3
330
1F
100
AcDbEntity
  8
D-STR-DIM
  6
Continuous
100
AcDbLine
 10
9477.920315102885
 20
6295.528509098631
 30
0.0
 11
9107.920336920477
 21
6295.528509098631
 31
0.0
  0
CIRCLE
  5
270C5
330
1F
100
AcDbEntity
  8
D-STR-DIM
  6
Continuous
100
AcDbCircle
 10
8337.920400175171
 20
6595.528907830547
 30
0.0
 40
5.999997974638371
  0
CIRCLE
  5
270C6
330
1F
100
AcDbEntity
  8
D-STR-DIM
  6
Continuous
100
AcDbCircle
 10
8337.920400175171
 20
6795.528906985158
 30
0.0
 40
5.999997974638371
  0
CIRCLE
  5
270C7
330
1F
100
AcDbEntity
  8
D-STR-DIM
  6
Continuous
100
AcDbCircle
 10
8037.920401443249
 20
6595.528907830547
 30
0.0
 40
5.999997974638371
  0
CIRCLE
  5
270C8
330
1F
100
AcDbEntity
  8
D-STR-DIM
  6
Continuous
100
AcDbCircle
 10
8037.920401443249
 20
6495.528508253244
 30
0.0
 40
5.999997974638371
  0
LINE
  5
270C9
330
1F
100
AcDbEntity
  8
D-STR-DIM
  6
Continuous
100
AcDbLine
 10
8037.920401443249
 20
6595.528907830547
 30
0.0
 11
8037.920401443249
 21
6545.529308041894
 31
0.0
  0
LINE
  5
270CA
330
1F
100
AcDbEntity
  8
D-STR-DIM
  6
Continuous
100
AcDbLine
 10
8037.920401443249
 20
6495.528508253244
 30
0.0
 11
8037.920401443249
 21
6545.529308041894
 31
0.0
  0
TEXT
  5
270CB
330
1F
100
AcDbEntity
  8
D-STR-DIM
100
AcDbText
 10
8321.920400242815
 20
6608.668907775006
 30
0.0
 40
70.0
  1
200
 50
90.0
100
AcDbText
  0
LINE
  5
270CC
330
1F
100
AcDbEntity
  8
D-STR-DIM
  6
Continuous
100
AcDbLine
 10
8337.920400175171
 20
6795.528906985158
 30
0.0
 11
8337.920400175171
 21
6695.528507407856
 31
0.0
  0
LINE
  5
270CD
330
1F
100
AcDbEntity
  8
D-STR-DIM
  6
Continuous
100
AcDbLine
 10
8337.920400175171
 20
6595.528907830547
 30
0.0
 11
8337.920400175171
 21
6695.528507407856
 31
0.0
  0
TEXT
  5
270CE
330
1F
100
AcDbEntity
  8
D-STR-DIM
100
AcDbText
 10
9121.920336861244
 20
6358.669108831742
 30
0.0
 40
70.0
  1
300
 50
90.0
100
AcDbText
  0
LINE
  5
270D0
330
1F
100
AcDbEntity
  8
D-STR-DIM
  6
Continuous
100
AcDbLine
 10
9137.920356793678
 20
6595.528907830547
 30
0.0
 11
9137.920356793678
 21
6445.52870846459
 31
0.0
  0
LINE
  5
270D5
330
1F
100
AcDbEntity
  8
D-STR-DIM
  6
Continuous
100
AcDbLine
 10
9137.920356793678
 20
6295.528509098631
 30
0.0
 11
9137.920356793678
 21
6045.528910155364
 31
0.0
  0
TEXT
  5
270D6
330
1F
100
AcDbEntity
  8
D-STR-DIM
100
AcDbText
 10
9121.920336861244
 20
5958.669310522514
 30
0.0
 40
70.0
  1
500
 50
90.0
100
AcDbText
  0
CIRCLE
  5
270D7
330
1F
100
AcDbEntity
  8
D-STR-DIM
  6
Continuous
100
AcDbCircle
 10
9137.920356793678
 20
5795.529311212098
 30
0.0
 40
5.999997974638371
  0
LINE
  5
270D8
330
1F
100
AcDbEntity
  8
D-STR-DIM
  6
Continuous
100
AcDbLine
 10
9137.920356793678
 20
5795.529311212098
 30
0.0
 11
9137.920356793678
 21
6045.528910155364
 31
0.0
  0
CIRCLE
  5
270D9
330
1F
100
AcDbEntity
  8
D-STR-DIM
  6
Continuous
100
AcDbCircle
 10
9137.920356793678
 20
6295.528509098631
 30
0.0
 40
5.999997974638371
  0
LINE
  5
270DA
330
1F
100
AcDbEntity
  8
D-STR-DIM
  6
Continuous
100
AcDbLine
 10
9137.920356793678
 20
6295.528509098631
 30
0.0
 11
9137.920356793678
 21
6445.52870846459
 31
0.0
  0
CIRCLE
  5
270DC
330
1F
100
AcDbEntity
  8
D-STR-DIM
  6
Continuous
100
AcDbCircle
 10
9137.920356793678
 20
6595.528907830547
 30
0.0
 40
5.999997974638371
  0
LINE
  5
270DF
330
1F
100
AcDbEntity
  8
D-STR-DIM
  6
Continuous
100
AcDbLine
 10
9537.920315102885
 20
6815.528906985159
 30
0.0
 11
9537.920315102885
 21
7525.528903899493
 31
0.0
  0
LINE
  5
270E0
330
1F
100
AcDbEntity
  8
D-STR-DIM
  6
Continuous
100
AcDbLine
 10
9912.920313517785
 20
6825.528506858353
 30
0.0
 11
9912.920313517785
 21
7225.528505167578
 31
0.0
  0
LINE
  5
270E2
330
1F
100
AcDbEntity
  8
D-STR-DIM
  6
Continuous
100
AcDbLine
 10
10287.92031193268
 20
7165.529105421192
 30
0.0
 11
10287.92031193268
 21
6825.528506858353
 31
0.0
  0
LINE
  5
270E4
330
1F
100
AcDbEntity
  8
D-STR-STR2
  6
Continuous
100
AcDbLine
 10
10047.92033294716
 20
6430.528908527993
 30
0.0
 11
9777.92031408842
 21
6430.528908527993
 31
0.0
  0
LINE
  5
270E5
330
1F
100
AcDbEntity
  8
D-STR-STR2
  6
Continuous
100
AcDbLine
 10
10047.92033294716
 20
6160.529109669267
 30
0.0
 11
9777.92031408842
 21
6160.529109669267
 31
0.0
  0
LINE
  5
270E6
330
1F
100
AcDbEntity
  8
D-BMK
  6
CENTER2
100
AcDbLine
 10
10077.92033282034
 20
6295.528509098631
 30
0.0
 11
9747.920294215223
 21
6295.528509098631
 31
0.0
  0
LINE
  5
270E7
330
1F
100
AcDbEntity
  8
D-STR-STR2
  6
Continuous
100
AcDbLine
 10
10037.9202729894
 20
6170.528709626998
 30
0.0
 11
9787.920354046168
 21
6170.528709626998
 31
0.0
  0
LINE
  5
270E8
330
1F
100
AcDbEntity
  8
D-STR-STR2
  6
Continuous
100
AcDbLine
 10
10037.9202729894
 20
6420.528508570264
 30
0.0
 11
9787.920354046168
 21
6420.528508570264
 31
0.0
  0
LINE
  5
270E9
330
1F
100
AcDbEntity
  8
D-STR-STR2
  6
Continuous
100
AcDbLine
 10
10047.92033294716
 20
5930.528710641464
 30
0.0
 11
9777.92031408842
 21
5930.528710641464
 31
0.0
  0
LINE
  5
270EA
330
1F
100
AcDbEntity
  8
D-BMK
  6
CENTER2
100
AcDbLine
 10
10077.92033282034
 20
5795.529311212098
 30
0.0
 11
9747.920294215223
 21
5795.529311212098
 31
0.0
  0
LINE
  5
270EB
330
1F
100
AcDbEntity
  8
D-STR-STR2
  6
Continuous
100
AcDbLine
 10
10037.9202729894
 20
5920.529110683732
 30
0.0
 11
9787.920354046168
 21
5920.529110683732
 31
0.0
  0
LINE
  5
270EC
330
1F
100
AcDbEntity
  8
D-STR
  6
Continuous
100
AcDbLine
 10
10177.92031239765
 20
6495.528508253244
 30
0.0
 11
9647.92033463793
 21
6495.528508253244
 31
0.0
  0
LINE
  5
270ED
330
1F
100
AcDbEntity
  8
D-BMK
  6
CENTER2
100
AcDbLine
 10
9507.920375229714
 20
6295.528509098631
 30
0.0
 11
9651.920554620964
 21
6295.528509098631
 31
0.0
  0
LINE
  5
270EE
330
1F
100
AcDbEntity
  8
D-STR-STR2
  6
Continuous
100
AcDbLine
 10
9621.920554747775
 20
6345.529308887281
 30
0.0
 11
9621.920554747775
 21
6245.528909309976
 31
0.0
  0
LINE
  5
270EF
330
1F
100
AcDbEntity
  8
D-STR-STR2
  6
Continuous
100
AcDbLine
 10
9537.920315102885
 20
6345.529308887281
 30
0.0
 11
9621.920554747775
 21
6345.529308887281
 31
0.0
  0
LINE
  5
270F0
330
1F
100
AcDbEntity
  8
D-STR-STR2
  6
Continuous
100
AcDbLine
 10
9621.920554747775
 20
6245.528909309976
 30
0.0
 11
9537.920315102885
 21
6245.528909309976
 31
0.0
  0
LINE
  5
270F1
330
1F
100
AcDbEntity
  8
D-STR-STR2
  6
Continuous
100
AcDbLine
 10
9777.92031408842
 20
6430.528908527993
 30
0.0
 11
9777.92031408842
 21
6160.529109669267
 31
0.0
  0
LINE
  5
270F2
330
1F
100
AcDbEntity
  8
D-STR-STR2
  6
Continuous
100
AcDbLine
 10
9787.920354046168
 20
6420.528508570264
 30
0.0
 11
9787.920354046168
 21
6170.528709626998
 31
0.0
  0
LINE
  5
270F3
330
1F
100
AcDbEntity
  8
D-BMK
  6
CENTER2
100
AcDbLine
 10
9912.920313517785
 20
6460.528708401184
 30
0.0
 11
9912.920313517785
 21
6130.528509796077
 31
0.0
  0
LINE
  5
270F5
330
1F
100
AcDbEntity
  8
D-STR
  6
Continuous
100
AcDbLine
 10
9537.920315102885
 20
6595.528907830547
 30
0.0
 11
9647.92033463793
 21
6595.528907830547
 31
0.0
  0
LINE
  5
270F6
330
1F
100
AcDbEntity
  8
D-STR
  6
Continuous
100
AcDbLine
 10
9647.92033463793
 20
6595.528907830547
 30
0.0
 11
9637.920974680193
 21
6585.52850787282
 31
0.0
  0
CIRCLE
  5
270F7
330
1F
100
AcDbEntity
  8
D-STR-STR2
  6
Continuous
100
AcDbCircle
 10
9602.920314828139
 20
6519.529108151797
 30
0.0
 40
9.999997957730611
  0
LINE
  5
270F8
330
1F
100
AcDbEntity
  8
D-STR
  6
Continuous
100
AcDbLine
 10
9537.920315102885
 20
6585.52850787282
 30
0.0
 11
9637.920354680209
 21
6585.52850787282
 31
0.0
  0
LINE
  5
270F9
330
1F
100
AcDbEntity
  8
D-BMK
  6
CENTER2
100
AcDbLine
 10
9562.920314997212
 20
6519.529108151797
 30
0.0
 11
9642.920314659059
 21
6519.529108151797
 31
0.0
  0
LINE
  5
270FA
330
1F
100
AcDbEntity
  8
D-BMK
  6
CENTER2
100
AcDbLine
 10
9602.920314828139
 20
6559.529307982717
 30
0.0
 11
9602.920314828139
 21
6479.528908320872
 31
0.0
  0
LINE
  5
27101
330
1F
100
AcDbEntity
  8
D-STR-STR2
  6
Continuous
100
AcDbLine
 10
10047.92033294716
 20
6430.528908527993
 30
0.0
 11
10047.92033294716
 21
6160.529109669267
 31
0.0
  0
LINE
  5
27102
330
1F
100
AcDbEntity
  8
D-STR-STR2
  6
Continuous
100
AcDbLine
 10
10037.9202729894
 20
6420.528508570264
 30
0.0
 11
10037.9202729894
 21
6170.528709626998
 31
0.0
  0
LINE
  5
27103
330
1F
100
AcDbEntity
  8
D-STR-STR2
  6
Continuous
100
AcDbLine
 10
10537.92037087597
 20
6420.528508570264
 30
0.0
 11
10537.92037087597
 21
6170.528709626998
 31
0.0
  0
LINE
  5
27104
330
1F
100
AcDbEntity
  8
D-STR-STR2
  6
Continuous
100
AcDbLine
 10
10527.92031091821
 20
6430.528908527993
 30
0.0
 11
10527.92031091821
 21
6160.529109669267
 31
0.0
  0
LINE
  5
27106
330
1F
100
AcDbEntity
  8
D-STR
  6
Continuous
100
AcDbLine
 10
10387.92029150998
 20
6585.52850787282
 30
0.0
 11
10187.92035235539
 21
6585.52850787282
 31
0.0
  0
LINE
  5
27107
330
1F
100
AcDbEntity
  8
D-STR
  6
Continuous
100
AcDbLine
 10
10397.92033146772
 20
6595.528907830547
 30
0.0
 11
10177.92031239765
 21
6595.528907830547
 31
0.0
  0
LINE
  5
27108
330
1F
100
AcDbEntity
  8
D-BMK
  6
CENTER2
100
AcDbLine
 10
10377.92037155228
 20
6519.529108151797
 30
0.0
 11
10297.92037189043
 21
6519.529108151797
 31
0.0
  0
CIRCLE
  5
2710A
330
1F
100
AcDbEntity
  8
D-STR-STR2
  6
Continuous
100
AcDbCircle
 10
10237.92033214403
 20
6519.529108151797
 30
0.0
 40
9.999997957730611
  0
LINE
  5
2710C
330
1F
100
AcDbEntity
  8
D-STR
  6
Continuous
100
AcDbLine
 10
10177.92093239763
 20
6595.528907830547
 30
0.0
 11
10187.92097235538
 21
6585.52850787282
 31
0.0
  0
LINE
  5
2710D
330
1F
100
AcDbEntity
  8
D-BMK
  6
CENTER2
100
AcDbLine
 10
10277.92027197494
 20
6519.529108151797
 30
0.0
 11
10197.92027231309
 21
6519.529108151797
 31
0.0
  0
LINE
  5
2710E
330
1F
100
AcDbEntity
  8
D-BMK
  6
CENTER2
100
AcDbLine
 10
10237.92033214403
 20
6559.529307982717
 30
0.0
 11
10237.92033214403
 21
6479.528908320872
 31
0.0
  0
CIRCLE
  5
27111
330
1F
100
AcDbEntity
  8
D-STR-STR2
  6
Continuous
100
AcDbCircle
 10
10337.92031172133
 20
6519.529108151797
 30
0.0
 40
9.999997957730611
  0
LINE
  5
27113
330
1F
100
AcDbEntity
  8
D-STR
  6
Continuous
100
AcDbLine
 10
10397.92033146772
 20
6595.52790783055
 30
0.0
 11
10387.92029150998
 21
6585.52850787282
 31
0.0
  0
LINE
  5
27114
330
1F
100
AcDbEntity
  8
D-BMK
  6
CENTER2
100
AcDbLine
 10
10337.92031172133
 20
6559.529307982717
 30
0.0
 11
10337.92031172133
 21
6479.528908320872
 31
0.0
  0
TEXT
  5
27115
330
1F
100
AcDbEntity
  8
D-STR-DIM
100
AcDbText
 10
9826.060313884923
 20
7511.528903958671
 30
0.0
 40
70.0
  1
750
100
AcDbText
  0
LINE
  5
27117
330
1F
100
AcDbEntity
  8
D-STR-DIM
  6
Continuous
100
AcDbLine
 10
10287.92031193268
 20
7495.529104026303
 30
0.0
 11
9912.920313517785
 21
7495.529104026303
 31
0.0
  0
LINE
  5
27118
330
1F
100
AcDbEntity
  8
D-STR-DIM
  6
Continuous
100
AcDbLine
 10
9912.920313517785
 20
7195.528705294385
 30
0.0
 11
10287.92031193268
 21
7195.528705294385
 31
0.0
  0
TEXT
  5
2711B
330
1F
100
AcDbEntity
  8
D-STR-DIM
100
AcDbText
 10
9638.560314677475
 20
7211.528505226754
 30
0.0
 40
70.0
  1
375
100
AcDbText
  0
LINE
  5
2711C
330
1F
100
AcDbEntity
  8
D-STR-DIM
  6
Continuous
100
AcDbLine
 10
9537.920315102885
 20
7495.529104026303
 30
0.0
 11
9912.920313517785
 21
7495.529104026303
 31
0.0
  0
LINE
  5
2711D
330
1F
100
AcDbEntity
  8
D-STR-DIM
  6
Continuous
100
AcDbLine
 10
9537.920315102885
 20
7195.528705294385
 30
0.0
 11
9725.420314310337
 21
7195.528705294385
 31
0.0
  0
CIRCLE
  5
2711E
330
1F
100
AcDbEntity
  8
D-STR-DIM
  6
Continuous
100
AcDbCircle
 10
9537.920315102885
 20
7195.528705294385
 30
0.0
 40
5.999997974638371
  0
CIRCLE
  5
2711F
330
1F
100
AcDbEntity
  8
D-STR-DIM
  6
Continuous
100
AcDbCircle
 10
9537.920315102885
 20
7495.529104026303
 30
0.0
 40
5.999997974638371
  0
LINE
  5
27120
330
1F
100
AcDbEntity
  8
D-STR-DIM
  6
Continuous
100
AcDbLine
 10
9912.920313517785
 20
7195.528705294385
 30
0.0
 11
9725.420314310337
 21
7195.528705294385
 31
0.0
  0
CIRCLE
  5
27121
330
1F
100
AcDbEntity
  8
D-STR-DIM
  6
Continuous
100
AcDbCircle
 10
9912.920313517785
 20
7195.528705294385
 30
0.0
 40
5.999997974638371
  0
TEXT
  5
27123
330
1F
100
AcDbEntity
  8
D-STR-DIM
100
AcDbText
 10
10201.06031229982
 20
7211.528505226754
 30
0.0
 40
70.0
  1
750
100
AcDbText
  0
LINE
  5
27124
330
1F
100
AcDbEntity
  8
D-STR-DIM
  6
Continuous
100
AcDbLine
 10
10287.92031193268
 20
7302.24970492782
 30
0.0
 11
10287.92031193268
 21
7525.528903899493
 31
0.0
  0
CIRCLE
  5
27125
330
1F
100
AcDbEntity
  8
D-STR-DIM
  6
Continuous
100
AcDbCircle
 10
10287.92031193268
 20
7495.529104026303
 30
0.0
 40
5.999997974638371
  0
TEXT
  5
27127
330
1F
100
AcDbEntity
  8
D-STR-DIM
100
AcDbText
 10
11221.92016798469
 20
5708.668711579253
 30
0.0
 40
70.0
  1
250
 50
90.0
100
AcDbText
  0
LINE
  5
27128
330
1F
100
AcDbEntity
  8
D-STR-DIM
  6
Continuous
100
AcDbLine
 10
11237.92016791704
 20
5670.529511740465
 30
0.0
 11
11237.92016791704
 21
5795.529311212098
 31
0.0
  0
LINE
  5
27129
330
1F
100
AcDbEntity
  8
D-STR
  6
Continuous
100
AcDbLine
 10
10937.92016918512
 20
6585.52850787282
 30
0.0
 11
10937.92016918512
 21
4705.528715819464
 31
0.0
  0
LINE
  5
2712A
330
1F
100
AcDbEntity
  8
D-STR
  6
Continuous
100
AcDbLine
 10
11037.92016876243
 20
6795.528906985158
 30
0.0
 11
11037.92016876243
 21
4495.529116707121
 31
0.0
  0
LINE
  5
2712B
330
1F
100
AcDbEntity
  8
D-STR
  6
Continuous
100
AcDbLine
 10
10927.92016922739
 20
6595.528907830547
 30
0.0
 11
10927.92016922739
 21
4695.529115861734
 31
0.0
  0
LINE
  5
2712C
330
1F
100
AcDbEntity
  8
D-STR-STR2
  6
Continuous
100
AcDbLine
 10
10787.92036981923
 20
5920.529110683732
 30
0.0
 11
10787.92036981923
 21
5670.529511740465
 31
0.0
  0
LINE
  5
2712D
330
1F
100
AcDbEntity
  8
D-BMK
  6
CENTER2
100
AcDbLine
 10
10662.92017034753
 20
5960.529310514654
 30
0.0
 11
10662.92017034753
 21
5630.529311909543
 31
0.0
  0
LINE
  5
2712E
330
1F
100
AcDbEntity
  8
D-STR-STR2
  6
Continuous
100
AcDbLine
 10
10797.92016977689
 20
5930.528710641464
 30
0.0
 11
10797.92016977689
 21
5660.528911782736
 31
0.0
  0
LINE
  5
2712F
330
1F
100
AcDbEntity
  8
D-STR-DIM
  6
Continuous
100
AcDbLine
 10
10972.92016903718
 20
4475.529116707122
 30
0.0
 11
10972.92016903718
 21
4065.528718524706
 31
0.0
  0
LINE
  5
27130
330
1F
100
AcDbEntity
  8
D-STR-DIM
  6
Continuous
100
AcDbLine
 10
11037.92016876243
 20
4475.529116707122
 30
0.0
 11
11037.92016876243
 21
3765.529319792786
 31
0.0
  0
LINE
  5
27131
330
1F
100
AcDbEntity
  8
D-STR-DIM
  6
Continuous
100
AcDbLine
 10
10972.92016903718
 20
4095.529318397896
 30
0.0
 11
10655.42017037923
 21
4095.529318397896
 31
0.0
  0
TEXT
  5
27132
330
1F
100
AcDbEntity
  8
D-STR-DIM
100
AcDbText
 10
10983.06016899435
 20
3999.209118805037
 30
0.0
 40
70.0
  1
65
100
AcDbText
  0
CIRCLE
  5
27133
330
1F
100
AcDbEntity
  8
D-STR-DIM
  6
Continuous
100
AcDbCircle
 10
11037.92016876243
 20
3795.528919665979
 30
0.0
 40
5.999997974638371
  0
CIRCLE
  5
27134
330
1F
100
AcDbEntity
  8
D-STR-DIM
  6
Continuous
100
AcDbCircle
 10
10972.92016903718
 20
4095.529318397896
 30
0.0
 40
5.999997974638371
  0
CIRCLE
  5
27135
330
1F
100
AcDbEntity
  8
D-STR-DIM
  6
Continuous
100
AcDbCircle
 10
11037.92016876243
 20
4095.529318397896
 30
0.0
 40
5.999997974638371
  0
LINE
  5
27136
330
1F
100
AcDbEntity
  8
D-STR-DIM
  6
Continuous
100
AcDbLine
 10
10972.92016903718
 20
4095.529318397896
 30
0.0
 11
11005.42016889981
 21
4095.529318397896
 31
0.0
  0
LINE
  5
27137
330
1F
100
AcDbEntity
  8
D-STR-DIM
  6
Continuous
100
AcDbLine
 10
11037.92016876243
 20
4095.529318397896
 30
0.0
 11
11005.42016889981
 21
4095.529318397896
 31
0.0
  0
TEXT
  5
27138
330
1F
100
AcDbEntity
  8
D-STR-DIM
100
AcDbText
 10
11334.24036750995
 20
5610.668911993492
 30
0.0
 40
70.0
  1
10
 50
90.0
100
AcDbText
  0
CIRCLE
  5
27139
330
1F
100
AcDbEntity
  8
D-STR-DIM
  6
Continuous
100
AcDbCircle
 10
10937.92016918512
 20
5095.528914170956
 30
0.0
 40
5.999997974638371
  0
CIRCLE
  5
2713A
330
1F
100
AcDbEntity
  8
D-STR-DIM
  6
Continuous
100
AcDbCircle
 10
11037.92016876243
 20
5095.528914170956
 30
0.0
 40
5.999997974638371
  0
CIRCLE
  5
2713B
330
1F
100
AcDbEntity
  8
D-STR-DIM
  6
Continuous
100
AcDbCircle
 10
10927.92016922739
 20
5095.528914170956
 30
0.0
 40
5.999997974638371
  0
LINE
  5
2713C
330
1F
100
AcDbEntity
  8
D-STR-DIM
  6
Continuous
100
AcDbLine
 10
10937.92016918512
 20
5095.528914170956
 30
0.0
 11
10987.92016897378
 21
5095.528914170956
 31
0.0
  0
LINE
  5
2713D
330
1F
100
AcDbEntity
  8
D-BMK
  6
CENTER2
100
AcDbLine
 10
10932.92016920626
 20
4778.529115510897
 30
0.0
 11
11012.9201688681
 21
4778.529115510897
 31
0.0
  0
LINE
  5
2713E
330
1F
100
AcDbEntity
  8
D-STR
  6
Continuous
100
AcDbLine
 10
11037.92016876243
 20
4705.528715819464
 30
0.0
 11
10937.92016918512
 21
4705.528715819464
 31
0.0
  0
LINE
  5
2713F
330
1F
100
AcDbEntity
  8
D-STR
  6
Continuous
100
AcDbLine
 10
11037.92016876243
 20
4695.529115861734
 30
0.0
 11
10927.92016922739
 21
4695.529115861734
 31
0.0
  0
LINE
  5
27140
330
1F
100
AcDbEntity
  8
D-STR
  6
Continuous
100
AcDbLine
 10
10937.91956918514
 20
4705.528715819464
 30
0.0
 11
10927.92016922739
 21
4695.528115861738
 31
0.0
  0
LINE
  5
27141
330
1F
100
AcDbEntity
  8
D-STR-DIM
  6
Continuous
100
AcDbLine
 10
10927.92016922739
 20
5095.528914170956
 30
0.0
 11
10932.92016920626
 21
5095.528914170956
 31
0.0
  0
LINE
  5
27142
330
1F
100
AcDbEntity
  8
D-STR-DIM
  6
Continuous
100
AcDbLine
 10
10932.92016920626
 20
5095.528914170956
 30
0.0
 11
10804.65776974847
 21
5095.528914170956
 31
0.0
  0
LINE
  5
27143
330
1F
100
AcDbEntity
  8
D-STR-DIM
  6
Continuous
100
AcDbLine
 10
10937.92016918512
 20
5095.528914170956
 30
0.0
 11
10932.92016920626
 21
5095.528914170956
 31
0.0
  0
LINE
  5
27144
330
1F
100
AcDbEntity
  8
D-BMK
  6
CENTER2
100
AcDbLine
 10
10972.92016903718
 20
4818.529315341818
 30
0.0
 11
10972.92016903718
 21
4738.528915679976
 31
0.0
  0
LINE
  5
27145
330
1F
100
AcDbEntity
  8
D-STR-DIM
  6
Continuous
100
AcDbLine
 10
10987.92016897378
 20
5095.528914170956
 30
0.0
 11
11154.77016826856
 21
5095.528914170956
 31
0.0
  0
CIRCLE
  5
27146
330
1F
100
AcDbEntity
  8
D-STR-STR2
  6
Continuous
100
AcDbCircle
 10
10972.92016903718
 20
4778.529115510897
 30
0.0
 40
9.999997957730611
  0
LINE
  5
27147
330
1F
100
AcDbEntity
  8
D-STR-DIM
  6
Continuous
100
AcDbLine
 10
11037.92016876243
 20
5095.528914170956
 30
0.0
 11
10987.92016897378
 21
5095.528914170956
 31
0.0
  0
LINE
  5
27148
330
1F
100
AcDbEntity
  8
D-STR-DIM
  6
Continuous
100
AcDbLine
 10
10817.92016977689
 20
5670.529511740465
 30
0.0
 11
11267.9203677903
 21
5670.529511740465
 31
0.0
  0
LINE
  5
27149
330
1F
100
AcDbEntity
  8
D-STR-DIM
  6
Continuous
100
AcDbLine
 10
10817.92016977689
 20
5660.528911782736
 30
0.0
 11
11267.9203677903
 21
5660.528911782736
 31
0.0
  0
LINE
  5
2714A
330
1F
100
AcDbEntity
  8
D-STR-DIM
  6
Continuous
100
AcDbLine
 10
10787.92036981923
 20
5640.528911782736
 30
0.0
 11
10787.92036981923
 21
5430.529312754931
 31
0.0
  0
LINE
  5
2714B
330
1F
100
AcDbEntity
  8
D-STR-DIM
  6
Continuous
100
AcDbLine
 10
10797.92016977689
 20
5640.528911782736
 30
0.0
 11
10797.92016977689
 21
5430.529312754931
 31
0.0
  0
TEXT
  5
2714C
330
1F
100
AcDbEntity
  8
D-STR-DIM
100
AcDbText
 10
10738.06037002994
 20
5364.208913035264
 30
0.0
 40
70.0
  1
10
100
AcDbText
  0
TEXT
  5
2714D
330
1F
100
AcDbEntity
  8
D-STR-DIM
100
AcDbText
 10
10804.65816974846
 20
5111.528714103329
 30
0.0
 40
70.0
  1
10
100
AcDbText
  0
CIRCLE
  5
2714E
330
1F
100
AcDbEntity
  8
D-STR-DIM
  6
Continuous
100
AcDbCircle
 10
10797.92016977689
 20
5460.528912628124
 30
0.0
 40
5.999997974638371
  0
LINE
  5
2714F
330
1F
100
AcDbEntity
  8
D-STR-DIM
  6
Continuous
100
AcDbLine
 10
10797.92016977689
 20
5460.528912628124
 30
0.0
 11
10792.9203697981
 21
5460.528912628124
 31
0.0
  0
CIRCLE
  5
27150
330
1F
100
AcDbEntity
  8
D-STR-DIM
  6
Continuous
100
AcDbCircle
 10
10787.92036981923
 20
5460.528912628124
 30
0.0
 40
5.999997974638371
  0
LINE
  5
27151
330
1F
100
AcDbEntity
  8
D-STR-DIM
  6
Continuous
100
AcDbLine
 10
10787.92036981923
 20
5460.528912628124
 30
0.0
 11
10792.9203697981
 21
5460.528912628124
 31
0.0
  0
LINE
  5
27152
330
1F
100
AcDbEntity
  8
D-STR-DIM
  6
Continuous
100
AcDbLine
 10
10787.92036981923
 20
5460.528912628124
 30
0.0
 11
10662.92017034753
 21
5460.528912628124
 31
0.0
  0
TEXT
  5
27153
330
1F
100
AcDbEntity
  8
D-STR-DIM
100
AcDbText
 10
10981.05036900283
 20
5111.528714103329
 30
0.0
 40
70.0
  1
100
100
AcDbText
  0
CIRCLE
  5
27154
330
1F
100
AcDbEntity
  8
D-STR-DIM
  6
Continuous
100
AcDbCircle
 10
11237.92016791704
 20
5670.529511740465
 30
0.0
 40
5.999997974638371
  0
CIRCLE
  5
27155
330
1F
100
AcDbEntity
  8
D-STR-DIM
  6
Continuous
100
AcDbCircle
 10
11237.92016791704
 20
5660.528911782736
 30
0.0
 40
5.999997974638371
  0
LINE
  5
27156
330
1F
100
AcDbEntity
  8
D-STR-DIM
  6
Continuous
100
AcDbLine
 10
11237.92016791704
 20
5670.529511740465
 30
0.0
 11
11237.92016791704
 21
5665.529111761602
 31
0.0
  0
LINE
  5
27157
330
1F
100
AcDbEntity
  8
D-STR-DIM
  6
Continuous
100
AcDbLine
 10
11237.92016791704
 20
5660.528911782736
 30
0.0
 11
11237.92016791704
 21
5665.529111761602
 31
0.0
  0
LINE
  5
27158
330
1F
100
AcDbEntity
  8
D-STR-DIM
  6
Continuous
100
AcDbLine
 10
11037.92016876243
 20
7131.528905733986
 30
0.0
 11
11037.92016876243
 21
7525.528903899493
 31
0.0
  0
LINE
  5
27159
330
1F
100
AcDbEntity
  8
D-STR-DIM
  6
Continuous
100
AcDbLine
 10
11037.92016876243
 20
7111.528905733987
 30
0.0
 11
11037.92016876243
 21
7225.528505167578
 31
0.0
  0
LINE
  5
2715A
330
1F
100
AcDbEntity
  8
D-STR-DIM
  6
Continuous
100
AcDbLine
 10
10662.92017034753
 20
7091.528905733986
 30
0.0
 11
10662.92017034753
 21
7225.528505167578
 31
0.0
  0
TEXT
  5
2715B
330
1F
100
AcDbEntity
  8
D-STR-DIM
100
AcDbText
 10
11334.24036750995
 20
5870.669110894489
 30
0.0
 40
70.0
  1
10
 50
90.0
100
AcDbText
  0
LINE
  5
2715C
330
1F
100
AcDbEntity
  8
D-STR-DIM
  6
Continuous
100
AcDbLine
 10
11097.92016876243
 20
6295.528509098631
 30
0.0
 11
11467.92016694484
 21
6295.528509098631
 31
0.0
  0
LINE
  5
2715D
330
1F
100
AcDbEntity
  8
D-STR-DIM
  6
Continuous
100
AcDbLine
 10
11057.92016876243
 20
6595.528907830547
 30
0.0
 11
11467.92016694484
 21
6595.528907830547
 31
0.0
  0
LINE
  5
2715F
330
1F
100
AcDbEntity
  8
D-STR-DIM
  6
Continuous
100
AcDbLine
 10
10817.92016977689
 20
5920.529110683732
 30
0.0
 11
11267.9203677903
 21
5920.529110683732
 31
0.0
  0
LINE
  5
27160
330
1F
100
AcDbEntity
  8
D-STR-DIM
  6
Continuous
100
AcDbLine
 10
10817.92016977689
 20
5930.528710641464
 30
0.0
 11
11267.9203677903
 21
5930.528710641464
 31
0.0
  0
LINE
  5
27161
330
1F
100
AcDbEntity
  8
D-STR-STR2
  6
Continuous
100
AcDbLine
 10
10953.91996911756
 20
6245.528909309976
 30
0.0
 11
11037.92016876243
 21
6245.528909309976
 31
0.0
  0
LINE
  5
27162
330
1F
100
AcDbEntity
  8
D-STR-STR2
  6
Continuous
100
AcDbLine
 10
11037.92016876243
 20
6345.529308887281
 30
0.0
 11
10953.91996911756
 21
6345.529308887281
 31
0.0
  0
LINE
  5
27163
330
1F
100
AcDbEntity
  8
D-BMK
  6
CENTER2
100
AcDbLine
 10
11067.92016863562
 20
6295.528509098631
 30
0.0
 11
10923.91996924436
 21
6295.528509098631
 31
0.0
  0
LINE
  5
27164
330
1F
100
AcDbEntity
  8
D-STR-STR2
  6
Continuous
100
AcDbLine
 10
10787.92036981923
 20
6420.528508570264
 30
0.0
 11
10787.92036981923
 21
6170.528709626998
 31
0.0
  0
LINE
  5
27165
330
1F
100
AcDbEntity
  8
D-BMK
  6
CENTER2
100
AcDbLine
 10
10662.92017034753
 20
6460.528708401184
 30
0.0
 11
10662.92017034753
 21
6130.528509796077
 31
0.0
  0
LINE
  5
27166
330
1F
100
AcDbEntity
  8
D-STR-STR2
  6
Continuous
100
AcDbLine
 10
10953.91996911756
 20
6345.529308887281
 30
0.0
 11
10953.91996911756
 21
6245.528909309976
 31
0.0
  0
LINE
  5
27167
330
1F
100
AcDbEntity
  8
D-STR-STR2
  6
Continuous
100
AcDbLine
 10
10797.92016977689
 20
6430.528908527993
 30
0.0
 11
10797.92016977689
 21
6160.529109669267
 31
0.0
  0
CIRCLE
  5
27169
330
1F
100
AcDbEntity
  8
D-STR-DIM
  6
Continuous
100
AcDbCircle
 10
11237.92016791704
 20
5920.529110683732
 30
0.0
 40
5.999997974638371
  0
CIRCLE
  5
2716A
330
1F
100
AcDbEntity
  8
D-STR-DIM
  6
Continuous
100
AcDbCircle
 10
11237.92016791704
 20
5930.528710641464
 30
0.0
 40
5.999997974638371
  0
LINE
  5
2716B
330
1F
100
AcDbEntity
  8
D-STR-DIM
  6
Continuous
100
AcDbLine
 10
11237.92016791704
 20
5920.529110683732
 30
0.0
 11
11237.92016791704
 21
5795.529311212098
 31
0.0
  0
LINE
  5
2716C
330
1F
100
AcDbEntity
  8
D-STR-DIM
  6
Continuous
100
AcDbLine
 10
11237.92016791704
 20
5930.528710641464
 30
0.0
 11
11237.92016791704
 21
5925.529310662597
 31
0.0
  0
LINE
  5
2716D
330
1F
100
AcDbEntity
  8
D-STR-DIM
  6
Continuous
100
AcDbLine
 10
11237.92016791704
 20
5920.529110683732
 30
0.0
 11
11237.92016791704
 21
5925.529310662597
 31
0.0
  0
LINE
  5
27171
330
1F
100
AcDbEntity
  8
D-BMK
  6
CENTER2
100
AcDbLine
 10
10932.92016920626
 20
6519.529108151797
 30
0.0
 11
11012.9201688681
 21
6519.529108151797
 31
0.0
  0
LINE
  5
27172
330
1F
100
AcDbEntity
  8
D-STR
  6
Continuous
100
AcDbLine
 10
11037.92016876243
 20
6595.528907830547
 30
0.0
 11
10927.92016922739
 21
6595.528907830547
 31
0.0
  0
LINE
  5
27173
330
1F
100
AcDbEntity
  8
D-STR
  6
Continuous
100
AcDbLine
 10
11037.92016876243
 20
6585.52850787282
 30
0.0
 11
10937.92016918512
 21
6585.52850787282
 31
0.0
  0
LINE
  5
27174
330
1F
100
AcDbEntity
  8
D-STR
  6
Continuous
100
AcDbLine
 10
10927.92076922745
 20
6595.52790783055
 30
0.0
 11
10937.92016918512
 21
6585.52850787282
 31
0.0
  0
LINE
  5
27175
330
1F
100
AcDbEntity
  8
D-STR-DIM
  6
Continuous
100
AcDbLine
 10
10662.92017034753
 20
6869.529106672368
 30
0.0
 11
10662.92017034753
 21
6825.528506858353
 31
0.0
  0
CIRCLE
  5
27176
330
1F
100
AcDbEntity
  8
D-STR-STR2
  6
Continuous
100
AcDbCircle
 10
10972.92016903718
 20
6519.529108151797
 30
0.0
 40
9.999997957730611
  0
LINE
  5
27177
330
1F
100
AcDbEntity
  8
D-BMK
  6
CENTER2
100
AcDbLine
 10
10972.92016903718
 20
6559.529307982717
 30
0.0
 11
10972.92016903718
 21
6479.528908320872
 31
0.0
  0
LINE
  5
27178
330
1F
100
AcDbEntity
  8
D-STR-DIM
  6
Continuous
100
AcDbLine
 10
11037.92016876243
 20
6869.529106672368
 30
0.0
 11
11037.92016876243
 21
6825.528506858353
 31
0.0
  0
TEXT
  5
27179
330
1F
100
AcDbEntity
  8
D-STR-DIM
100
AcDbText
 10
11421.9201671393
 20
6358.669108831742
 30
0.0
 40
70.0
  1
300
 50
90.0
100
AcDbText
  0
LINE
  5
2717A
330
1F
100
AcDbEntity
  8
D-STR-DIM
  6
Continuous
100
AcDbLine
 10
11437.92016707166
 20
6595.528907830547
 30
0.0
 11
11437.92016707166
 21
6445.52870846459
 31
0.0
  0
CIRCLE
  5
2717C
330
1F
100
AcDbEntity
  8
D-STR-DIM
  6
Continuous
100
AcDbCircle
 10
11437.92016707166
 20
6295.528509098631
 30
0.0
 40
5.999997974638371
  0
LINE
  5
2717D
330
1F
100
AcDbEntity
  8
D-STR-DIM
  6
Continuous
100
AcDbLine
 10
11437.92016707166
 20
6295.528509098631
 30
0.0
 11
11437.92016707166
 21
6445.52870846459
 31
0.0
  0
CIRCLE
  5
2717E
330
1F
100
AcDbEntity
  8
D-STR-DIM
  6
Continuous
100
AcDbCircle
 10
11437.92016707166
 20
6595.528907830547
 30
0.0
 40
5.999997974638371
  0
LINE
  5
2717F
330
1F
100
AcDbEntity
  8
D-STR-DIM
  6
Continuous
100
AcDbLine
 10
11037.92016876243
 20
7495.529104026303
 30
0.0
 11
10662.92017034753
 21
7495.529104026303
 31
0.0
  0
LINE
  5
27180
330
1F
100
AcDbEntity
  8
D-STR-DIM
  6
Continuous
100
AcDbLine
 10
11037.92016876243
 20
7195.528705294385
 30
0.0
 11
10850.42016955498
 21
7195.528705294385
 31
0.0
  0
TEXT
  5
27181
330
1F
100
AcDbEntity
  8
D-STR-DIM
100
AcDbText
 10
10763.56016992219
 20
7211.528505226754
 30
0.0
 40
70.0
  1
375
100
AcDbText
  0
LINE
  5
27182
330
1F
100
AcDbEntity
  8
D-STR-DIM
  6
Continuous
100
AcDbLine
 10
10662.92017034753
 20
7195.528705294385
 30
0.0
 11
10850.42016955498
 21
7195.528705294385
 31
0.0
  0
CIRCLE
  5
27183
330
1F
100
AcDbEntity
  8
D-STR-DIM
  6
Continuous
100
AcDbCircle
 10
10662.92017034753
 20
7195.528705294385
 30
0.0
 40
5.999997974638371
  0
CIRCLE
  5
27184
330
1F
100
AcDbEntity
  8
D-STR-DIM
  6
Continuous
100
AcDbCircle
 10
11037.92016876243
 20
7195.528705294385
 30
0.0
 40
5.999997974638371
  0
CIRCLE
  5
27185
330
1F
100
AcDbEntity
  8
D-STR-DIM
  6
Continuous
100
AcDbCircle
 10
11037.92016876243
 20
7495.529104026303
 30
0.0
 40
5.999997974638371
  0
LINE
  5
271D4
330
1F
100
AcDbEntity
  8
D-STR
  6
Continuous
100
AcDbLine
 10
7217.919884909385
 20
1145.529130867368
 30
0.0
 11
7342.919844381005
 21
1095.529331078714
 31
0.0
  0
LINE
  5
271D5
330
1F
100
AcDbEntity
  8
D-STR-DIM
  6
Continuous
100
AcDbLine
 10
7937.920441865957
 20
995.5289315014105
 30
0.0
 11
7937.920441865957
 21
1520.529129282266
 31
0.0
  0
LINE
  5
271D6
330
1F
100
AcDbEntity
  8
D-STR-DIM
  6
Continuous
100
AcDbLine
 10
8237.920400597934
 20
995.5289315014105
 30
0.0
 11
8237.920400597934
 21
1745.528928331205
 31
0.0
  0
LINE
  5
271D7
330
1F
100
AcDbEntity
  8
D-BMK
  6
CENTER2
100
AcDbLine
 10
7017.920445754743
 20
965.5291316282182
 30
0.0
 11
7017.920445754743
 21
1125.528930951908
 31
0.0
  0
LINE
  5
271D8
330
1F
100
AcDbEntity
  8
D-BMK
  6
CENTER2
100
AcDbLine
 10
6417.920588290951
 20
965.5291316282182
 30
0.0
 11
6417.920588290951
 21
1125.528930951908
 31
0.0
  0
LINE
  5
271D9
330
1F
100
AcDbEntity
  8
D-STR
  6
Continuous
100
AcDbLine
 10
6217.920389136347
 20
1145.529130867368
 30
0.0
 11
6092.920589664707
 21
1095.529331078714
 31
0.0
  0
LINE
  5
271DC
330
1F
100
AcDbEntity
  8
D-STR
  6
Continuous
100
AcDbLine
 10
5897.920390488966
 20
2495.528925161001
 30
0.0
 11
5897.920390488966
 21
995.5289315014105
 31
0.0
  0
LINE
  5
271DD
330
1F
100
AcDbEntity
  8
D-STR
  6
Continuous
100
AcDbLine
 10
7537.920383556786
 20
2495.528925161001
 30
0.0
 11
7537.920383556786
 21
995.5289315014105
 31
0.0
  0
LINE
  5
271E2
330
1F
100
AcDbEntity
  8
D-STR-HTXT
  6
Continuous
100
AcDbLine
 10
6417.919388290918
 20
995.5293315014095
 30
0.0
 11
7133.390445266716
 21
795.5293323467977
 31
0.0
  0
LINE
  5
271E3
330
1F
100
AcDbEntity
  8
D-STR-HTXT
  6
Continuous
100
AcDbLine
 10
7017.920445754743
 20
995.5289315014105
 30
0.0
 11
7133.390445266716
 21
795.5293323467977
 31
0.0
  0
LINE
  5
271E4
330
1F
100
AcDbEntity
  8
D-STR
  6
Continuous
100
AcDbLine
 10
7537.920383556786
 20
995.5289315014105
 30
0.0
 11
5897.920390488966
 21
995.5289315014105
 31
0.0
  0
LINE
  5
271E7
330
1F
100
AcDbEntity
  8
D-STR-HTXT
  6
Continuous
100
AcDbLine
 10
6458.342388120057
 20
991.553131518216
 30
0.0
 11
6417.920588290951
 21
995.5293315014095
 31
0.0
  0
LINE
  5
271E8
330
1F
100
AcDbEntity
  8
D-STR-STR2
  6
Continuous
100
AcDbLine
 10
6367.9205885023
 20
1095.528731078717
 30
0.0
 11
6467.920588079607
 21
1095.528731078717
 31
0.0
  0
LINE
  5
271F0
330
1F
100
AcDbEntity
  8
D-STR
  6
Continuous
100
AcDbLine
 10
6092.920589664707
 20
1095.528731078717
 30
0.0
 11
6092.920589664707
 21
995.5289315014105
 31
0.0
  0
LINE
  5
271F1
330
1F
100
AcDbEntity
  8
D-STR-STR2
  6
Continuous
100
AcDbLine
 10
6367.9205885023
 20
995.5289315014105
 30
0.0
 11
6367.9205885023
 21
1095.528731078717
 31
0.0
  0
LINE
  5
271F7
330
1F
100
AcDbEntity
  8
D-STR-STR2
  6
Continuous
100
AcDbLine
 10
6467.920588079607
 20
1095.528731078717
 30
0.0
 11
6467.920588079607
 21
995.5289315014105
 31
0.0
  0
LINE
  5
271F8
330
1F
100
AcDbEntity
  8
D-STR-STR2
  6
Continuous
100
AcDbLine
 10
6967.920465966097
 20
1095.528731078717
 30
0.0
 11
7067.92042554346
 21
1095.528731078717
 31
0.0
  0
LINE
  5
271F9
330
1F
100
AcDbEntity
  8
D-STR-HTXT
  6
Continuous
100
AcDbLine
 10
7044.028685644414
 20
964.4149316329276
 30
0.0
 11
7017.920445754743
 21
995.5293315014095
 31
0.0
  0
LINE
  5
271FA
330
1F
100
AcDbEntity
  8
D-STR-STR2
  6
Continuous
100
AcDbLine
 10
6967.920465966097
 20
995.5289315014105
 30
0.0
 11
6967.920465966097
 21
1095.528731078717
 31
0.0
  0
LINE
  5
271FB
330
1F
100
AcDbEntity
  8
D-STR-STR2
  6
Continuous
100
AcDbLine
 10
7067.92042554346
 20
1095.528731078717
 30
0.0
 11
7067.92042554346
 21
995.5289315014105
 31
0.0
  0
LINE
  5
27204
330
1F
100
AcDbEntity
  8
D-STR-HTXT
  6
Continuous
100
AcDbLine
 10
7517.613733383012
 20
795.5289323467987
 30
0.0
 11
7133.390445266716
 21
795.5289323467987
 31
0.0
  0
TEXT
  5
27205
330
1F
100
AcDbEntity
  8
D-STR-HTXT
100
AcDbText
 10
7110.530385363323
 20
811.5291322791673
 30
0.0
 40
70.0
  1
　連結金具
100
AcDbText
  0
LINE
  5
27206
330
1F
100
AcDbEntity
  8
D-STR
  6
Continuous
100
AcDbLine
 10
7342.920464380994
 20
1095.528731078717
 30
0.0
 11
7342.920464380994
 21
995.5289315014105
 31
0.0
  0
CIRCLE
  5
27207
330
1F
100
AcDbEntity
  8
D-STR-DIM
  6
Continuous
100
AcDbCircle
 10
7937.920441865957
 20
995.5289315014105
 30
0.0
 40
5.999997974638371
  0
CIRCLE
  5
27208
330
1F
100
AcDbEntity
  8
D-STR-DIM
  6
Continuous
100
AcDbCircle
 10
8237.920400597934
 20
995.5289315014105
 30
0.0
 40
5.999997974638371
  0
TEXT
  5
2721C
330
1F
100
AcDbEntity
  8
D-STR-DIM
100
AcDbText
 10
6231.060589080786
 20
2911.529323402593
 30
0.0
 40
70.0
  1
820
100
AcDbText
  0
TEXT
  5
2721D
330
1F
100
AcDbEntity
  8
D-STR-DIM
100
AcDbText
 10
7031.060405699246
 20
2911.529323402593
 30
0.0
 40
70.0
  1
820
100
AcDbText
  0
LINE
  5
2721E
330
1F
100
AcDbEntity
  8
D-STR-DIM
  6
Continuous
100
AcDbLine
 10
7537.920383556786
 20
4465.528516833932
 30
0.0
 11
7537.920383556786
 21
2525.52952503419
 31
0.0
  0
LINE
  5
2721F
330
1F
100
AcDbEntity
  8
D-STR-DIM
  6
Continuous
100
AcDbLine
 10
5897.920390488966
 20
4465.528516833932
 30
0.0
 11
5897.920390488966
 21
2525.52952503419
 31
0.0
  0
LINE
  5
27220
330
1F
100
AcDbEntity
  8
D-STR-DIM
  6
Continuous
100
AcDbLine
 10
6717.920427022891
 20
2895.528723470226
 30
0.0
 11
7127.920465289786
 21
2895.528723470226
 31
0.0
  0
LINE
  5
27222
330
1F
100
AcDbEntity
  8
D-STR
  6
Continuous
100
AcDbLine
 10
7537.920383556786
 20
2495.528925161001
 30
0.0
 11
5897.920390488966
 21
2495.528925161001
 31
0.0
  0
CIRCLE
  5
27224
330
1F
100
AcDbEntity
  8
D-STR-STR2
  6
Continuous
100
AcDbCircle
 10
6717.920427022891
 20
2045.529327063123
 30
0.0
 40
37.49999784148978
  0
CIRCLE
  5
27225
330
1F
100
AcDbEntity
  8
D-STR-STR2
  6
Continuous
100
AcDbCircle
 10
6717.920427022891
 20
2045.529327063123
 30
0.0
 40
169.9999952814203
  0
CIRCLE
  5
27226
330
1F
100
AcDbEntity
  8
D-STR-STR2
  6
Continuous
100
AcDbCircle
 10
6717.920427022891
 20
2045.529327063123
 30
0.0
 40
149.999995365959
  0
LINE
  5
27227
330
1F
100
AcDbEntity
  8
D-STR
  6
Continuous
100
AcDbLine
 10
6217.920389136347
 20
2345.528725795044
 30
0.0
 11
6217.920389136347
 21
1895.529127697164
 31
0.0
  0
LINE
  5
27228
330
1F
100
AcDbEntity
  8
D-STR
  6
Continuous
100
AcDbLine
 10
6117.920389559039
 20
2385.528925625964
 30
0.0
 11
6117.920389559039
 21
1855.528927866242
 31
0.0
  0
LINE
  5
27229
330
1F
100
AcDbEntity
  8
D-BMK
  6
CENTER2
100
AcDbLine
 10
6717.920427022891
 20
1845.528727908513
 30
0.0
 11
6717.920427022891
 21
2245.529126217734
 31
0.0
  0
LINE
  5
2722A
330
1F
100
AcDbEntity
  8
D-STR
  6
Continuous
100
AcDbLine
 10
6117.920389559039
 20
1635.528928796169
 30
0.0
 11
6117.920389559039
 21
1105.528931036448
 31
0.0
  0
LINE
  5
2722B
330
1F
100
AcDbEntity
  8
D-STR
  6
Continuous
100
AcDbLine
 10
6217.920389136347
 20
1595.529128965245
 30
0.0
 11
6217.920389136347
 21
1145.529130867368
 31
0.0
  0
LINE
  5
2722F
330
1F
100
AcDbEntity
  8
D-STR
  6
Continuous
100
AcDbLine
 10
6217.920389136347
 20
1895.529127697164
 30
0.0
 11
6092.920589664707
 21
1845.528727908513
 31
0.0
  0
LINE
  5
27230
330
1F
100
AcDbEntity
  8
D-STR
  6
Continuous
100
AcDbLine
 10
6217.920389136347
 20
1595.529128965245
 30
0.0
 11
6092.920589664707
 21
1645.5289287539
 31
0.0
  0
LINE
  5
27231
330
1F
100
AcDbEntity
  8
D-STR
  6
Continuous
100
AcDbLine
 10
6092.920589664707
 20
1845.528727908513
 30
0.0
 11
6092.920589664707
 21
1645.5289287539
 31
0.0
  0
LINE
  5
27235
330
1F
100
AcDbEntity
  8
D-STR-DIM
  6
Continuous
100
AcDbLine
 10
6717.920427022891
 20
2895.528723470226
 30
0.0
 11
6307.920588755915
 21
2895.528723470226
 31
0.0
  0
LINE
  5
27236
330
1F
100
AcDbEntity
  8
D-STR-STR2
  6
Continuous
100
AcDbLine
 10
6367.9205885023
 20
2395.529325583693
 30
0.0
 11
6467.920588079607
 21
2395.529325583693
 31
0.0
  0
LINE
  5
27237
330
1F
100
AcDbEntity
  8
D-BMK
  6
CENTER2
100
AcDbLine
 10
6417.920588290951
 20
2525.52952503419
 30
0.0
 11
6417.920588290951
 21
2365.528725710505
 31
0.0
  0
LINE
  5
27238
330
1F
100
AcDbEntity
  8
D-STR-STR2
  6
Continuous
100
AcDbLine
 10
6367.9205885023
 20
2495.528925161001
 30
0.0
 11
6367.9205885023
 21
2395.529325583693
 31
0.0
  0
LINE
  5
27239
330
1F
100
AcDbEntity
  8
D-STR
  6
Continuous
100
AcDbLine
 10
6092.920589664707
 20
2495.528925161001
 30
0.0
 11
6092.920589664707
 21
2395.529325583693
 31
0.0
  0
LINE
  5
2723A
330
1F
100
AcDbEntity
  8
D-STR
  6
Continuous
100
AcDbLine
 10
6217.920389136347
 20
2345.528725795044
 30
0.0
 11
6092.920589664707
 21
2395.528325583699
 31
0.0
  0
LINE
  5
2723E
330
1F
100
AcDbEntity
  8
D-STR-DIM
  6
Continuous
100
AcDbLine
 10
5897.920390488966
 20
2895.528723470226
 30
0.0
 11
6307.920588755915
 21
2895.528723470226
 31
0.0
  0
CIRCLE
  5
2723F
330
1F
100
AcDbEntity
  8
D-STR-DIM
  6
Continuous
100
AcDbCircle
 10
5897.920390488966
 20
2895.528723470226
 30
0.0
 40
5.999997974638371
  0
LINE
  5
27240
330
1F
100
AcDbEntity
  8
D-STR-DIM
  6
Continuous
100
AcDbLine
 10
6417.920588290951
 20
2865.529123597033
 30
0.0
 11
6417.920588290951
 21
2545.52952503419
 31
0.0
  0
LINE
  5
27241
330
1F
100
AcDbEntity
  8
D-BMK
  6
CENTER2
100
AcDbLine
 10
7017.920445754743
 20
2525.52952503419
 30
0.0
 11
7017.920445754743
 21
2365.528725710505
 31
0.0
  0
LINE
  5
27242
330
1F
100
AcDbEntity
  8
D-STR-STR2
  6
Continuous
100
AcDbLine
 10
6967.920465966097
 20
2495.528925161001
 30
0.0
 11
6967.920465966097
 21
2395.529325583693
 31
0.0
  0
LINE
  5
27243
330
1F
100
AcDbEntity
  8
D-STR-STR2
  6
Continuous
100
AcDbLine
 10
7067.92042554346
 20
2395.529325583693
 30
0.0
 11
7067.92042554346
 21
2495.528925161001
 31
0.0
  0
LINE
  5
27244
330
1F
100
AcDbEntity
  8
D-STR-STR2
  6
Continuous
100
AcDbLine
 10
6467.920588079607
 20
2395.529325583693
 30
0.0
 11
6467.920588079607
 21
2495.528925161001
 31
0.0
  0
LINE
  5
27245
330
1F
100
AcDbEntity
  8
D-BMK
  6
CENTER2
100
AcDbLine
 10
6917.920486177449
 20
2045.529327063123
 30
0.0
 11
6517.92058786826
 21
2045.529327063123
 31
0.0
  0
LINE
  5
27246
330
1F
100
AcDbEntity
  8
D-STR-STR2
  6
Continuous
100
AcDbLine
 10
6967.920465966097
 20
2395.529325583693
 30
0.0
 11
7067.92042554346
 21
2395.529325583693
 31
0.0
  0
LINE
  5
27247
330
1F
100
AcDbEntity
  8
D-STR-DIM
  6
Continuous
100
AcDbLine
 10
6717.920427022891
 20
2515.528925161001
 30
0.0
 11
6717.920427022891
 21
2925.529323343415
 31
0.0
  0
CIRCLE
  5
27248
330
1F
100
AcDbEntity
  8
D-STR-DIM
  6
Continuous
100
AcDbCircle
 10
6717.920427022891
 20
2895.528723470226
 30
0.0
 40
5.999997974638371
  0
LINE
  5
27249
330
1F
100
AcDbEntity
  8
D-STR-DIM
  6
Continuous
100
AcDbLine
 10
7017.920445754743
 20
2865.529123597033
 30
0.0
 11
7017.920445754743
 21
2545.52952503419
 31
0.0
  0
LINE
  5
2724A
330
1F
100
AcDbEntity
  8
D-STR-DIM
  6
Continuous
100
AcDbLine
 10
7937.920441865957
 20
2045.529327063123
 30
0.0
 11
7937.920441865957
 21
1520.529129282266
 31
0.0
  0
LINE
  5
2724B
330
1F
100
AcDbEntity
  8
D-STR-DIM
  6
Continuous
100
AcDbLine
 10
8237.920400597934
 20
2495.528925161001
 30
0.0
 11
8237.920400597934
 21
1745.528928331205
 31
0.0
  0
LINE
  5
2724C
330
1F
100
AcDbEntity
  8
D-STR
  6
Continuous
100
AcDbLine
 10
7217.920384909405
 20
2345.528725795044
 30
0.0
 11
7217.920384909405
 21
2025.528843814221
 31
0.0
  0
LINE
  5
2724D
330
1F
100
AcDbEntity
  8
D-STR
  6
Continuous
100
AcDbLine
 10
7317.920484486673
 20
2385.528925625964
 30
0.0
 11
7317.920484486673
 21
1855.528927866242
 31
0.0
  0
LINE
  5
2724E
330
1F
100
AcDbEntity
  8
D-STR
  6
Continuous
100
AcDbLine
 10
7317.920484486673
 20
1635.528928796169
 30
0.0
 11
7317.920484486673
 21
1105.528931036448
 31
0.0
  0
LINE
  5
2724F
330
1F
100
AcDbEntity
  8
D-STR
  6
Continuous
100
AcDbLine
 10
7217.920384909405
 20
1595.529128965245
 30
0.0
 11
7217.920384909405
 21
1145.529130867368
 31
0.0
  0
LINE
  5
27252
330
1F
100
AcDbEntity
  8
D-STR
  6
Continuous
100
AcDbLine
 10
7342.920464380994
 20
1845.528727908513
 30
0.0
 11
7342.920464380994
 21
1645.5289287539
 31
0.0
  0
LINE
  5
27253
330
1F
100
AcDbEntity
  8
D-STR
  6
Continuous
100
AcDbLine
 10
7217.919884909385
 20
1595.529128965245
 30
0.0
 11
7342.920464380994
 21
1645.529328753899
 31
0.0
  0
LINE
  5
27254
330
1F
100
AcDbEntity
  8
D-STR
  6
Continuous
100
AcDbLine
 10
7217.920384909405
 20
1895.529127697164
 30
0.0
 11
7342.920464380994
 21
1845.528727908513
 31
0.0
  0
TEXT
  5
27255
330
1F
100
AcDbEntity
  8
D-STR-DIM
100
AcDbText
 10
7921.920381933654
 20
1401.669129784681
 30
0.0
 40
70.0
  1
1050
 50
90.0
100
AcDbText
  0
TEXT
  5
27256
330
1F
100
AcDbEntity
  8
D-STR-DIM
100
AcDbText
 10
8221.920400665506
 20
1626.668928833618
 30
0.0
 40
70.0
  1
1500
 50
90.0
100
AcDbText
  0
LINE
  5
27258
330
1F
100
AcDbEntity
  8
D-STR-DIM
  6
Continuous
100
AcDbLine
 10
7557.920383556787
 20
2045.529327063123
 30
0.0
 11
7967.920381739201
 21
2045.529327063123
 31
0.0
  0
LINE
  5
27259
330
1F
100
AcDbEntity
  8
D-STR
  6
Continuous
100
AcDbLine
 10
7342.920464380994
 20
2495.528925161001
 30
0.0
 11
7342.920464380994
 21
2395.529325583693
 31
0.0
  0
LINE
  5
2725B
330
1F
100
AcDbEntity
  8
D-STR
  6
Continuous
100
AcDbLine
 10
7217.920384909405
 20
2345.528725795044
 30
0.0
 11
7342.920464380994
 21
2395.529325583693
 31
0.0
  0
LINE
  5
2725F
330
1F
100
AcDbEntity
  8
D-STR-DIM
  6
Continuous
100
AcDbLine
 10
7537.920383556786
 20
2895.528723470226
 30
0.0
 11
7127.920465289786
 21
2895.528723470226
 31
0.0
  0
CIRCLE
  5
27260
330
1F
100
AcDbEntity
  8
D-STR-DIM
  6
Continuous
100
AcDbCircle
 10
7537.920383556786
 20
2895.528723470226
 30
0.0
 40
5.999997974638371
  0
CIRCLE
  5
27261
330
1F
100
AcDbEntity
  8
D-STR-DIM
  6
Continuous
100
AcDbCircle
 10
8237.920400597934
 20
2495.528925161001
 30
0.0
 40
5.999997974638371
  0
CIRCLE
  5
27262
330
1F
100
AcDbEntity
  8
D-STR-DIM
  6
Continuous
100
AcDbCircle
 10
7937.920441865957
 20
2495.528925161001
 30
0.0
 40
5.999997974638371
  0
LINE
  5
27263
330
1F
100
AcDbEntity
  8
D-STR-DIM
  6
Continuous
100
AcDbLine
 10
7937.920441865957
 20
2495.528925161001
 30
0.0
 11
7937.920441865957
 21
2270.529126112062
 31
0.0
  0
LINE
  5
27264
330
1F
100
AcDbEntity
  8
D-STR-DIM
  6
Continuous
100
AcDbLine
 10
7937.920441865957
 20
2045.529327063123
 30
0.0
 11
7937.920441865957
 21
2270.529126112062
 31
0.0
  0
TEXT
  5
27265
330
1F
100
AcDbEntity
  8
D-STR-DIM
100
AcDbText
 10
7921.920381933654
 20
2183.668926479215
 30
0.0
 40
70.0
  1
450
 50
90.0
100
AcDbText
  0
CIRCLE
  5
27266
330
1F
100
AcDbEntity
  8
D-STR-DIM
  6
Continuous
100
AcDbCircle
 10
7937.920441865957
 20
2045.529327063123
 30
0.0
 40
5.999997974638371
  0
LINE
  5
27268
330
1F
100
AcDbEntity
  8
D-STR-DIM
  6
Continuous
100
AcDbLine
 10
7017.920445754743
 20
3195.529122202144
 30
0.0
 11
7277.920424655803
 21
3195.529122202144
 31
0.0
  0
LINE
  5
27269
330
1F
100
AcDbEntity
  8
D-STR-DIM
  6
Continuous
100
AcDbLine
 10
7537.920383556786
 20
3795.52891966598
 30
0.0
 11
6717.920427022891
 21
3795.52891966598
 31
0.0
  0
LINE
  5
2726A
330
1F
100
AcDbEntity
  8
D-STR-DIM
  6
Continuous
100
AcDbLine
 10
6417.920588290951
 20
3195.529122202144
 30
0.0
 11
6717.920427022891
 21
3195.529122202144
 31
0.0
  0
LINE
  5
2726B
330
1F
100
AcDbEntity
  8
D-STR-DIM
  6
Continuous
100
AcDbLine
 10
5897.920390488966
 20
3795.52891966598
 30
0.0
 11
6717.920427022891
 21
3795.52891966598
 31
0.0
  0
TEXT
  5
2726C
330
1F
100
AcDbEntity
  8
D-STR-DIM
100
AcDbText
 10
6081.060589714823
 20
3211.528722134513
 30
0.0
 40
70.0
  1
520
100
AcDbText
  0
LINE
  5
2726D
330
1F
100
AcDbEntity
  8
D-STR-DIM
  6
Continuous
100
AcDbLine
 10
5897.920390488966
 20
3195.529122202144
 30
0.0
 11
6157.920589389956
 21
3195.529122202144
 31
0.0
  0
CIRCLE
  5
2726E
330
1F
100
AcDbEntity
  8
D-STR-DIM
  6
Continuous
100
AcDbCircle
 10
5897.920390488966
 20
3195.529122202144
 30
0.0
 40
5.999997974638371
  0
CIRCLE
  5
2726F
330
1F
100
AcDbEntity
  8
D-STR-DIM
  6
Continuous
100
AcDbCircle
 10
6417.920588290951
 20
3195.529122202144
 30
0.0
 40
5.999997974638371
  0
LINE
  5
27270
330
1F
100
AcDbEntity
  8
D-STR-DIM
  6
Continuous
100
AcDbLine
 10
6417.920588290951
 20
3001.27572302324
 30
0.0
 11
6417.920588290951
 21
3225.528722075336
 31
0.0
  0
LINE
  5
27271
330
1F
100
AcDbEntity
  8
D-STR-DIM
  6
Continuous
100
AcDbLine
 10
6417.920588290951
 20
3195.529122202144
 30
0.0
 11
6157.920589389956
 21
3195.529122202144
 31
0.0
  0
CIRCLE
  5
27272
330
1F
100
AcDbEntity
  8
D-STR-DIM
  6
Continuous
100
AcDbCircle
 10
5897.920390488966
 20
3795.52891966598
 30
0.0
 40
5.999997974638371
  0
TEXT
  5
27273
330
1F
100
AcDbEntity
  8
D-STR-DIM
100
AcDbText
 10
6631.060587390006
 20
3211.528722134513
 30
0.0
 40
70.0
  1
600
100
AcDbText
  0
LINE
  5
27274
330
1F
100
AcDbEntity
  8
D-STR-DIM
  6
Continuous
100
AcDbLine
 10
7017.920445754743
 20
3195.529122202144
 30
0.0
 11
6717.920427022891
 21
3195.529122202144
 31
0.0
  0
CIRCLE
  5
27275
330
1F
100
AcDbEntity
  8
D-STR-DIM
  6
Continuous
100
AcDbCircle
 10
7017.920445754743
 20
3195.529122202144
 30
0.0
 40
5.999997974638371
  0
LINE
  5
27276
330
1F
100
AcDbEntity
  8
D-STR-DIM
  6
Continuous
100
AcDbLine
 10
7017.920445754743
 20
3001.27572302324
 30
0.0
 11
7017.920445754743
 21
3225.528722075336
 31
0.0
  0
TEXT
  5
27277
330
1F
100
AcDbEntity
  8
D-STR-DIM
100
AcDbText
 10
6599.060587525298
 20
3811.528519598349
 30
0.0
 40
70.0
  1
1640
100
AcDbText
  0
LINE
  5
27278
330
1F
100
AcDbEntity
  8
D-STR-DIM
  6
Continuous
100
AcDbLine
 10
7537.920383556786
 20
3195.529122202144
 30
0.0
 11
7277.920424655803
 21
3195.529122202144
 31
0.0
  0
TEXT
  5
27279
330
1F
100
AcDbEntity
  8
D-STR-DIM
100
AcDbText
 10
7181.060485065159
 20
3211.528722134513
 30
0.0
 40
70.0
  1
520
100
AcDbText
  0
CIRCLE
  5
2727A
330
1F
100
AcDbEntity
  8
D-STR-DIM
  6
Continuous
100
AcDbCircle
 10
7537.920383556786
 20
3195.529122202144
 30
0.0
 40
5.999997974638371
  0
CIRCLE
  5
2727B
330
1F
100
AcDbEntity
  8
D-STR-DIM
  6
Continuous
100
AcDbCircle
 10
7537.920383556786
 20
3795.52891966598
 30
0.0
 40
5.999997974638371
  0
TEXT
  5
27754
330
1F
100
AcDbEntity
  8
D-STR-HTXT
100
AcDbText
 10
7665.051223019367
 20
515.5291335303402
 30
0.0
 40
70.0
  1
　インサート　Ｍ20
100
AcDbText
  0
TEXT
  5
27755
330
1F
100
AcDbEntity
  8
D-STR-HTXT
100
AcDbText
 10
7889.051242072554
 20
611.5291331245543
 30
0.0
 40
70.0
  1
引込金具
100
AcDbText
  0
LINE
  5
27756
330
1F
100
AcDbEntity
  8
D-STR-DIM
  6
Continuous
100
AcDbLine
 10
7557.920383556787
 20
995.5289315014105
 30
0.0
 11
8567.920381202981
 21
995.5289315014105
 31
0.0
  0
LINE
  5
27757
330
1F
100
AcDbEntity
  8
D-STR-DIM
  6
Continuous
100
AcDbLine
 10
7557.920383556787
 20
2495.528925161001
 30
0.0
 11
8567.920381202981
 21
2495.528925161001
 31
0.0
  0
LINE
  5
2775E
330
1F
100
AcDbEntity
  8
D-STR-DIM
  6
Continuous
100
AcDbLine
 10
7967.920381739201
 20
1995.52892727447
 30
0.0
 11
8207.920420724677
 21
1995.52892727447
 31
0.0
  0
LINE
  5
27760
330
1F
100
AcDbEntity
  8
D-STR-HTXT
  6
Continuous
100
AcDbLine
 10
7687.91122292274
 20
595.5289331921862
 30
0.0
 11
8495.686759094333
 21
595.5289331921862
 31
0.0
  0
LINE
  5
277B4
330
1F
100
AcDbEntity
  8
D-STR-HTXT
  6
Continuous
100
AcDbLine
 10
7317.92096448669
 20
1945.529327485816
 30
0.0
 11
7687.91122292274
 21
595.5289331921862
 31
0.0
  0
LINE
  5
277D4
330
1F
100
AcDbEntity
  8
D-STR-STR2
  6
Continuous
100
AcDbLine
 10
7317.920484486673
 20
1985.52892731674
 30
0.0
 11
7467.920423852611
 21
1985.52892731674
 31
0.0
  0
LINE
  5
277D5
330
1F
100
AcDbEntity
  8
D-STR-STR2
  6
Continuous
100
AcDbLine
 10
7317.920484486673
 20
2005.5291272322
 30
0.0
 11
7467.920423852611
 21
2005.5291272322
 31
0.0
  0
ARC
  5
277DE
330
1F
100
AcDbEntity
  8
D-STR
  6
Continuous
100
AcDbCircle
 10
7257.920444740277
 20
1995.52892727447
 30
0.0
 40
49.99999778865302
100
AcDbArc
 50
83.97441100002465
 51
276.0255499999209
  0
LINE
  5
277DF
330
1F
100
AcDbEntity
  8
D-STR
  6
Continuous
100
AcDbLine
 10
7307.920424528922
 20
2045.529327063122
 30
0.0
 11
7307.920424528922
 21
1945.529327485816
 31
0.0
  0
ARC
  5
277E1
330
1F
100
AcDbEntity
  8
D-STR
  6
Continuous
100
AcDbCircle
 10
7287.920464613475
 20
1978.584527346094
 30
0.0
 40
9.999997957730611
100
AcDbArc
 50
276.0255700000494
 51
0.0
  0
ARC
  5
277E2
330
1F
100
AcDbEntity
  8
D-STR
  6
Continuous
100
AcDbCircle
 10
7287.920464613475
 20
2012.473527202848
 30
0.0
 40
9.999997957730611
100
AcDbArc
 50
0.0
 51
83.97441100002465
  0
ARC
  5
277E3
330
1F
100
AcDbEntity
  8
D-STR
  6
Continuous
100
AcDbCircle
 10
7257.920444740277
 20
1995.52892727447
 30
0.0
 40
29.99999787319182
100
AcDbArc
 50
83.97441100002465
 51
276.0255499999209
  0
LINE
  5
277E4
330
1F
100
AcDbEntity
  8
D-STR-HTXT
  6
Continuous
100
AcDbLine
 10
7335.295444413245
 20
1908.816127641
 30
0.0
 11
7317.920484486673
 21
1945.529327485816
 31
0.0
  0
LINE
  5
277E6
330
1F
100
AcDbEntity
  8
D-STR
  6
Continuous
100
AcDbLine
 10
7288.970244609071
 20
1968.640327388127
 30
0.0
 11
7261.069764726977
 21
1965.694927400576
 31
0.0
  0
LINE
  5
277E7
330
1F
100
AcDbEntity
  8
D-STR
  6
Continuous
100
AcDbLine
 10
7307.92104452891
 20
1950.529527464681
 30
0.0
 11
7263.169444718129
 21
1945.805727484648
 31
0.0
  0
LINE
  5
277E8
330
1F
100
AcDbEntity
  8
D-STR
  6
Continuous
100
AcDbLine
 10
7297.92038457125
 20
2012.473527202848
 30
0.0
 11
7297.92038457125
 21
1978.584527346094
 31
0.0
  0
LINE
  5
277E9
330
1F
100
AcDbEntity
  8
D-STR
  6
Continuous
100
AcDbLine
 10
7288.969624609079
 20
2022.418127160811
 30
0.0
 11
7261.069264726953
 21
2025.363127148364
 31
0.0
  0
LINE
  5
277EA
330
1F
100
AcDbEntity
  8
D-STR
  6
Continuous
100
AcDbLine
 10
7317.920484486673
 20
1945.529327485816
 30
0.0
 11
7307.920424528922
 21
1945.529327485816
 31
0.0
  0
LINE
  5
277EE
330
1F
100
AcDbEntity
  8
D-STR
  6
Continuous
100
AcDbLine
 10
7307.919804528935
 20
2040.528927084259
 30
0.0
 11
7263.168824718142
 21
2045.252727064292
 31
0.0
  0
LINE
  5
277EF
330
1F
100
AcDbEntity
  8
D-STR
  6
Continuous
100
AcDbLine
 10
7307.920424528922
 20
2045.529327063122
 30
0.0
 11
7317.920484486673
 21
2045.529327063122
 31
0.0
  0
LINE
  5
277FD
330
1F
100
AcDbEntity
  8
D-STR-DIM
  6
Continuous
100
AcDbLine
 10
7567.92040342991
 20
1995.52892727447
 30
0.0
 11
7907.92042199276
 21
1995.52892727447
 31
0.0
  0
LINE
  5
277FE
330
1F
100
AcDbEntity
  8
D-STR-STR2
  6
Continuous
100
AcDbLine
 10
7467.920423852611
 20
2005.5291272322
 30
0.0
 11
7467.920423852611
 21
1985.52892731674
 31
0.0
  0
LINE
  5
27A52
330
1F
100
AcDbEntity
  8
D-STR-DIM
  6
Continuous
100
AcDbLine
 10
8537.92038132979
 20
1995.52892727447
 30
0.0
 11
8537.92038132979
 21
1495.529129387939
 31
0.0
  0
LINE
  5
27A54
330
1F
100
AcDbEntity
  8
D-STR-DIM
  6
Continuous
100
AcDbLine
 10
8537.92038132979
 20
995.5289315014105
 30
0.0
 11
8537.92038132979
 21
1495.529129387939
 31
0.0
  0
CIRCLE
  5
27A56
330
1F
100
AcDbEntity
  8
D-STR-DIM
  6
Continuous
100
AcDbCircle
 10
8537.92038132979
 20
995.5289315014105
 30
0.0
 40
5.999997974638371
  0
TEXT
  5
27A57
330
1F
100
AcDbEntity
  8
D-STR-DIM
100
AcDbText
 10
8521.920387397408
 20
1376.669129890353
 30
0.0
 40
59.99999974638362
  1
1000
 50
90.0
100
AcDbText
  0
LINE
  5
27A58
330
1F
100
AcDbEntity
  8
D-STR-DIM
  6
Continuous
100
AcDbLine
 10
8537.92038132979
 20
2495.528925161001
 30
0.0
 11
8537.92038132979
 21
2245.529126217735
 31
0.0
  0
LINE
  5
27A5A
330
1F
100
AcDbEntity
  8
D-STR-DIM
  6
Continuous
100
AcDbLine
 10
8237.920400597865
 20
1995.52892727447
 30
0.0
 11
8567.920381202981
 21
1995.52892727447
 31
0.0
  0
LINE
  5
27A5B
330
1F
100
AcDbEntity
  8
D-STR-DIM
  6
Continuous
100
AcDbLine
 10
8537.92038132979
 20
1995.52892727447
 30
0.0
 11
8537.92038132979
 21
2245.529126217735
 31
0.0
  0
CIRCLE
  5
27A5C
330
1F
100
AcDbEntity
  8
D-STR-DIM
  6
Continuous
100
AcDbCircle
 10
8537.92038132979
 20
1995.52892727447
 30
0.0
 40
5.999997974638371
  0
CIRCLE
  5
27A5D
330
1F
100
AcDbEntity
  8
D-STR-DIM
  6
Continuous
100
AcDbCircle
 10
8537.92038132979
 20
1995.52892727447
 30
0.0
 40
5.999997974638371
  0
TEXT
  5
27A5E
330
1F
100
AcDbEntity
  8
D-STR-DIM
100
AcDbText
 10
8521.920387397408
 20
2158.669126584888
 30
0.0
 40
59.99999974638362
  1
500
 50
90.0
100
AcDbText
  0
CIRCLE
  5
27A60
330
1F
100
AcDbEntity
  8
D-STR-DIM
  6
Continuous
100
AcDbCircle
 10
8537.92038132979
 20
2495.528925161001
 30
0.0
 40
5.999997974638371
  0
LINE
  5
27C12
330
1F
100
AcDbEntity
  8
D-STR
  6
Continuous
100
AcDbLine
 10
7217.920384909405
 20
1965.529010734721
 30
0.0
 11
7217.920384909405
 21
1895.529127697164
 31
0.0
  0
LINE
  5
2828C
330
1F
100
AcDbEntity
  8
D-BMK
  6
CENTER2
100
AcDbLine
 10
3212.920397304232
 20
6485.528905695375
 30
0.0
 11
3212.920397304232
 21
6405.528505930044
 31
0.0
  0
LINE
  5
2828D
330
1F
100
AcDbEntity
  8
D-BMK
  6
CENTER2
100
AcDbLine
 10
3082.920797685555
 20
6485.528905695375
 30
0.0
 11
3082.920797685555
 21
6405.528505930044
 31
0.0
  0
LINE
  5
28298
330
1F
100
AcDbEntity
  8
D-BMK
  6
CENTER2
100
AcDbLine
 10
3122.920397568232
 20
6445.528705812709
 30
0.0
 11
3042.920597802892
 21
6445.528705812709
 31
0.0
  0
CIRCLE
  5
28299
330
1F
100
AcDbEntity
  8
D-STR-STR2
  6
Continuous
100
AcDbCircle
 10
3082.920797685555
 20
6445.528705812709
 30
0.0
 40
9.999997970666605
  0
CIRCLE
  5
2829A
330
1F
100
AcDbEntity
  8
D-STR-STR2
  6
Continuous
100
AcDbCircle
 10
3212.920397304232
 20
6445.528705812709
 30
0.0
 40
9.999997970666605
  0
LINE
  5
2829B
330
1F
100
AcDbEntity
  8
D-BMK
  6
CENTER2
100
AcDbLine
 10
3252.920597186891
 20
6445.528705812709
 30
0.0
 11
3172.920797421554
 21
6445.528705812709
 31
0.0
  0
TEXT
  5
28B38
330
1F
100
AcDbEntity
  8
D-STR-DIM
100
AcDbText
 10
2686.060803860033
 20
4111.528918159622
 30
0.0
 40
70.0
  1
620
100
AcDbText
  0
LINE
  5
28B3A
330
1F
100
AcDbEntity
  8
D-STR-DIM
  6
Continuous
100
AcDbLine
 10
2797.920803436933
 20
5170.529114153897
 30
0.0
 11
2597.920804193444
 21
5170.529114153897
 31
0.0
  0
LINE
  5
28B3D
330
1F
100
AcDbEntity
  8
D-STR-DIM
  6
Continuous
100
AcDbLine
 10
2397.920804949954
 20
3795.52891935491
 30
0.0
 11
3147.920802113036
 21
3795.52891935491
 31
0.0
  0
LINE
  5
28B3E
330
1F
100
AcDbEntity
  8
D-STR-DIM
  6
Continuous
100
AcDbLine
 10
2462.920804704089
 20
4095.529318220142
 30
0.0
 11
2772.920803531495
 21
4095.529318220142
 31
0.0
  0
LINE
  5
28B4E
330
1F
100
AcDbEntity
  8
D-STR-DIM
  6
Continuous
100
AcDbLine
 10
2397.920804949954
 20
4475.529116707122
 30
0.0
 11
2397.920804949954
 21
3765.529319468386
 31
0.0
  0
CIRCLE
  5
28B4F
330
1F
100
AcDbEntity
  8
D-STR-DIM
  6
Continuous
100
AcDbCircle
 10
2397.920804949954
 20
3795.52891935491
 30
0.0
 40
5.999997977304677
  0
TEXT
  5
28B50
330
1F
100
AcDbEntity
  8
D-STR-DIM
100
AcDbText
 10
2343.060605157498
 20
3999.20911858448
 30
0.0
 40
70.0
  1
65
100
AcDbText
  0
LINE
  5
28B51
330
1F
100
AcDbEntity
  8
D-STR-DIM
  6
Continuous
100
AcDbLine
 10
2397.920804949954
 20
4095.529318220142
 30
0.0
 11
2430.420604827028
 21
4095.529318220142
 31
0.0
  0
CIRCLE
  5
28B52
330
1F
100
AcDbEntity
  8
D-STR-DIM
  6
Continuous
100
AcDbCircle
 10
2397.920804949954
 20
4095.529318220142
 30
0.0
 40
5.999997977304677
  0
LINE
  5
28B53
330
1F
100
AcDbEntity
  8
D-STR-DIM
  6
Continuous
100
AcDbLine
 10
2462.920804704089
 20
4475.529116707122
 30
0.0
 11
2462.920804704089
 21
4065.528718333621
 31
0.0
  0
CIRCLE
  5
28B54
330
1F
100
AcDbEntity
  8
D-STR-DIM
  6
Continuous
100
AcDbCircle
 10
2462.920804704089
 20
4095.529318220142
 30
0.0
 40
5.999997977304677
  0
LINE
  5
28B55
330
1F
100
AcDbEntity
  8
D-STR-DIM
  6
Continuous
100
AcDbLine
 10
2462.920804704089
 20
4095.529318220142
 30
0.0
 11
2430.420604827028
 21
4095.529318220142
 31
0.0
  0
TEXT
  5
28B56
330
1F
100
AcDbEntity
  8
D-STR-DIM
100
AcDbText
 10
2561.812404330013
 20
5186.528714093378
 30
0.0
 40
70.0
  1
400
100
AcDbText
  0
LINE
  5
28B57
330
1F
100
AcDbEntity
  8
D-STR-DIM
  6
Continuous
100
AcDbLine
 10
2397.920804949954
 20
5170.529114153897
 30
0.0
 11
2597.920804193444
 21
5170.529114153897
 31
0.0
  0
CIRCLE
  5
28B5C
330
1F
100
AcDbEntity
  8
D-STR-DIM
  6
Continuous
100
AcDbCircle
 10
2397.920804949954
 20
5170.529114153897
 30
0.0
 40
5.999997977304677
  0
CIRCLE
  5
28B60
330
1F
100
AcDbEntity
  8
D-STR-STR2
  6
Continuous
100
AcDbCircle
 10
2672.920803909751
 20
5045.529314626715
 30
0.0
 40
9.999997962174456
  0
LINE
  5
28B61
330
1F
100
AcDbEntity
  8
D-BMK
  6
CENTER2
100
AcDbLine
 10
2632.920604061059
 20
5045.529314626715
 30
0.0
 11
2712.920603758456
 21
5045.529314626715
 31
0.0
  0
LINE
  5
28B62
330
1F
100
AcDbEntity
  8
D-BMK
  6
CENTER2
100
AcDbLine
 10
2672.920803909751
 20
5005.529114778018
 30
0.0
 11
2672.920803909751
 21
5085.529514475411
 31
0.0
  0
LINE
  5
28B6F
330
1F
100
AcDbEntity
  8
D-STR-DIM
  6
Continuous
100
AcDbLine
 10
2447.920604760831
 20
5995.529111033289
 30
0.0
 11
2281.071405391951
 21
5995.529111033289
 31
0.0
  0
LINE
  5
28B70
330
1F
100
AcDbEntity
  8
D-STR-DIM
  6
Continuous
100
AcDbLine
 10
2397.920804949954
 20
5995.529111033289
 30
0.0
 11
2447.920604760831
 21
5995.529111033289
 31
0.0
  0
TEXT
  5
28B77
330
1F
100
AcDbEntity
  8
D-STR-DIM
100
AcDbText
 10
2281.07040539198
 20
6011.528910972768
 30
0.0
 40
70.0
  1
100
100
AcDbText
  0
CIRCLE
  5
28B78
330
1F
100
AcDbEntity
  8
D-STR-DIM
  6
Continuous
100
AcDbCircle
 10
2397.920804949954
 20
5995.529111033289
 30
0.0
 40
5.999997977304677
  0
TEXT
  5
28B7B
330
1F
100
AcDbEntity
  8
D-STR-DIM
100
AcDbText
 10
2521.462604482673
 20
6011.528910972768
 30
0.0
 40
70.0
  1
10
100
AcDbText
  0
LINE
  5
28B7C
330
1F
100
AcDbEntity
  8
D-STR-DIM
  6
Continuous
100
AcDbLine
 10
2502.92060455279
 20
5995.529111033289
 30
0.0
 11
2631.182604067664
 21
5995.529111033289
 31
0.0
  0
CIRCLE
  5
28B7D
330
1F
100
AcDbEntity
  8
D-STR-DIM
  6
Continuous
100
AcDbCircle
 10
2507.920804533875
 20
5995.529111033289
 30
0.0
 40
5.999997977304677
  0
CIRCLE
  5
28B7E
330
1F
100
AcDbEntity
  8
D-STR-DIM
  6
Continuous
100
AcDbCircle
 10
2497.920804571699
 20
5995.529111033289
 30
0.0
 40
5.999997977304677
  0
LINE
  5
28B7F
330
1F
100
AcDbEntity
  8
D-STR-DIM
  6
Continuous
100
AcDbLine
 10
2507.920804533875
 20
5995.529111033289
 30
0.0
 11
2502.92060455279
 21
5995.529111033289
 31
0.0
  0
LINE
  5
28B80
330
1F
100
AcDbEntity
  8
D-STR-DIM
  6
Continuous
100
AcDbLine
 10
2497.920804571699
 20
5995.529111033289
 30
0.0
 11
2502.92060455279
 21
5995.529111033289
 31
0.0
  0
LINE
  5
28B81
330
1F
100
AcDbEntity
  8
D-STR-DIM
  6
Continuous
100
AcDbLine
 10
2497.920804571699
 20
5995.529111033289
 30
0.0
 11
2447.920604760831
 21
5995.529111033289
 31
0.0
  0
TEXT
  5
28B94
330
1F
100
AcDbEntity
  8
D-STR-DIM
100
AcDbText
 10
2921.920602967916
 20
5851.668911577446
 30
0.0
 40
70.0
  1
1230
 50
90.0
100
AcDbText
  0
TEXT
  5
28B95
330
1F
100
AcDbEntity
  8
D-STR-DIM
100
AcDbText
 10
3198.06080192341
 20
5899.209111397624
 30
0.0
 40
70.0
  1
10
100
AcDbText
  0
TEXT
  5
28B96
330
1F
100
AcDbEntity
  8
D-STR-DIM
100
AcDbText
 10
2988.060802717744
 20
5899.209111397624
 30
0.0
 40
70.0
  1
10
100
AcDbText
  0
LINE
  5
28B97
330
1F
100
AcDbEntity
  8
D-STR-DIM
  6
Continuous
100
AcDbLine
 10
2937.920802907374
 20
5355.529113454124
 30
0.0
 11
2937.920802907374
 21
5970.528911127852
 31
0.0
  0
LINE
  5
28B98
330
1F
100
AcDbEntity
  8
D-STR-DIM
  6
Continuous
100
AcDbLine
 10
4297.920797763101
 20
5470.528513019131
 30
0.0
 11
4297.920797763101
 21
6133.028710513187
 31
0.0
  0
LINE
  5
28B9B
330
1F
100
AcDbEntity
  8
D-STR
  6
Continuous
100
AcDbLine
 10
3047.920802491295
 20
5355.529113454124
 30
0.0
 11
3047.920802491295
 21
6585.528508801584
 31
0.0
  0
LINE
  5
28B9C
330
1F
100
AcDbEntity
  8
D-STR
  6
Continuous
100
AcDbLine
 10
3247.920801734781
 20
5355.529113454124
 30
0.0
 11
3247.920801734781
 21
6585.528508801584
 31
0.0
  0
LINE
  5
28B9E
330
1F
100
AcDbEntity
  8
D-STR
  6
Continuous
100
AcDbLine
 10
3257.920801696957
 20
5345.52871349195
 30
0.0
 11
3257.920801696957
 21
6595.528908763755
 31
0.0
  0
LINE
  5
28B9F
330
1F
100
AcDbEntity
  8
D-STR
  6
Continuous
100
AcDbLine
 10
3037.920802529119
 20
5345.52871349195
 30
0.0
 11
3037.920802529119
 21
6595.528908763755
 31
0.0
  0
TEXT
  5
28BA1
330
1F
100
AcDbEntity
  8
D-STR-HTXT
100
AcDbText
 10
3549.879800592593
 20
4215.528917766238
 30
0.0
 40
70.0
  1
　（取付ボックス用）
100
AcDbText
  0
TEXT
  5
28BA2
330
1F
100
AcDbEntity
  8
D-STR-HTXT
100
AcDbText
 10
3549.879800592593
 20
4311.528917403112
 30
0.0
 40
70.0
  1
　インサート　Ｍ16
100
AcDbText
  0
LINE
  5
28BA3
330
1F
100
AcDbEntity
  8
D-STR-DIM
  6
Continuous
100
AcDbLine
 10
3917.920799276122
 20
5470.528513019131
 30
0.0
 11
4327.920397649635
 21
5470.528513019131
 31
0.0
  0
LINE
  5
28BA4
330
1F
100
AcDbEntity
  8
D-STR-DIM
  6
Continuous
100
AcDbLine
 10
3917.920799276122
 20
5045.529314626715
 30
0.0
 11
4327.920397649635
 21
5045.529314626715
 31
0.0
  0
LINE
  5
28BA5
330
1F
100
AcDbEntity
  8
D-STR-DIM
  6
Continuous
100
AcDbLine
 10
3917.920799276122
 20
4620.529116234302
 30
0.0
 11
4327.920397649635
 21
4620.529116234302
 31
0.0
  0
LINE
  5
28BA6
330
1F
100
AcDbEntity
  8
D-STR-HTXT
  6
Continuous
100
AcDbLine
 10
4363.655125552555
 20
4295.529317463631
 30
0.0
 11
3572.740200506185
 21
4295.529317463631
 31
0.0
  0
LINE
  5
28BA7
330
1F
100
AcDbEntity
  8
D-STR-HTXT
  6
Continuous
100
AcDbLine
 10
3572.740200506185
 20
4295.529317463631
 30
0.0
 11
2807.141803402086
 21
4616.661316248932
 31
0.0
  0
LINE
  5
28BA8
330
1F
100
AcDbEntity
  8
D-STR-HTXT
  6
Continuous
100
AcDbLine
 10
3572.741200506156
 20
4295.529317463631
 30
0.0
 11
3500.165400780701
 21
4610.784116271163
 31
0.0
  0
LINE
  5
28BA9
330
1F
100
AcDbEntity
  8
D-STR-DIM
  6
Continuous
100
AcDbLine
 10
3897.920799276123
 20
3795.52891935491
 30
0.0
 11
3147.920802113036
 21
3795.52891935491
 31
0.0
  0
LINE
  5
28BAA
330
1F
100
AcDbEntity
  8
D-STR-DIM
  6
Continuous
100
AcDbLine
 10
3212.920401867184
 20
4095.529318220142
 30
0.0
 11
3522.920800694581
 21
4095.529318220142
 31
0.0
  0
TEXT
  5
28BAB
330
1F
100
AcDbEntity
  8
D-STR-DIM
100
AcDbText
 10
3029.060802562646
 20
3811.52851929439
 30
0.0
 40
70.0
  1
1500
100
AcDbText
  0
TEXT
  5
28BAC
330
1F
100
AcDbEntity
  8
D-STR-DIM
100
AcDbText
 10
3061.060802441574
 20
3999.20911858448
 30
0.0
 40
70.0
  1
130
100
AcDbText
  0
CIRCLE
  5
28BAD
330
1F
100
AcDbEntity
  8
D-STR-DIM
  6
Continuous
100
AcDbCircle
 10
3082.920802358902
 20
4095.529318220142
 30
0.0
 40
5.999997977304677
  0
LINE
  5
28BAE
330
1F
100
AcDbEntity
  8
D-STR-DIM
  6
Continuous
100
AcDbLine
 10
3082.920802358902
 20
4095.529318220142
 30
0.0
 11
3147.920802113036
 21
4095.529318220142
 31
0.0
  0
LINE
  5
28BAF
330
1F
100
AcDbEntity
  8
D-STR-DIM
  6
Continuous
100
AcDbLine
 10
3082.920802358902
 20
4475.529116707122
 30
0.0
 11
3082.920802358902
 21
4065.528718333621
 31
0.0
  0
LINE
  5
28BB0
330
1F
100
AcDbEntity
  8
D-STR-DIM
  6
Continuous
100
AcDbLine
 10
3082.920802358902
 20
4095.529318220142
 30
0.0
 11
2772.920803531495
 21
4095.529318220142
 31
0.0
  0
LINE
  5
28BB1
330
1F
100
AcDbEntity
  8
D-STR-DIM
  6
Continuous
100
AcDbLine
 10
3212.920401867184
 20
4475.529116707122
 30
0.0
 11
3212.920401867184
 21
4065.528718333621
 31
0.0
  0
CIRCLE
  5
28BB2
330
1F
100
AcDbEntity
  8
D-STR-DIM
  6
Continuous
100
AcDbCircle
 10
3212.920401867184
 20
4095.529318220142
 30
0.0
 40
5.999997977304677
  0
LINE
  5
28BB3
330
1F
100
AcDbEntity
  8
D-STR-DIM
  6
Continuous
100
AcDbLine
 10
3212.920401867184
 20
4095.529318220142
 30
0.0
 11
3147.920802113036
 21
4095.529318220142
 31
0.0
  0
LINE
  5
28BB4
330
1F
100
AcDbEntity
  8
D-STR-DIM
  6
Continuous
100
AcDbLine
 10
3897.920799276123
 20
4211.389717781894
 30
0.0
 11
3897.920799276123
 21
3765.529319468386
 31
0.0
  0
CIRCLE
  5
28BB5
330
1F
100
AcDbEntity
  8
D-STR-DIM
  6
Continuous
100
AcDbCircle
 10
3897.920799276123
 20
3795.52891935491
 30
0.0
 40
5.999997977304677
  0
LINE
  5
28BB6
330
1F
100
AcDbEntity
  8
D-STR-DIM
  6
Continuous
100
AcDbLine
 10
3832.920799521988
 20
4095.529318220142
 30
0.0
 11
3522.920800694581
 21
4095.529318220142
 31
0.0
  0
TEXT
  5
28BB7
330
1F
100
AcDbEntity
  8
D-STR-DIM
100
AcDbText
 10
3436.060801023116
 20
4111.528918159622
 30
0.0
 40
70.0
  1
620
100
AcDbText
  0
LINE
  5
28BB8
330
1F
100
AcDbEntity
  8
D-STR-DIM
  6
Continuous
100
AcDbLine
 10
3832.920799521988
 20
4211.389717781894
 30
0.0
 11
3832.920799521988
 21
4065.528718333621
 31
0.0
  0
TEXT
  5
28BB9
330
1F
100
AcDbEntity
  8
D-STR-DIM
100
AcDbText
 10
3843.060599483666
 20
3999.20911858448
 30
0.0
 40
70.0
  1
65
100
AcDbText
  0
CIRCLE
  5
28BBA
330
1F
100
AcDbEntity
  8
D-STR-DIM
  6
Continuous
100
AcDbCircle
 10
3897.920799276123
 20
4095.529318220142
 30
0.0
 40
5.999997977304677
  0
CIRCLE
  5
28BBB
330
1F
100
AcDbEntity
  8
D-STR-DIM
  6
Continuous
100
AcDbCircle
 10
3832.920799521988
 20
4095.529318220142
 30
0.0
 40
5.999997977304677
  0
LINE
  5
28BBC
330
1F
100
AcDbEntity
  8
D-STR-DIM
  6
Continuous
100
AcDbLine
 10
3897.920799276123
 20
4095.529318220142
 30
0.0
 11
3865.420599399062
 21
4095.529318220142
 31
0.0
  0
LINE
  5
28BBD
330
1F
100
AcDbEntity
  8
D-STR-DIM
  6
Continuous
100
AcDbLine
 10
3832.920799521988
 20
4095.529318220142
 30
0.0
 11
3865.420599399062
 21
4095.529318220142
 31
0.0
  0
LINE
  5
28BBE
330
1F
100
AcDbEntity
  8
D-STR-DIM
  6
Continuous
100
AcDbLine
 10
3832.920799521988
 20
4465.528516820599
 30
0.0
 11
3832.920799521988
 21
4399.584717070035
 31
0.0
  0
LINE
  5
28BBF
330
1F
100
AcDbEntity
  8
D-STR-DIM
  6
Continuous
100
AcDbLine
 10
3897.920799276123
 20
4465.528516820599
 30
0.0
 11
3897.920799276123
 21
4399.584717070035
 31
0.0
  0
LINE
  5
28BC0
330
1F
100
AcDbEntity
  8
D-STR-DIM
  6
Continuous
100
AcDbLine
 10
3497.920400789154
 20
5170.529114153897
 30
0.0
 11
3147.920802113036
 21
5170.529114153897
 31
0.0
  0
LINE
  5
28BC1
330
1F
100
AcDbEntity
  8
D-STR-STR2
  6
Continuous
100
AcDbLine
 10
2797.920803436933
 20
5295.528913681076
 30
0.0
 11
3497.920400789154
 21
5295.528913681076
 31
0.0
  0
LINE
  5
28BC2
330
1F
100
AcDbEntity
  8
D-STR-STR2
  6
Continuous
100
AcDbLine
 10
2797.920803436933
 20
4695.52911595061
 30
0.0
 11
2797.920803436933
 21
5295.528913681076
 31
0.0
  0
TEXT
  5
28BC3
330
1F
100
AcDbEntity
  8
D-STR-DIM
100
AcDbText
 10
3061.060802441574
 20
5074.208914518233
 30
0.0
 40
70.0
  1
700
100
AcDbText
  0
LINE
  5
28BC4
330
1F
100
AcDbEntity
  8
D-STR-DIM
  6
Continuous
100
AcDbLine
 10
2797.920803436933
 20
5170.529114153897
 30
0.0
 11
3147.920802113036
 21
5170.529114153897
 31
0.0
  0
CIRCLE
  5
28BC5
330
1F
100
AcDbEntity
  8
D-STR-STR2
  6
Continuous
100
AcDbCircle
 10
2797.920803436933
 20
4620.529116234302
 30
0.0
 40
9.999997962174456
  0
LINE
  5
28BC6
330
1F
100
AcDbEntity
  8
D-STR-HTXT
  6
Continuous
100
AcDbLine
 10
2846.756603252223
 20
4607.69431628285
 30
0.0
 11
2807.141803402086
 21
4616.661316248932
 31
0.0
  0
LINE
  5
28BC7
330
1F
100
AcDbEntity
  8
D-BMK
  6
CENTER2
100
AcDbLine
 10
2757.920603588238
 20
4620.529116234302
 30
0.0
 11
2837.920403285643
 21
4620.529116234302
 31
0.0
  0
LINE
  5
28BC8
330
1F
100
AcDbEntity
  8
D-BMK
  6
CENTER2
100
AcDbLine
 10
2797.920803436933
 20
4580.528916385603
 30
0.0
 11
2797.920803436933
 21
4660.529116083
 31
0.0
  0
CIRCLE
  5
28BC9
330
1F
100
AcDbEntity
  8
D-STR-DIM
  6
Continuous
100
AcDbCircle
 10
2797.920803436933
 20
5170.529114153897
 30
0.0
 40
5.999997977304677
  0
CIRCLE
  5
28BCA
330
1F
100
AcDbEntity
  8
D-STR-STR2
  6
Continuous
100
AcDbCircle
 10
3082.920802358902
 20
5395.52931330282
 30
0.0
 40
9.999997962174456
  0
LINE
  5
28BCB
330
1F
100
AcDbEntity
  8
D-STR
  6
Continuous
100
AcDbLine
 10
3037.920802529119
 20
5345.52871349195
 30
0.0
 11
3257.920801696957
 21
5345.52871349195
 31
0.0
  0
LINE
  5
28BCC
330
1F
100
AcDbEntity
  8
D-STR
  6
Continuous
100
AcDbLine
 10
3047.920802491295
 20
5355.529113454124
 30
0.0
 11
3247.920801734781
 21
5355.529113454124
 31
0.0
  0
LINE
  5
28BCD
330
1F
100
AcDbEntity
  8
D-BMK
  6
CENTER2
100
AcDbLine
 10
3122.920402207612
 20
5395.52931330282
 30
0.0
 11
3042.920602510211
 21
5395.52931330282
 31
0.0
  0
TEXT
  5
28BCE
330
1F
100
AcDbEntity
  8
D-STR-DIM
100
AcDbText
 10
2921.920602967916
 20
5295.66871368055
 30
0.0
 40
70.0
  1
10
 50
90.0
100
AcDbText
  0
LINE
  5
28BCF
330
1F
100
AcDbEntity
  8
D-STR-DIM
  6
Continuous
100
AcDbLine
 10
3017.920802529119
 20
5355.529113454124
 30
0.0
 11
2907.92080302085
 21
5355.529113454124
 31
0.0
  0
LINE
  5
28BD0
330
1F
100
AcDbEntity
  8
D-STR-DIM
  6
Continuous
100
AcDbLine
 10
3017.920802529119
 20
5345.52871349195
 30
0.0
 11
2907.92080302085
 21
5345.52871349195
 31
0.0
  0
CIRCLE
  5
28BD1
330
1F
100
AcDbEntity
  8
D-STR-STR2
  6
Continuous
100
AcDbCircle
 10
2797.920803436933
 20
5470.528513019131
 30
0.0
 40
9.999997962174456
  0
LINE
  5
28BD2
330
1F
100
AcDbEntity
  8
D-BMK
  6
CENTER2
100
AcDbLine
 10
2757.920603588238
 20
5470.528513019131
 30
0.0
 11
2837.920403285643
 21
5470.528513019131
 31
0.0
  0
LINE
  5
28BD3
330
1F
100
AcDbEntity
  8
D-BMK
  6
CENTER2
100
AcDbLine
 10
2797.920803436933
 20
5430.529313170431
 30
0.0
 11
2797.920803436933
 21
5510.528712867828
 31
0.0
  0
CIRCLE
  5
28BD4
330
1F
100
AcDbEntity
  8
D-STR-DIM
  6
Continuous
100
AcDbCircle
 10
2937.920802907374
 20
5355.529113454124
 30
0.0
 40
5.999997977304677
  0
CIRCLE
  5
28BD5
330
1F
100
AcDbEntity
  8
D-STR-DIM
  6
Continuous
100
AcDbCircle
 10
2937.920802907374
 20
5345.52871349195
 30
0.0
 40
5.999997977304677
  0
LINE
  5
28BD6
330
1F
100
AcDbEntity
  8
D-STR-DIM
  6
Continuous
100
AcDbLine
 10
2937.920802907374
 20
5355.529113454124
 30
0.0
 11
2937.920802907374
 21
5350.528913473035
 31
0.0
  0
LINE
  5
28BD7
330
1F
100
AcDbEntity
  8
D-STR-DIM
  6
Continuous
100
AcDbLine
 10
2937.920802907374
 20
5345.52871349195
 30
0.0
 11
2937.920802907374
 21
5350.528913473035
 31
0.0
  0
LINE
  5
28BD8
330
1F
100
AcDbEntity
  8
D-STR
  6
Continuous
100
AcDbLine
 10
3037.919402529158
 20
5345.52871349195
 30
0.0
 11
3047.919402491334
 21
5355.529113454124
 31
0.0
  0
LINE
  5
28BD9
330
1F
100
AcDbEntity
  8
D-BMK
  6
CENTER2
100
AcDbLine
 10
3082.920802358902
 20
5355.529113454124
 30
0.0
 11
3082.920802358902
 21
5435.52851315152
 31
0.0
  0
LINE
  5
28BDA
330
1F
100
AcDbEntity
  8
D-STR
  6
Continuous
100
AcDbLine
 10
3257.920801696957
 20
5345.52871349195
 30
0.0
 11
3247.920801734781
 21
5355.529113454124
 31
0.0
  0
LINE
  5
28BDB
330
1F
100
AcDbEntity
  8
D-BMK
  6
CENTER2
100
AcDbLine
 10
3252.920601715876
 20
5395.52931330282
 30
0.0
 11
3172.920802018474
 21
5395.52931330282
 31
0.0
  0
CIRCLE
  5
28BDC
330
1F
100
AcDbEntity
  8
D-STR-STR2
  6
Continuous
100
AcDbCircle
 10
3212.920401867184
 20
5395.52931330282
 30
0.0
 40
9.999997962174456
  0
LINE
  5
28BDD
330
1F
100
AcDbEntity
  8
D-BMK
  6
CENTER2
100
AcDbLine
 10
3212.920401867184
 20
5355.529113454124
 30
0.0
 11
3212.920401867184
 21
5435.52851315152
 31
0.0
  0
TEXT
  5
28BDE
330
1F
100
AcDbEntity
  8
D-STR-DIM
100
AcDbText
 10
3570.872800513204
 20
5186.528714093378
 30
0.0
 40
70.0
  1
400
100
AcDbText
  0
LINE
  5
28BDF
330
1F
100
AcDbEntity
  8
D-STR-STR2
  6
Continuous
100
AcDbLine
 10
3497.920400789154
 20
4695.52911595061
 30
0.0
 11
3497.920400789154
 21
5295.528913681076
 31
0.0
  0
LINE
  5
28BE0
330
1F
100
AcDbEntity
  8
D-STR-DIM
  6
Continuous
100
AcDbLine
 10
3897.920799276123
 20
5170.529114153897
 30
0.0
 11
3697.920400032643
 21
5170.529114153897
 31
0.0
  0
CIRCLE
  5
28BE2
330
1F
100
AcDbEntity
  8
D-STR-STR2
  6
Continuous
100
AcDbCircle
 10
3497.920400789154
 20
4620.529116234302
 30
0.0
 40
9.999997962174456
  0
LINE
  5
28BE3
330
1F
100
AcDbEntity
  8
D-STR-HTXT
  6
Continuous
100
AcDbLine
 10
3516.013000720737
 20
4573.386116412624
 30
0.0
 11
3500.165400780701
 21
4610.784116271163
 31
0.0
  0
LINE
  5
28BE4
330
1F
100
AcDbEntity
  8
D-BMK
  6
CENTER2
100
AcDbLine
 10
3537.920600637848
 20
4620.529116234302
 30
0.0
 11
3457.920800940447
 21
4620.529116234302
 31
0.0
  0
LINE
  5
28BE5
330
1F
100
AcDbEntity
  8
D-BMK
  6
CENTER2
100
AcDbLine
 10
3497.920400789154
 20
4580.528916385603
 30
0.0
 11
3497.920400789154
 21
4660.529116083
 31
0.0
  0
LINE
  5
28BE6
330
1F
100
AcDbEntity
  8
D-STR-DIM
  6
Continuous
100
AcDbLine
 10
3497.920400789154
 20
5170.529114153897
 30
0.0
 11
3697.920400032643
 21
5170.529114153897
 31
0.0
  0
CIRCLE
  5
28BE7
330
1F
100
AcDbEntity
  8
D-STR-DIM
  6
Continuous
100
AcDbCircle
 10
3497.920400789154
 20
5170.529114153897
 30
0.0
 40
5.999997977304677
  0
CIRCLE
  5
28BE8
330
1F
100
AcDbEntity
  8
D-STR-STR2
  6
Continuous
100
AcDbCircle
 10
3622.920800316322
 20
5045.529314626715
 30
0.0
 40
9.999997962174456
  0
LINE
  5
28BE9
330
1F
100
AcDbEntity
  8
D-BMK
  6
CENTER2
100
AcDbLine
 10
3662.920600165028
 20
5045.529314626715
 30
0.0
 11
3582.920600467631
 21
5045.529314626715
 31
0.0
  0
LINE
  5
28BEA
330
1F
100
AcDbEntity
  8
D-BMK
  6
CENTER2
100
AcDbLine
 10
3622.920800316322
 20
5005.529114778018
 30
0.0
 11
3622.920800316322
 21
5085.529514475411
 31
0.0
  0
CIRCLE
  5
28BF1
330
1F
100
AcDbEntity
  8
D-STR-DIM
  6
Continuous
100
AcDbCircle
 10
3897.920799276123
 20
5170.529114153897
 30
0.0
 40
5.999997977304677
  0
CIRCLE
  5
28BF2
330
1F
100
AcDbEntity
  8
D-STR-STR2
  6
Continuous
100
AcDbCircle
 10
3497.920400789154
 20
5470.528513019131
 30
0.0
 40
9.999997962174456
  0
LINE
  5
28BF3
330
1F
100
AcDbEntity
  8
D-BMK
  6
CENTER2
100
AcDbLine
 10
3497.920400789154
 20
5430.529313170431
 30
0.0
 11
3497.920400789154
 21
5510.528712867828
 31
0.0
  0
LINE
  5
28BF4
330
1F
100
AcDbEntity
  8
D-BMK
  6
CENTER2
100
AcDbLine
 10
3537.920600637848
 20
5470.528513019131
 30
0.0
 11
3457.920800940447
 21
5470.528513019131
 31
0.0
  0
TEXT
  5
28BF5
330
1F
100
AcDbEntity
  8
D-STR-DIM
100
AcDbText
 10
4394.240797398816
 20
4494.410316711351
 30
0.0
 40
70.0
  1
125
 50
90.0
100
AcDbText
  0
LINE
  5
28BF6
330
1F
100
AcDbEntity
  8
D-STR-DIM
  6
Continuous
100
AcDbLine
 10
4297.920797763101
 20
4495.529116707121
 30
0.0
 11
4297.920797763101
 21
4558.028516470712
 31
0.0
  0
CIRCLE
  5
28BF8
330
1F
100
AcDbEntity
  8
D-STR-DIM
  6
Continuous
100
AcDbCircle
 10
4297.920797763101
 20
4495.529116707121
 30
0.0
 40
5.999997977304677
  0
TEXT
  5
28BFA
330
1F
100
AcDbEntity
  8
D-STR-DIM
100
AcDbText
 10
4394.240797398816
 20
5171.169314151473
 30
0.0
 40
70.0
  1
425
 50
90.0
100
AcDbText
  0
LINE
  5
28BFB
330
1F
100
AcDbEntity
  8
D-STR-DIM
  6
Continuous
100
AcDbLine
 10
4297.920797763101
 20
5045.529314626715
 30
0.0
 11
4297.920797763101
 21
5258.028913822922
 31
0.0
  0
TEXT
  5
28BFC
330
1F
100
AcDbEntity
  8
D-STR-DIM
100
AcDbText
 10
4281.920597823642
 20
4746.168915759062
 30
0.0
 40
70.0
  1
425
 50
90.0
100
AcDbText
  0
LINE
  5
28BFD
330
1F
100
AcDbEntity
  8
D-STR-DIM
  6
Continuous
100
AcDbLine
 10
4297.920797763101
 20
5045.529314626715
 30
0.0
 11
4297.920797763101
 21
4833.02871543051
 31
0.0
  0
CIRCLE
  5
28BFE
330
1F
100
AcDbEntity
  8
D-STR-DIM
  6
Continuous
100
AcDbCircle
 10
4297.920797763101
 20
4620.529116234302
 30
0.0
 40
5.999997977304677
  0
LINE
  5
28BFF
330
1F
100
AcDbEntity
  8
D-STR-DIM
  6
Continuous
100
AcDbLine
 10
4297.920797763101
 20
4620.529116234302
 30
0.0
 11
4297.920797763101
 21
4833.02871543051
 31
0.0
  0
LINE
  5
28C00
330
1F
100
AcDbEntity
  8
D-STR-DIM
  6
Continuous
100
AcDbLine
 10
4297.920797763101
 20
4620.529116234302
 30
0.0
 11
4297.920797763101
 21
4558.028516470712
 31
0.0
  0
CIRCLE
  5
28C01
330
1F
100
AcDbEntity
  8
D-STR-DIM
  6
Continuous
100
AcDbCircle
 10
4297.920797763101
 20
5045.529314626715
 30
0.0
 40
5.999997977304677
  0
CIRCLE
  5
28C02
330
1F
100
AcDbEntity
  8
D-STR-DIM
  6
Continuous
100
AcDbCircle
 10
4297.920797763101
 20
5470.528513019131
 30
0.0
 40
5.999997977304677
  0
LINE
  5
28C03
330
1F
100
AcDbEntity
  8
D-STR-DIM
  6
Continuous
100
AcDbLine
 10
4297.920797763101
 20
5470.528513019131
 30
0.0
 11
4297.920797763101
 21
5258.028913822922
 31
0.0
  0
TEXT
  5
28C0B
330
1F
100
AcDbEntity
  8
D-STR-DIM
100
AcDbText
 10
2921.920602967916
 20
6535.66850899018
 30
0.0
 40
70.0
  1
10
 50
90.0
100
AcDbText
  0
CIRCLE
  5
28C0C
330
1F
100
AcDbEntity
  8
D-STR-DIM
  6
Continuous
100
AcDbCircle
 10
2937.920802907374
 20
6595.528908763755
 30
0.0
 40
5.999997977304677
  0
CIRCLE
  5
28C0D
330
1F
100
AcDbEntity
  8
D-STR-DIM
  6
Continuous
100
AcDbCircle
 10
2937.920802907374
 20
6585.528508801584
 30
0.0
 40
5.999997977304677
  0
LINE
  5
28C0E
330
1F
100
AcDbEntity
  8
D-STR-DIM
  6
Continuous
100
AcDbLine
 10
2937.920802907374
 20
6585.528508801584
 30
0.0
 11
2937.920802907374
 21
6590.528708782669
 31
0.0
  0
TEXT
  5
28C0F
330
1F
100
AcDbEntity
  8
D-STR-DIM
100
AcDbText
 10
3061.060802441574
 20
6011.528910972768
 30
0.0
 40
70.0
  1
200
100
AcDbText
  0
CIRCLE
  5
28C10
330
1F
100
AcDbEntity
  8
D-STR-STR2
  6
Continuous
100
AcDbCircle
 10
3082.920802358902
 20
6445.528709331139
 30
0.0
 40
9.999997962174456
  0
LINE
  5
28C11
330
1F
100
AcDbEntity
  8
D-STR-DIM
  6
Continuous
100
AcDbLine
 10
3047.920802491295
 20
5995.529111033289
 30
0.0
 11
3147.920802113036
 21
5995.529111033289
 31
0.0
  0
LINE
  5
28C12
330
1F
100
AcDbEntity
  8
D-BMK
  6
CENTER2
100
AcDbLine
 10
3122.920402207612
 20
6445.528709331139
 30
0.0
 11
3042.920602510211
 21
6445.528709331139
 31
0.0
  0
LINE
  5
28C13
330
1F
100
AcDbEntity
  8
D-STR
  6
Continuous
100
AcDbLine
 10
3047.920802491295
 20
6585.528508801584
 30
0.0
 11
3247.920801734781
 21
6585.528508801584
 31
0.0
  0
LINE
  5
28C14
330
1F
100
AcDbEntity
  8
D-STR-DIM
  6
Continuous
100
AcDbLine
 10
2937.920802907374
 20
6585.528508801584
 30
0.0
 11
2937.920802907374
 21
5970.528911127852
 31
0.0
  0
CIRCLE
  5
28C15
330
1F
100
AcDbEntity
  8
D-STR-DIM
  6
Continuous
100
AcDbCircle
 10
3047.920802491295
 20
5995.529111033289
 30
0.0
 40
5.999997977304677
  0
CIRCLE
  5
28C16
330
1F
100
AcDbEntity
  8
D-STR-DIM
  6
Continuous
100
AcDbCircle
 10
3037.920802529119
 20
5995.529111033289
 30
0.0
 40
5.999997977304677
  0
LINE
  5
28C17
330
1F
100
AcDbEntity
  8
D-STR-DIM
  6
Continuous
100
AcDbLine
 10
3047.920802491295
 20
5995.529111033289
 30
0.0
 11
3042.920602510211
 21
5995.529111033289
 31
0.0
  0
LINE
  5
28C18
330
1F
100
AcDbEntity
  8
D-STR-DIM
  6
Continuous
100
AcDbLine
 10
3037.920802529119
 20
5995.529111033289
 30
0.0
 11
3042.920602510211
 21
5995.529111033289
 31
0.0
  0
LINE
  5
28C19
330
1F
100
AcDbEntity
  8
D-STR-DIM
  6
Continuous
100
AcDbLine
 10
3017.920802529119
 20
6585.528508801584
 30
0.0
 11
2907.92080302085
 21
6585.528508801584
 31
0.0
  0
LINE
  5
28C1A
330
1F
100
AcDbEntity
  8
D-BMK
  6
CENTER2
100
AcDbLine
 10
3082.920802358902
 20
6405.528509482443
 30
0.0
 11
3082.920802358902
 21
6485.528909179835
 31
0.0
  0
CIRCLE
  5
28C1B
330
1F
100
AcDbEntity
  8
D-STR-DIM
  6
Continuous
100
AcDbCircle
 10
3247.920801734781
 20
5995.529111033289
 30
0.0
 40
5.999997977304677
  0
LINE
  5
28C1C
330
1F
100
AcDbEntity
  8
D-STR-DIM
  6
Continuous
100
AcDbLine
 10
3247.920801734781
 20
5995.529111033289
 30
0.0
 11
3252.920601715876
 21
5995.529111033289
 31
0.0
  0
LINE
  5
28C1D
330
1F
100
AcDbEntity
  8
D-STR-DIM
  6
Continuous
100
AcDbLine
 10
3247.920801734781
 20
5995.529111033289
 30
0.0
 11
3147.920802113036
 21
5995.529111033289
 31
0.0
  0
CIRCLE
  5
28C1E
330
1F
100
AcDbEntity
  8
D-STR-DIM
  6
Continuous
100
AcDbCircle
 10
3257.920801696957
 20
5995.529111033289
 30
0.0
 40
5.999997977304677
  0
LINE
  5
28C1F
330
1F
100
AcDbEntity
  8
D-STR-DIM
  6
Continuous
100
AcDbLine
 10
3257.920801696957
 20
5995.529111033289
 30
0.0
 11
3252.920601715876
 21
5995.529111033289
 31
0.0
  0
LINE
  5
28C20
330
1F
100
AcDbEntity
  8
D-BMK
  6
CENTER2
100
AcDbLine
 10
3252.920601715876
 20
6445.528709331139
 30
0.0
 11
3172.920802018474
 21
6445.528709331139
 31
0.0
  0
CIRCLE
  5
28C21
330
1F
100
AcDbEntity
  8
D-STR-STR2
  6
Continuous
100
AcDbCircle
 10
3212.920401867184
 20
6445.528709331139
 30
0.0
 40
9.999997962174456
  0
LINE
  5
28C22
330
1F
100
AcDbEntity
  8
D-BMK
  6
CENTER2
100
AcDbLine
 10
3212.920401867184
 20
6405.528509482443
 30
0.0
 11
3212.920401867184
 21
6485.528909179835
 31
0.0
  0
LINE
  5
28C24
330
1F
100
AcDbEntity
  8
D-STR
  6
Continuous
100
AcDbLine
 10
3037.920802529119
 20
6595.528908763755
 30
0.0
 11
3257.920801696957
 21
6595.528908763755
 31
0.0
  0
LINE
  5
28C25
330
1F
100
AcDbEntity
  8
D-STR
  6
Continuous
100
AcDbLine
 10
3037.920802529119
 20
6595.528908763755
 30
0.0
 11
3257.920801696957
 21
6595.528908763755
 31
0.0
  0
LINE
  5
28C27
330
1F
100
AcDbEntity
  8
D-STR-DIM
  6
Continuous
100
AcDbLine
 10
2937.920802907374
 20
6595.528908763755
 30
0.0
 11
2937.920802907374
 21
6590.528708782669
 31
0.0
  0
TEXT
  5
28C2A
330
1F
100
AcDbEntity
  8
D-STR-DIM
100
AcDbText
 10
3664.658600158495
 20
6011.528910972768
 30
0.0
 40
70.0
  1
10
100
AcDbText
  0
LINE
  5
28C2B
330
1F
100
AcDbEntity
  8
D-STR-DIM
  6
Continuous
100
AcDbLine
 10
3792.920599673296
 20
5995.529111033289
 30
0.0
 11
3664.658600158495
 21
5995.529111033289
 31
0.0
  0
TEXT
  5
28C2D
330
1F
100
AcDbEntity
  8
D-STR-DIM
100
AcDbText
 10
3841.05099949125
 20
6011.528910972768
 30
0.0
 40
70.0
  1
100
100
AcDbText
  0
LINE
  5
28C2E
330
1F
100
AcDbEntity
  8
D-STR-DIM
  6
Continuous
100
AcDbLine
 10
3847.920599465254
 20
5995.529111033289
 30
0.0
 11
4014.770198834125
 21
5995.529111033289
 31
0.0
  0
CIRCLE
  5
28C2F
330
1F
100
AcDbEntity
  8
D-STR-DIM
  6
Continuous
100
AcDbCircle
 10
3787.920799692201
 20
5995.529111033289
 30
0.0
 40
5.999997977304677
  0
CIRCLE
  5
28C30
330
1F
100
AcDbEntity
  8
D-STR-DIM
  6
Continuous
100
AcDbCircle
 10
3797.920399654387
 20
5995.529111033289
 30
0.0
 40
5.999997977304677
  0
CIRCLE
  5
28C31
330
1F
100
AcDbEntity
  8
D-STR-DIM
  6
Continuous
100
AcDbCircle
 10
3897.920799276123
 20
5995.529111033289
 30
0.0
 40
5.999997977304677
  0
LINE
  5
28C32
330
1F
100
AcDbEntity
  8
D-STR-DIM
  6
Continuous
100
AcDbLine
 10
3787.920799692201
 20
5995.529111033289
 30
0.0
 11
3792.920599673296
 21
5995.529111033289
 31
0.0
  0
LINE
  5
28C33
330
1F
100
AcDbEntity
  8
D-STR-DIM
  6
Continuous
100
AcDbLine
 10
3797.920399654387
 20
5995.529111033289
 30
0.0
 11
3792.920599673296
 21
5995.529111033289
 31
0.0
  0
LINE
  5
28C34
330
1F
100
AcDbEntity
  8
D-STR-DIM
  6
Continuous
100
AcDbLine
 10
3797.920399654387
 20
5995.529111033289
 30
0.0
 11
3847.920599465254
 21
5995.529111033289
 31
0.0
  0
LINE
  5
28C35
330
1F
100
AcDbEntity
  8
D-STR-DIM
  6
Continuous
100
AcDbLine
 10
3897.920799276123
 20
5995.529111033289
 30
0.0
 11
3847.920599465254
 21
5995.529111033289
 31
0.0
  0
LINE
  5
28C4B
330
1F
100
AcDbEntity
  8
D-STR-DIM
  6
Continuous
100
AcDbLine
 10
4297.920797763101
 20
6795.528908007243
 30
0.0
 11
4297.920797763101
 21
6133.028710513187
 31
0.0
  0
TEXT
  5
28C4C
330
1F
100
AcDbEntity
  8
D-STR-DIM
100
AcDbText
 10
4281.920597823642
 20
6014.168710962783
 30
0.0
 40
70.0
  1
1325
 50
90.0
100
AcDbText
  0
CIRCLE
  5
28C4D
330
1F
100
AcDbEntity
  8
D-STR-DIM
  6
Continuous
100
AcDbCircle
 10
4297.920797763101
 20
6795.528908007243
 30
0.0
 40
5.999997977304677
  0
TEXT
  5
28C54
330
1F
100
AcDbEntity
  8
D-STR-DIM
100
AcDbText
 10
5481.920592062517
 20
5801.669111766575
 30
0.0
 40
70.0
  1
1050
 50
90.0
100
AcDbText
  0
LINE
  5
28C55
330
1F
100
AcDbEntity
  8
D-STR-DIM
  6
Continuous
100
AcDbLine
 10
5497.920592001985
 20
5395.52931330282
 30
0.0
 11
5497.920592001985
 21
5920.52911131698
 31
0.0
  0
LINE
  5
28C74
330
1F
100
AcDbEntity
  8
D-DCR-HCH
  6
Continuous
100
AcDbLine
 10
5897.920390488966
 20
5149.691714232715
 30
0.0
 11
6043.75738993736
 21
5295.528913681076
 31
0.0
  0
LINE
  5
28C75
330
1F
100
AcDbEntity
  8
D-DCR-HCH
  6
Continuous
100
AcDbLine
 10
5897.920390488966
 20
5059.888914572399
 30
0.0
 11
6117.920389656807
 21
5279.889913740233
 31
0.0
  0
LINE
  5
28C76
330
1F
100
AcDbEntity
  8
D-DCR-HCH
  6
Continuous
100
AcDbLine
 10
5897.920390488966
 20
4970.086114912083
 30
0.0
 11
6117.920389656807
 21
5190.087314079915
 31
0.0
  0
LINE
  5
28C77
330
1F
100
AcDbEntity
  8
D-DCR-HCH
  6
Continuous
100
AcDbLine
 10
5897.920390488966
 20
4880.283515251766
 30
0.0
 11
6117.920389656807
 21
5100.2845144196
 31
0.0
  0
LINE
  5
28C78
330
1F
100
AcDbEntity
  8
D-DCR-HCH
  6
Continuous
100
AcDbLine
 10
5897.920390488966
 20
4790.48071559145
 30
0.0
 11
6117.920389656807
 21
5010.481714759284
 31
0.0
  0
LINE
  5
28C79
330
1F
100
AcDbEntity
  8
D-DCR-HCH
  6
Continuous
100
AcDbLine
 10
5897.920390488966
 20
4700.679115931131
 30
0.0
 11
6117.920389656807
 21
4920.67911509897
 31
0.0
  0
LINE
  5
28C7A
330
1F
100
AcDbEntity
  8
D-DCR-HCH
  6
Continuous
100
AcDbLine
 10
5982.573590168791
 20
4695.52911595061
 30
0.0
 11
6117.920389656807
 21
4830.876315438651
 31
0.0
  0
LINE
  5
28C7B
330
1F
100
AcDbEntity
  8
D-STR
  6
DASHED1
100
AcDbLine
 10
6217.920389278551
 20
4695.52911595061
 30
0.0
 11
5897.920390488966
 21
4695.52911595061
 31
0.0
  0
LINE
  5
28C7C
330
1F
100
AcDbEntity
  8
D-STR
  6
DASHED1
100
AcDbLine
 10
6117.920389656807
 20
5295.528913681076
 30
0.0
 11
5897.920390488966
 21
5295.528913681076
 31
0.0
  0
LINE
  5
28C7D
330
1F
100
AcDbEntity
  8
D-STR-STR2
  6
Continuous
100
AcDbLine
 10
6012.920390053972
 20
4835.528715421053
 30
0.0
 11
6092.920589751364
 21
4835.528715421053
 31
0.0
  0
LINE
  5
28C7E
330
1F
100
AcDbEntity
  8
D-STR-STR2
  6
Continuous
100
AcDbLine
 10
6012.920390053972
 20
4855.5289153454
 30
0.0
 11
6092.920589751364
 21
4855.5289153454
 31
0.0
  0
LINE
  5
28C7F
330
1F
100
AcDbEntity
  8
D-STR-STR2
  6
Continuous
100
AcDbLine
 10
6012.920390053972
 20
5385.528913340647
 30
0.0
 11
6092.920589751364
 21
5385.528913340647
 31
0.0
  0
LINE
  5
28C80
330
1F
100
AcDbEntity
  8
D-STR-STR2
  6
Continuous
100
AcDbLine
 10
6012.920390053972
 20
5405.528913264995
 30
0.0
 11
6092.920589751364
 21
5405.528913264995
 31
0.0
  0
LINE
  5
28C81
330
1F
100
AcDbEntity
  8
D-STR-DIM
  6
Continuous
100
AcDbLine
 10
5497.920592001985
 20
5395.52931330282
 30
0.0
 11
5497.920592001985
 21
5120.529314343023
 31
0.0
  0
LINE
  5
28C82
330
1F
100
AcDbEntity
  8
D-STR-DIM
  6
Continuous
100
AcDbLine
 10
5877.920390488966
 20
4845.529315383227
 30
0.0
 11
5467.920592115461
 21
4845.529315383227
 31
0.0
  0
LINE
  5
28C83
330
1F
100
AcDbEntity
  8
D-STR-DIM
  6
Continuous
100
AcDbLine
 10
5877.920390488966
 20
4695.52911595061
 30
0.0
 11
5467.920592115461
 21
4695.52911595061
 31
0.0
  0
LINE
  5
28C84
330
1F
100
AcDbEntity
  8
D-STR-DIM
  6
Continuous
100
AcDbLine
 10
5497.920592001985
 20
4845.529315383227
 30
0.0
 11
5497.920592001985
 21
5120.529314343023
 31
0.0
  0
TEXT
  5
28C85
330
1F
100
AcDbEntity
  8
D-STR-DIM
100
AcDbText
 10
5481.920592062517
 20
4683.668515995471
 30
0.0
 40
70.0
  1
150
 50
90.0
100
AcDbText
  0
CIRCLE
  5
28C86
330
1F
100
AcDbEntity
  8
D-STR-DIM
  6
Continuous
100
AcDbCircle
 10
5497.920592001985
 20
4845.529315383227
 30
0.0
 40
5.999997977304677
  0
CIRCLE
  5
28C87
330
1F
100
AcDbEntity
  8
D-STR-DIM
  6
Continuous
100
AcDbCircle
 10
5497.920592001985
 20
4695.52911595061
 30
0.0
 40
5.999997977304677
  0
LINE
  5
28C88
330
1F
100
AcDbEntity
  8
D-STR-DIM
  6
Continuous
100
AcDbLine
 10
5497.920592001985
 20
4845.529315383227
 30
0.0
 11
5497.920592001985
 21
4770.529115666919
 31
0.0
  0
LINE
  5
28C89
330
1F
100
AcDbEntity
  8
D-STR-DIM
  6
Continuous
100
AcDbLine
 10
5497.920592001985
 20
4695.52911595061
 30
0.0
 11
5497.920592001985
 21
4770.529115666919
 31
0.0
  0
TEXT
  5
28C8A
330
1F
100
AcDbEntity
  8
D-STR-DIM
100
AcDbText
 10
5481.920592062517
 20
5033.668714671579
 30
0.0
 40
70.0
  1
550
 50
90.0
100
AcDbText
  0
LINE
  5
28C8B
330
1F
100
AcDbEntity
  8
D-STR-STR2
  6
Continuous
100
AcDbLine
 10
5997.920590110705
 20
4630.528516196477
 30
0.0
 11
5897.920390488966
 21
4630.528516196477
 31
0.0
  0
LINE
  5
28C8C
330
1F
100
AcDbEntity
  8
D-STR-STR2
  6
Continuous
100
AcDbLine
 10
5997.920590110705
 20
4630.528516196477
 30
0.0
 11
5997.920590110705
 21
4610.528516272129
 31
0.0
  0
LINE
  5
28C8D
330
1F
100
AcDbEntity
  8
D-STR-STR2
  6
Continuous
100
AcDbLine
 10
5997.920590110705
 20
4610.528516272129
 30
0.0
 11
5897.920390488966
 21
4610.528516272129
 31
0.0
  0
LINE
  5
28C8E
330
1F
100
AcDbEntity
  8
D-STR-STR2
  6
Continuous
100
AcDbLine
 10
6012.920390053972
 20
4835.528715421053
 30
0.0
 11
6012.920390053972
 21
4855.5289153454
 31
0.0
  0
LINE
  5
28C8F
330
1F
100
AcDbEntity
  8
D-STR-STR2
  6
Continuous
100
AcDbLine
 10
5997.920590110705
 20
5035.528714664541
 30
0.0
 11
5897.920390488966
 21
5035.528714664541
 31
0.0
  0
LINE
  5
28C90
330
1F
100
AcDbEntity
  8
D-STR-STR2
  6
Continuous
100
AcDbLine
 10
5997.920590110705
 20
5055.52871458889
 30
0.0
 11
5897.920390488966
 21
5055.52871458889
 31
0.0
  0
LINE
  5
28C91
330
1F
100
AcDbEntity
  8
D-STR-STR2
  6
Continuous
100
AcDbLine
 10
5997.920590110705
 20
5055.52871458889
 30
0.0
 11
5997.920590110705
 21
5035.528714664541
 31
0.0
  0
LINE
  5
28C92
330
1F
100
AcDbEntity
  8
D-STR-DIM
  6
Continuous
100
AcDbLine
 10
5877.920390488966
 20
5395.52931330282
 30
0.0
 11
5467.920592115461
 21
5395.52931330282
 31
0.0
  0
CIRCLE
  5
28C93
330
1F
100
AcDbEntity
  8
D-STR-DIM
  6
Continuous
100
AcDbCircle
 10
5497.920592001985
 20
5395.52931330282
 30
0.0
 40
5.999997977304677
  0
LINE
  5
28C94
330
1F
100
AcDbEntity
  8
D-DCR-HCH
  6
Continuous
100
AcDbLine
 10
5897.920390488966
 20
5239.494313893032
 30
0.0
 11
5953.954990276997
 21
5295.528913681076
 31
0.0
  0
LINE
  5
28C95
330
1F
100
AcDbEntity
  8
D-STR-STR2
  6
Continuous
100
AcDbLine
 10
5997.920590110705
 20
5460.528913056954
 30
0.0
 11
5897.920390488966
 21
5460.528913056954
 31
0.0
  0
LINE
  5
28C96
330
1F
100
AcDbEntity
  8
D-STR-STR2
  6
Continuous
100
AcDbLine
 10
5997.920590110705
 20
5480.529112981304
 30
0.0
 11
5997.920590110705
 21
5460.528913056954
 31
0.0
  0
LINE
  5
28C97
330
1F
100
AcDbEntity
  8
D-STR-STR2
  6
Continuous
100
AcDbLine
 10
5997.920590110705
 20
5480.529112981304
 30
0.0
 11
5897.920390488966
 21
5480.529112981304
 31
0.0
  0
LINE
  5
28C98
330
1F
100
AcDbEntity
  8
D-STR-STR2
  6
Continuous
100
AcDbLine
 10
6012.920390053972
 20
5385.528913340647
 30
0.0
 11
6012.920390053972
 21
5405.528913264995
 31
0.0
  0
LINE
  5
28C99
330
1F
100
AcDbEntity
  8
D-STR-DIM
  6
Continuous
100
AcDbLine
 10
6367.920588711161
 20
5295.528913681076
 30
0.0
 11
6367.920588711161
 21
4995.528514815845
 31
0.0
  0
CIRCLE
  5
28C9A
330
1F
100
AcDbEntity
  8
D-STR-DIM
  6
Continuous
100
AcDbCircle
 10
6367.920588711161
 20
4695.52911595061
 30
0.0
 40
5.999997977304677
  0
LINE
  5
28C9C
330
1F
100
AcDbEntity
  8
D-STR-DIM
  6
Continuous
100
AcDbLine
 10
6367.920588711161
 20
4695.52911595061
 30
0.0
 11
6367.920588711161
 21
4995.528514815845
 31
0.0
  0
LINE
  5
28C9F
330
1F
100
AcDbEntity
  8
D-DCR-HCH
  6
Continuous
100
AcDbLine
 10
6072.37598982908
 20
4695.52911595061
 30
0.0
 11
6145.148389553848
 21
4768.301515675343
 31
0.0
  0
LINE
  5
28CA0
330
1F
100
AcDbEntity
  8
D-DCR-HCH
  6
Continuous
100
AcDbLine
 10
6162.178389489444
 20
4695.52911595061
 30
0.0
 11
6190.049589383955
 21
4723.400315845186
 31
0.0
  0
TEXT
  5
28CA8
330
1F
100
AcDbEntity
  8
D-STR-DIM
100
AcDbText
 10
6351.920388771701
 20
4908.668915144396
 30
0.0
 40
70.0
  1
600
 50
90.0
100
AcDbText
  0
CIRCLE
  5
28CB3
330
1F
100
AcDbEntity
  8
D-STR-DIM
  6
Continuous
100
AcDbCircle
 10
6367.920588711161
 20
5295.528913681076
 30
0.0
 40
5.999997977304677
  0
LINE
  5
28CB4
330
1F
100
AcDbEntity
  8
D-STR-DIM
  6
Continuous
100
AcDbLine
 10
6137.920389656807
 20
5295.528913681076
 30
0.0
 11
6397.920588597685
 21
5295.528913681076
 31
0.0
  0
CIRCLE
  5
28CF8
330
1F
100
AcDbEntity
  8
D-STR-DIM
  6
Continuous
100
AcDbCircle
 10
5497.920592001985
 20
6595.528908763755
 30
0.0
 40
5.999997977304677
  0
LINE
  5
28CF9
330
1F
100
AcDbEntity
  8
D-STR-DIM
  6
Continuous
100
AcDbLine
 10
5497.920592001985
 20
6595.528908763755
 30
0.0
 11
5497.920592001985
 21
6520.528909047446
 31
0.0
  0
LINE
  5
28CFA
330
1F
100
AcDbEntity
  8
D-STR-DIM
  6
Continuous
100
AcDbLine
 10
5877.920390488966
 20
6445.528709331139
 30
0.0
 11
5467.920592115461
 21
6445.528709331139
 31
0.0
  0
LINE
  5
28CFB
330
1F
100
AcDbEntity
  8
D-STR-DIM
  6
Continuous
100
AcDbLine
 10
5497.920592001985
 20
6445.528709331139
 30
0.0
 11
5497.920592001985
 21
5920.52911131698
 31
0.0
  0
TEXT
  5
28CFC
330
1F
100
AcDbEntity
  8
D-STR-DIM
100
AcDbText
 10
5481.920592062517
 20
6433.669309375997
 30
0.0
 40
70.0
  1
150
 50
90.0
100
AcDbText
  0
CIRCLE
  5
28CFD
330
1F
100
AcDbEntity
  8
D-STR-DIM
  6
Continuous
100
AcDbCircle
 10
5497.920592001985
 20
6445.528709331139
 30
0.0
 40
5.999997977304677
  0
LINE
  5
28CFE
330
1F
100
AcDbEntity
  8
D-STR-DIM
  6
Continuous
100
AcDbLine
 10
5497.920592001985
 20
6445.528709331139
 30
0.0
 11
5497.920592001985
 21
6520.528909047446
 31
0.0
  0
LINE
  5
28D01
330
1F
100
AcDbEntity
  8
D-STR-DIM
  6
Continuous
100
AcDbLine
 10
5877.920390488966
 20
6595.528908763755
 30
0.0
 11
5467.920592115461
 21
6595.528908763755
 31
0.0
  0
LINE
  5
28F3D
330
1F
100
AcDbEntity
  8
D-STR-DIM
  6
Continuous
100
AcDbLine
 10
8837.920373417411
 20
5095.528914437587
 30
0.0
 11
8837.920373417411
 21
4895.529115194099
 31
0.0
  0
TEXT
  5
28F3E
330
1F
100
AcDbEntity
  8
D-STR-DIM
100
AcDbText
 10
8821.920371477933
 20
4808.669315522649
 30
0.0
 40
70.0
  1
400
 50
90.0
100
AcDbText
  0
LINE
  5
28F3F
330
1F
100
AcDbEntity
  8
D-STR-DIM
  6
Continuous
100
AcDbLine
 10
9517.920314769563
 20
4695.52911595061
 30
0.0
 11
8807.92037353089
 21
4695.52911595061
 31
0.0
  0
LINE
  5
28F40
330
1F
100
AcDbEntity
  8
D-STR-DIM
  6
Continuous
100
AcDbLine
 10
8837.920373417411
 20
4695.52911595061
 30
0.0
 11
8837.920373417411
 21
4895.529115194099
 31
0.0
  0
CIRCLE
  5
28F41
330
1F
100
AcDbEntity
  8
D-STR-DIM
  6
Continuous
100
AcDbCircle
 10
8837.920373417411
 20
4695.52911595061
 30
0.0
 40
5.999997977304677
  0
LINE
  5
28F42
330
1F
100
AcDbEntity
  8
D-STR-DIM
  6
Continuous
100
AcDbLine
 10
9046.116156629883
 20
5095.528914437587
 30
0.0
 11
8807.92037353089
 21
5095.528914437587
 31
0.0
  0
CIRCLE
  5
28F43
330
1F
100
AcDbEntity
  8
D-STR-DIM
  6
Continuous
100
AcDbCircle
 10
8837.920373417411
 20
5095.528914437587
 30
0.0
 40
5.999997977304677
  0
LINE
  5
28F44
330
1F
100
AcDbEntity
  8
D-STR-DIM
  6
Continuous
100
AcDbLine
 10
9167.920336169116
 20
5095.528914437587
 30
0.0
 11
9507.92037488306
 21
5095.528914437587
 31
0.0
  0
LINE
  5
28F45
330
1F
100
AcDbEntity
  8
D-STR-DIM
  6
Continuous
100
AcDbLine
 10
10037.92027287834
 20
5165.528714248461
 30
0.0
 11
10037.92027287834
 21
5490.52851294348
 31
0.0
  0
LINE
  5
28F46
330
1F
100
AcDbEntity
  8
D-STR-DIM
  6
Continuous
100
AcDbLine
 10
10037.92027287834
 20
5460.528913056954
 30
0.0
 11
9787.920353823938
 21
5460.528913056954
 31
0.0
  0
CIRCLE
  5
28F47
330
1F
100
AcDbEntity
  8
D-STR-DIM
  6
Continuous
100
AcDbCircle
 10
10037.92027287834
 20
5460.528913056954
 30
0.0
 40
5.999997977304677
  0
TEXT
  5
28F48
330
1F
100
AcDbEntity
  8
D-STR-DIM
100
AcDbText
 10
9701.060354152474
 20
5476.528712996437
 30
0.0
 40
70.0
  1
500
100
AcDbText
  0
LINE
  5
28F49
330
1F
100
AcDbEntity
  8
D-STR-DIM
  6
Continuous
100
AcDbLine
 10
9537.920314769563
 20
5460.528913056954
 30
0.0
 11
9787.920353823938
 21
5460.528913056954
 31
0.0
  0
CIRCLE
  5
28F4A
330
1F
100
AcDbEntity
  8
D-STR-DIM
  6
Continuous
100
AcDbCircle
 10
9537.920314769563
 20
5460.528913056954
 30
0.0
 40
5.999997977304677
  0
LINE
  5
28F4B
330
1F
100
AcDbEntity
  8
D-STR
  6
Continuous
100
AcDbLine
 10
10086.91013269304
 20
5105.528514399765
 30
0.0
 11
9988.930553063624
 21
5105.528514399765
 31
0.0
  0
LINE
  5
28F4C
330
1F
100
AcDbEntity
  8
D-STR
  6
Continuous
100
AcDbLine
 10
10086.91013269304
 20
5085.529514475411
 30
0.0
 11
9988.930553063624
 21
5085.529514475411
 31
0.0
  0
CIRCLE
  5
28F4D
330
1F
100
AcDbEntity
  8
D-STR
  6
Continuous
100
AcDbCircle
 10
10037.92027287834
 20
5095.528914437587
 30
0.0
 40
49.99999781087225
  0
TEXT
  5
28FBB
330
1F
100
AcDbEntity
  8
D-MTR-MTXT
100
AcDbText
 10
13968.30691670625
 20
9570.047958947105
 30
0.0
 40
69.99999999999999
  1
ｉ＝0.3
100
AcDbText
  0
TEXT
  5
28FBC
330
1F
100
AcDbEntity
  8
D-MTR-MTXT
100
AcDbText
 10
13968.30691670625
 20
9440.715205213701
 30
0.0
 40
69.99999999999999
  1
Ｈ′＝
100
AcDbText
  0
TEXT
  5
28FBD
330
1F
100
AcDbEntity
  8
D-MTR
100
AcDbText
 10
13228.0443197799
 20
9892.847516667147
 30
0.0
 40
139.9999999999999
  1
　設　計　条　件　
100
AcDbText
  0
LINE
  5
28FBE
330
1F
100
AcDbEntity
  8
D-MTR-FRAM
  6
Continuous
100
AcDbLine
 10
13390.97766977251
 20
8903.515288933702
 30
0.0
 11
15458.97740097253
 21
8903.515288933702
 31
0.0
  0
LINE
  5
28FBF
330
1F
100
AcDbEntity
  8
D-MTR-FRAM
  6
Continuous
100
AcDbLine
 10
13390.97766977251
 20
9679.514891333749
 30
0.0
 11
15458.97740097253
 21
9679.514891333749
 31
0.0
  0
TEXT
  5
28FC0
330
1F
100
AcDbEntity
  8
D-MTR-MTXT
100
AcDbText
 10
13968.30691670625
 20
9699.3823926803
 30
0.0
 40
69.99999999999999
  1
Ｔ－25　（後輪１輪　100ｋＮ）
100
AcDbText
  0
TEXT
  5
28FC1
330
1F
100
AcDbEntity
  8
D-MTR-MTXT
100
AcDbText
 10
13968.30691670625
 20
8923.381110280464
 30
0.0
 40
69.99999999999999
  1
γ＝19.0ｋＮ／ｍ
100
AcDbText
  0
LINE
  5
28FC2
330
1F
100
AcDbEntity
  8
D-MTR-MTXT
  6
Continuous
100
AcDbLine
 10
14000.31091350585
 20
9097.514419533757
 30
0.0
 11
14840.31138950579
 21
9097.514419533757
 31
0.0
  0
TEXT
  5
28FC3
330
1F
100
AcDbEntity
  8
D-MTR-MTXT
100
AcDbText
 10
13968.30691670625
 20
9311.38105148047
 30
0.0
 40
69.99999999999999
  1
鉄筋コンクリ－ト箱形
100
AcDbText
  0
LINE
  5
28FC4
330
1F
100
AcDbEntity
  8
D-MTR-FRAM
  6
Continuous
100
AcDbLine
 10
13390.97766977251
 20
8515.515347733694
 30
0.0
 11
15458.97740097253
 21
8515.515347733694
 31
0.0
  0
TEXT
  5
28FC5
330
1F
100
AcDbEntity
  8
D-MTR-MTXT
100
AcDbText
 10
13968.30691670625
 20
8535.381169080457
 30
0.0
 40
69.99999999999999
  1
設計基準強度　　
100
AcDbText
  0
TEXT
  5
28FC6
330
1F
100
AcDbEntity
  8
D-MTR-MTXT
100
AcDbText
 10
13968.30691670625
 20
8406.048415347051
 30
0.0
 40
69.99999999999999
  1
ＳＤ２９５Ａ　　
100
AcDbText
  0
TEXT
  5
28FC7
330
1F
100
AcDbEntity
  8
D-MTR-MTXT
100
AcDbText
 10
13968.30691670625
 20
8664.715322813687
 30
0.0
 40
69.99999999999999
  1
ｋａ＝0.5　（静止土圧係数）
100
AcDbText
  0
LINE
  5
28FC8
330
1F
100
AcDbEntity
  8
D-MTR-FRAM
  6
Continuous
100
AcDbLine
 10
12750.97803377247
 20
8256.848421447164
 30
0.0
 11
15458.97740097253
 21
8256.848421447164
 31
0.0
  0
LINE
  5
28FC9
330
1F
100
AcDbEntity
  8
D-MTR-FRAM
  6
Continuous
100
AcDbLine
 10
12750.97803377247
 20
8386.181194000412
 30
0.0
 11
15458.97740097253
 21
8386.181194000412
 31
0.0
  0
LINE
  5
28FCA
330
1F
100
AcDbEntity
  8
D-MTR-FRAM
  6
Continuous
100
AcDbLine
 10
12750.97803377247
 20
8644.848101467101
 30
0.0
 11
15458.97740097253
 21
8644.848101467101
 31
0.0
  0
LINE
  5
28FCB
330
1F
100
AcDbEntity
  8
D-MTR-FRAM
  6
Continuous
100
AcDbLine
 10
12750.97803377247
 20
8774.180855200455
 30
0.0
 11
15458.97740097253
 21
8774.180855200455
 31
0.0
  0
LINE
  5
28FCC
330
1F
100
AcDbEntity
  8
D-MTR-FRAM
  6
Continuous
100
AcDbLine
 10
12750.97803377247
 20
9032.848042667106
 30
0.0
 11
15458.97740097253
 21
9032.848042667106
 31
0.0
  0
LINE
  5
28FCD
330
1F
100
AcDbEntity
  8
D-MTR-FRAM
  6
Continuous
100
AcDbLine
 10
12750.97803377247
 20
9162.180796400461
 30
0.0
 11
15458.97740097253
 21
9162.180796400461
 31
0.0
  0
LINE
  5
28FCE
330
1F
100
AcDbEntity
  8
D-MTR-FRAM
  6
Continuous
100
AcDbLine
 10
12750.97803377247
 20
9291.514950133743
 30
0.0
 11
15458.97740097253
 21
9291.514950133743
 31
0.0
  0
LINE
  5
28FCF
330
1F
100
AcDbEntity
  8
D-MTR-FRAM
  6
Continuous
100
AcDbLine
 10
12750.97803377247
 20
9420.847983867114
 30
0.0
 11
15458.97740097253
 21
9420.847983867114
 31
0.0
  0
LINE
  5
28FD0
330
1F
100
AcDbEntity
  8
D-MTR-FRAM
  6
Continuous
100
AcDbLine
 10
12750.97803377247
 20
9550.182137600343
 30
0.0
 11
15458.97740097253
 21
9550.182137600343
 31
0.0
  0
LINE
  5
28FD1
330
1F
100
AcDbEntity
  8
D-MTR-FRAM
  6
Continuous
100
AcDbLine
 10
12750.97803377247
 20
9808.847925067119
 30
0.0
 11
15458.97740097253
 21
9808.847925067119
 31
0.0
  0
LINE
  5
28FD2
330
1F
100
AcDbEntity
  8
D-MTR-FRAM
  6
Continuous
100
AcDbLine
 10
12750.97803464345
 20
7734.382815362782
 30
0.0
 11
15458.97740184351
 21
7734.382815362782
 31
0.0
  0
LINE
  5
28FD3
330
1F
100
AcDbEntity
  8
D-MTR-FRAM
  6
Continuous
100
AcDbLine
 10
12750.97803464345
 20
7863.715634471249
 30
0.0
 11
15458.97740184351
 21
7863.715634471249
 31
0.0
  0
LINE
  5
28FD4
330
1F
100
AcDbEntity
  8
D-MTR-FRAM
  6
Continuous
100
AcDbLine
 10
12750.97803464345
 20
6829.053201603516
 30
0.0
 11
15458.97740184351
 21
6829.053201603516
 31
0.0
  0
LINE
  5
28FD5
330
1F
100
AcDbEntity
  8
D-MTR-FRAM
  6
Continuous
100
AcDbLine
 10
12750.97803464345
 20
7346.383438037388
 30
0.0
 11
15458.97740184351
 21
7346.383438037388
 31
0.0
  0
LINE
  5
28FD6
330
1F
100
AcDbEntity
  8
D-MTR-FRAM
  6
Continuous
100
AcDbLine
 10
12750.97803464345
 20
7475.71765714585
 30
0.0
 11
15458.97740184351
 21
7475.71765714585
 31
0.0
  0
LINE
  5
28FD7
330
1F
100
AcDbEntity
  8
D-MTR-FRAM
  6
Continuous
100
AcDbLine
 10
12750.97803464345
 20
7605.049996254317
 30
0.0
 11
15458.97740184351
 21
7605.049996254317
 31
0.0
  0
LINE
  5
28FD8
330
1F
100
AcDbEntity
  8
D-MTR-FRAM
  6
Continuous
100
AcDbLine
 10
12750.97803464345
 20
7217.051178928915
 30
0.0
 11
15458.97740184351
 21
7217.051178928915
 31
0.0
  0
LINE
  5
28FD9
330
1F
100
AcDbEntity
  8
D-MTR-FRAM
  6
Continuous
100
AcDbLine
 10
12750.97803464345
 20
7087.718359820448
 30
0.0
 11
15458.97740184351
 21
7087.718359820448
 31
0.0
  0
LINE
  5
28FDA
330
1F
100
AcDbEntity
  8
D-MTR-FRAM
  6
Continuous
100
AcDbLine
 10
12750.97803464345
 20
6958.385540711981
 30
0.0
 11
15458.97740184351
 21
6958.385540711981
 31
0.0
  0
TEXT
  5
28FDB
330
1F
100
AcDbEntity
  8
D-MTR-MTXT
100
AcDbText
 10
12830.97403430531
 20
7363.583437753337
 30
0.0
 40
70.0
  1
吊り用インサート　Ｍ20（Ｙ－Ｄ32×150）
100
AcDbText
  0
TEXT
  5
28FDC
330
1F
100
AcDbEntity
  8
D-MTR-MTXT
100
AcDbText
 10
12830.97403430531
 20
7492.917656861799
 30
0.0
 40
70.0
  1
ピットバルブ　φ75　Ｌ＝130
100
AcDbText
  0
TEXT
  5
28FDD
330
1F
100
AcDbEntity
  8
D-MTR-MTXT
100
AcDbText
 10
12830.97403430531
 20
7234.251178644867
 30
0.0
 40
70.0
  1
引込金具用インサート　Ｍ20（Ｙ－Ｄ32×150）
100
AcDbText
  0
TEXT
  5
28FDE
330
1F
100
AcDbEntity
  8
D-MTR-MTXT
100
AcDbText
 10
12830.97403430531
 20
7104.918639536397
 30
0.0
 40
70.0
  1
支持受金物用インサート　Ｍ16（セラミック）
100
AcDbText
  0
TEXT
  5
28FDF
330
1F
100
AcDbEntity
  8
D-MTR-MTXT
100
AcDbText
 10
12830.97403430531
 20
6846.253201319465
 30
0.0
 40
70.0
  1
取付ボックス用インサートＭ16（Ｙ－Ｄ25×100）
100
AcDbText
  0
TEXT
  5
28FE0
330
1F
100
AcDbEntity
  8
D-MTR
100
AcDbText
 10
13500.24817206208
 20
7918.57708358569
 30
0.0
 40
140.0
  1
　材　料　表　
100
AcDbText
  0
LINE
  5
28FE1
330
1F
100
AcDbEntity
  8
D-MTR-FRAM
  6
Continuous
100
AcDbLine
 10
13932.31093030584
 20
9808.847925067119
 30
0.0
 11
13932.31093030584
 21
8256.848421447166
 31
0.0
  0
LINE
  5
28FE2
330
1F
100
AcDbEntity
  8
D-MTR-FRAM
  6
Continuous
100
AcDbLine
 10
12750.97803377247
 20
9808.847925067119
 30
0.0
 11
12750.97803377247
 21
8256.848421447166
 31
0.0
  0
LINE
  5
28FE3
330
1F
100
AcDbEntity
  8
D-MTR-FRAM
  6
Continuous
100
AcDbLine
 10
12750.97803464345
 20
7863.715634471249
 30
0.0
 11
12750.97803464345
 21
6829.053201603516
 31
0.0
  0
TEXT
  5
28FE4
330
1F
100
AcDbEntity
  8
D-MTR-MTXT
100
AcDbText
 10
12830.97403430531
 20
6975.585540427932
 30
0.0
 40
70.0
  1
引込金具
100
AcDbText
  0
TEXT
  5
28FE5
330
1F
100
AcDbEntity
  8
D-MTR-TXT
100
AcDbText
 10
13083.74929163601
 20
8276.715647902092
 30
0.0
 40
70.0
  1
製　品　質　量
100
AcDbText
  0
TEXT
  5
28FE6
330
1F
100
AcDbEntity
  8
D-MTR-MTXT
100
AcDbText
 10
12830.97403430531
 20
7622.250275970266
 30
0.0
 40
70.0
  1
連結金具
100
AcDbText
  0
TEXT
  5
28FE7
330
1F
100
AcDbEntity
  8
D-MTR-TXT
100
AcDbText
 10
13651.32349400269
 20
7751.582815078734
 30
0.0
 40
70.0
  1
種　　類
100
AcDbText
  0
TEXT
  5
28FE8
330
1F
100
AcDbEntity
  8
D-MTR-TXT
100
AcDbText
 10
13162.74583843446
 20
9182.048297747064
 30
0.0
 40
69.99999999999999
  1
　（幅
100
AcDbText
  0
TEXT
  5
28FE9
330
1F
100
AcDbEntity
  8
D-MTR-TXT
100
AcDbText
 10
13078.88327368994
 20
9052.715264013693
 30
0.0
 40
69.99999999999999
  1
地　下　水　位
100
AcDbText
  0
TEXT
  5
28FEA
330
1F
100
AcDbEntity
  8
D-MTR-TXT
100
AcDbText
 10
13109.04188504149
 20
8664.715322813687
 30
0.0
 40
69.99999999999999
  1
土　圧　係　数
100
AcDbText
  0
TEXT
  5
28FEB
330
1F
100
AcDbEntity
  8
D-MTR-TXT
100
AcDbText
 10
12780.61707259046
 20
8470.714792213755
 30
0.0
 40
69.99999999999999
  1
使　用　材　料
100
AcDbText
  0
TEXT
  5
28FEC
330
1F
100
AcDbEntity
  8
D-MTR-TXT
100
AcDbText
 10
12825.33741767554
 20
9182.048297747064
 30
0.0
 40
69.99999999999999
  1
内空寸法
100
AcDbText
  0
TEXT
  5
28FED
330
1F
100
AcDbEntity
  8
D-MTR-TXT
100
AcDbText
 10
12814.97429737284
 20
8858.71473341376
 30
0.0
 40
69.99999999999999
  1
土の単位重量
100
AcDbText
  0
TEXT
  5
28FEE
330
1F
100
AcDbEntity
  8
D-MTR-TXT
100
AcDbText
 10
13418.97365897291
 20
8794.048356547058
 30
0.0
 40
69.99999999999999
  1
地下水位以下
100
AcDbText
  0
LINE
  5
28FEF
330
1F
100
AcDbEntity
  8
D-MTR-FRAM
  6
Continuous
100
AcDbLine
 10
13390.97766977251
 20
9032.848042667106
 30
0.0
 11
13390.97766977251
 21
8774.180855200455
 31
0.0
  0
TEXT
  5
28FF0
330
1F
100
AcDbEntity
  8
D-MTR-TXT
100
AcDbText
 10
13418.97365897291
 20
8535.381169080457
 30
0.0
 40
69.99999999999999
  1
コンクリ－ト
100
AcDbText
  0
TEXT
  5
28FF1
330
1F
100
AcDbEntity
  8
D-MTR-TXT
100
AcDbText
 10
13508.57393001288
 20
8406.048415347051
 30
0.0
 40
69.99999999999999
  1
鉄　　筋
100
AcDbText
  0
LINE
  5
28FF2
330
1F
100
AcDbEntity
  8
D-MTR-FRAM
  6
Continuous
100
AcDbLine
 10
13390.97766977251
 20
8644.848101467101
 30
0.0
 11
13390.97766977251
 21
8386.181194000412
 31
0.0
  0
TEXT
  5
28FF3
330
1F
100
AcDbEntity
  8
D-MTR-TXT
100
AcDbText
 10
13418.97365897291
 20
8923.381110280464
 30
0.0
 40
69.99999999999999
  1
地下水位以上
100
AcDbText
  0
TEXT
  5
28FF4
330
1F
100
AcDbEntity
  8
D-MTR-TXT
100
AcDbText
 10
13502.97421057285
 20
9182.048297747064
 30
0.0
 40
69.99999999999999
  1
高
100
AcDbText
  0
TEXT
  5
28FF5
330
1F
100
AcDbEntity
  8
D-MTR-TXT
100
AcDbText
 10
13415.24061067954
 20
9182.048297747064
 30
0.0
 40
69.99999999999999
  1
×
100
AcDbText
  0
TEXT
  5
28FF6
330
1F
100
AcDbEntity
  8
D-MTR-TXT
100
AcDbText
 10
13604.04086379952
 20
9182.048297747064
 30
0.0
 40
69.99999999999999
  1
×
100
AcDbText
  0
TEXT
  5
28FF7
330
1F
100
AcDbEntity
  8
D-MTR-TXT
100
AcDbText
 10
13705.10695702624
 20
9182.048297747064
 30
0.0
 40
69.99999999999999
  1
長）
100
AcDbText
  0
TEXT
  5
28FF8
330
1F
100
AcDbEntity
  8
D-MTR-TXT
100
AcDbText
 10
13014.41515353795
 20
9440.715205213701
 30
0.0
 40
69.99999999999999
  1
許　容　土　被　り
100
AcDbText
  0
TEXT
  5
28FF9
330
1F
100
AcDbEntity
  8
D-MTR-TXT
100
AcDbText
 10
13229.90481140561
 20
9311.38105148047
 30
0.0
 40
69.99999999999999
  1
　（工場製品）
100
AcDbText
  0
TEXT
  5
28FFA
330
1F
100
AcDbEntity
  8
D-MTR-TXT
100
AcDbText
 10
12831.77401569287
 20
9311.38105148047
 30
0.0
 40
69.99999999999999
  1
構造形式　　　
100
AcDbText
  0
TEXT
  5
28FFB
330
1F
100
AcDbEntity
  8
D-MTR-TXT
100
AcDbText
 10
12778.00625252581
 20
9634.714615813772
 30
0.0
 40
69.99999999999999
  1
設　計　荷　重
100
AcDbText
  0
TEXT
  5
28FFC
330
1F
100
AcDbEntity
  8
D-MTR-TXT
100
AcDbText
 10
13463.77421449285
 20
9699.3823926803
 30
0.0
 40
69.99999999999999
  1
活　荷　重
100
AcDbText
  0
LINE
  5
28FFD
330
1F
100
AcDbEntity
  8
D-MTR-FRAM
  6
Continuous
100
AcDbLine
 10
13390.97766977251
 20
9808.847925067119
 30
0.0
 11
13390.97766977251
 21
9550.182137600343
 31
0.0
  0
TEXT
  5
28FFE
330
1F
100
AcDbEntity
  8
D-MTR-TXT
100
AcDbText
 10
13463.77421449285
 20
9570.047958947105
 30
0.0
 40
69.99999999999999
  1
衝　　　撃
100
AcDbText
  0
LINE
  5
28FFF
330
1F
100
AcDbEntity
  8
D-MTR-FRAM
  6
Continuous
100
AcDbLine
 10
15458.97740097253
 20
9808.847925067119
 30
0.0
 11
15458.97740097253
 21
8256.848421447166
 31
0.0
  0
TEXT
  5
29000
330
1F
100
AcDbEntity
  8
D-MTR-MTXT
100
AcDbText
 10
14824.97760452339
 20
7363.583437753337
 30
0.0
 40
70.0
  1
　　　4　本
100
AcDbText
  0
LINE
  5
29001
330
1F
100
AcDbEntity
  8
D-MTR-FRAM
  6
Continuous
100
AcDbLine
 10
15458.97740184351
 20
7863.715634471249
 30
0.0
 11
15458.97740184351
 21
6829.053201603516
 31
0.0
  0
LINE
  5
29002
330
1F
100
AcDbEntity
  8
D-MTR-FRAM
  6
Continuous
100
AcDbLine
 10
14852.97740485243
 20
7863.715634471249
 30
0.0
 11
14852.97740485243
 21
6829.053201603516
 31
0.0
  0
TEXT
  5
29003
330
1F
100
AcDbEntity
  8
D-MTR-MTXT
100
AcDbText
 10
14824.97760452339
 20
6846.253201319465
 30
0.0
 40
70.0
  1
　　　6　本
100
AcDbText
  0
TEXT
  5
29004
330
1F
100
AcDbEntity
  8
D-MTR-MTXT
100
AcDbText
 10
14856.61449036771
 20
7104.918639536397
 30
0.0
 40
70.0
  1
　　16　本
100
AcDbText
  0
TEXT
  5
29005
330
1F
100
AcDbEntity
  8
D-MTR-MTXT
100
AcDbText
 10
14833.60582826624
 20
6975.585540427932
 30
0.0
 40
70.0
  1
　　　1　個
100
AcDbText
  0
TEXT
  5
29006
330
1F
100
AcDbEntity
  8
D-MTR-MTXT
100
AcDbText
 10
14837.10892006686
 20
7234.251178644867
 30
0.0
 40
70.0
  1
　　　1　本
100
AcDbText
  0
TEXT
  5
29007
330
1F
100
AcDbEntity
  8
D-MTR-MTXT
100
AcDbText
 10
14490.12699943982
 20
8533.919337239657
 30
0.0
 40
69.99999999999999
  1
σｃｋ＝　35Ｎ／ｍｍ
100
AcDbText
  0
TEXT
  5
29008
330
1F
100
AcDbEntity
  8
D-MTR-MTXT
100
AcDbText
 10
14490.12699943982
 20
8404.586583506253
 30
0.0
 40
69.99999999999999
  1
σｓａ＝160Ｎ／ｍｍ
100
AcDbText
  0
TEXT
  5
29009
330
1F
100
AcDbEntity
  8
D-MTR-TXT
100
AcDbText
 10
15010.03895401433
 20
7751.582815078734
 30
0.0
 40
70.0
  1
個　　数
100
AcDbText
  0
TEXT
  5
2900A
330
1F
100
AcDbEntity
  8
D-MTR-MTXT
100
AcDbText
 10
14561.10748780323
 20
8284.254874700076
 30
0.0
 40
70.0
  1
 kg
100
AcDbText
  0
TEXT
  5
2900B
330
1F
100
AcDbEntity
  8
D-MTR-MTXT
100
AcDbText
 10
14193.35978423857
 20
8276.715647902092
 30
0.0
 40
70.0
  1
5,190
100
AcDbText
  0
TEXT
  5
2900C
330
1F
100
AcDbEntity
  8
D-MTR-MTXT
100
AcDbText
 10
14824.97760452339
 20
7622.250275970266
 30
0.0
 40
70.0
  1
　　　8　個
100
AcDbText
  0
TEXT
  5
2900D
330
1F
100
AcDbEntity
  8
D-MTR-MTXT
100
AcDbText
 10
14836.48193557412
 20
7492.917656861799
 30
0.0
 40
70.0
  1
　　　1　個
100
AcDbText
  0
TEXT
  5
2900E
330
1F
100
AcDbEntity
  8
D-MTR-MTXT
100
AcDbText
 10
14544.90699824684
 20
9182.048297747064
 30
0.0
 40
69.99999999999999
  1
1,900
100
AcDbText
  0
TEXT
  5
2900F
330
1F
100
AcDbEntity
  8
D-MTR-MTXT
100
AcDbText
 10
14035.99793444227
 20
9182.048297747064
 30
0.0
 40
69.99999999999999
  1
1,200
100
AcDbText
  0
TEXT
  5
29010
330
1F
100
AcDbEntity
  8
D-MTR-MTXT
100
AcDbText
 10
14394.44020075958
 20
9182.048297747064
 30
0.0
 40
69.99999999999999
  1
×
100
AcDbText
  0
TEXT
  5
29011
330
1F
100
AcDbEntity
  8
D-MTR-MTXT
100
AcDbText
 10
14687.0407550418
 20
8970.723469321878
 30
0.0
 40
49.99999999999999
  1
3
100
AcDbText
  0
TEXT
  5
29012
330
1F
100
AcDbEntity
  8
D-MTR-MTXT
100
AcDbText
 10
15335.27295783174
 20
8445.364650433885
 30
0.0
 40
49.99999999999999
  1
2
100
AcDbText
  0
TEXT
  5
29013
330
1F
100
AcDbEntity
  8
D-MTR-MTXT
100
AcDbText
 10
15365.35782592301
 20
8574.697404167293
 30
0.0
 40
49.99999999999999
  1
2
100
AcDbText
  0
TEXT
  5
29014
330
1F
100
AcDbEntity
  8
D-MTR-MTXT
100
AcDbText
 10
14646.84659052311
 20
9440.715205213701
 30
0.0
 40
69.99999999999999
  1
～
100
AcDbText
  0
TEXT
  5
29015
330
1F
100
AcDbEntity
  8
D-MTR-MTXT
100
AcDbText
 10
14281.90688534624
 20
9440.715205213701
 30
0.0
 40
69.99999999999999
  1
0.200
100
AcDbText
  0
TEXT
  5
29016
330
1F
100
AcDbEntity
  8
D-MTR-MTXT
100
AcDbText
 10
14781.24601708317
 20
9440.715205213701
 30
0.0
 40
69.99999999999999
  1
1.000　ｍ
100
AcDbText
  0
TEXT
  5
29020
330
1F
100
AcDbEntity
  8
D-MTR-MTXT
100
AcDbText
 10
15047.84334874235
 20
9182.048297747064
 30
0.0
 40
69.99999999999999
  1
1,500
100
AcDbText
  0
TEXT
  5
29021
330
1F
100
AcDbEntity
  8
D-MTR-MTXT
100
AcDbText
 10
14897.37655125509
 20
9182.048297747064
 30
0.0
 40
69.99999999999999
  1
×
100
AcDbText
  0
LINE
  5
2902A
330
1F
100
AcDbEntity
  8
D-TTL
  6
Continuous
100
AcDbLine
 10
800.0
 20
11479.99995240003
 30
0.0
 11
16419.99993279995
 21
11479.99995240003
 31
0.0
  0
LINE
  5
2902B
330
1F
100
AcDbEntity
  8
D-TTL
  6
Continuous
100
AcDbLine
 10
16419.99993279995
 20
11479.99995240003
 30
0.0
 11
16419.99993279995
 21
400.0
 31
0.0
  0
LINE
  5
2902C
330
1F
100
AcDbEntity
  8
D-TTL
  6
Continuous
100
AcDbLine
 10
16419.99993279995
 20
400.0
 30
0.0
 11
800.0
 21
400.0
 31
0.0
  0
LINE
  5
2902D
330
1F
100
AcDbEntity
  8
D-TTL
  6
Continuous
100
AcDbLine
 10
800.0
 20
400.0
 30
0.0
 11
800.0
 21
11479.99995240003
 31
0.0
  0
LINE
  5
2902E
330
1F
100
AcDbEntity
  8
D-TTL
  6
Continuous
100
AcDbLine
 10
0.0
 20
11879.99995240002
 30
0.0
 11
16819.99993279995
 21
11879.99995240002
 31
0.0
  0
LINE
  5
2902F
330
1F
100
AcDbEntity
  8
D-TTL
  6
Continuous
100
AcDbLine
 10
16819.99993279995
 20
11879.99995240002
 30
0.0
 11
16819.99993279995
 21
0.0
 31
0.0
  0
LINE
  5
29030
330
1F
100
AcDbEntity
  8
D-TTL
  6
Continuous
100
AcDbLine
 10
16819.99993279995
 20
0.0
 30
0.0
 11
0.0
 21
0.0
 31
0.0
  0
LINE
  5
29031
330
1F
100
AcDbEntity
  8
D-TTL
  6
Continuous
100
AcDbLine
 10
0.0
 20
0.0
 30
0.0
 11
0.0
 21
11879.99995240002
 31
0.0
  0
INSERT
  5
29032
330
1F
100
AcDbEntity
  8
D-STR-HTXT
100
AcDbBlockReference
  2
_OPEN
 10
-5985.603572893858
 20
2495.528925161001
 30
0.0
 41
30.0
 42
30.0
 43
30.0
 50
239.9999999999999
210
0.0
220
0.0
230
-1.0
1001
ACAD
1000
DSTYLE
1002
{
1070
    41
1040
30.0
1002
}
  0
LWPOLYLINE
  5
29033
330
1F
100
AcDbEntity
  8
D-STR-HTXT
100
AcDbPolyline
 90
        4
 70
     0
 43
0.0
 10
-5970.603572893859
 20
2521.509687274535
 10
-5835.603572893859
 20
2755.336546296332
 10
-5781.201069974567
 20
2755.336546296332
 10
-5541.867736641234
 20
2755.336546296332
210
0.0
220
0.0
230
-1.0
1001
ACAD
1000
DSTYLE
1002
{
1070
    41
1040
30.0
1002
}
  0
TEXT
  5
29034
330
1F
100
AcDbEntity
  8
0
100
AcDbText
 10
5561.462862977362
 20
2775.336546296332
 30
0.0
 40
70.0
  1
目地側
100
AcDbText
  0
VIEWPORT
  5
2E
102
{ACAD_XDICTIONARY
360
29042
102
}
330
1B
100
AcDbEntity
 67
     1
  8
0
100
AcDbViewport
 10
473.1810839499198
 20
473.2126938647103
 30
0.0
 40
2443.154659054329
 41
1598.230339464706
 68
     1
 69
     1
 12
473.1810839499198
 22
473.2126938647103
 13
0.0
 23
0.0
 14
10.0
 24
10.0
 15
10.0
 25
10.0
 16
0.0
 26
0.0
 36
1.0
 17
0.0
 27
0.0
 37
0.0
 42
50.0
 43
0.0
 44
0.0
 45
1598.230339464706
 50
0.0
 51
0.0
 72
   100
 90
    32800
  1

281
     0
 71
     1
 74
     0
110
0.0
120
0.0
130
0.0
111
1.0
121
0.0
131
0.0
112
0.0
122
1.0
132
0.0
 79
     0
146
0.0
  0
ENDSEC
  0
SECTION
  2
OBJECTS
  0
DICTIONARY
  5
C
330
0
100
AcDbDictionary
281
     1
  3
ACAD_COLOR
350
29038
  3
ACAD_GROUP
350
D
  3
ACAD_LAYOUT
350
1A
  3
ACAD_MATERIAL
350
29037
  3
ACAD_MLINESTYLE
350
17
  3
ACAD_PLOTSETTINGS
350
19
  3
ACAD_PLOTSTYLENAME
350
7E80
  3
ACAD_TABLESTYLE
350
29039
  3
AcadDim
350
8E27
  3
ACDBHEADERROUNDTRIPXREC
350
29041
  3
AcDbVariableDictionary
350
7E86
1001
ACAD
1000
TREAT_AS_HARD
1070
     0
  0
DICTIONARY
  5
7BCB
330
1F
100
AcDbDictionary
280
     1
281
     1
  3
ACAD_LAYOUTSELFREF
360
7DA3
1001
ACAD
1000
TREAT_AS_HARD
1070
     1
  0
DICTIONARY
  5
7BCD
330
1B
100
AcDbDictionary
280
     1
281
     1
  3
ACAD_LAYOUTSELFREF
360
7DA2
1001
ACAD
1000
TREAT_AS_HARD
1070
     1
  0
DICTIONARY
  5
29042
330
2E
100
AcDbDictionary
280
     1
281
     1
  3
ACAD_XREC_ROUNDTRIP
360
29043
  0
DICTIONARY
  5
29038
102
{ACAD_REACTORS
330
C
102
}
330
C
100
AcDbDictionary
281
     1
  0
DICTIONARY
  5
D
102
{ACAD_REACTORS
330
C
102
}
330
C
100
AcDbDictionary
281
     1
1001
ACAD
1000
TREAT_AS_HARD
1070
     0
  0
DICTIONARY
  5
1A
102
{ACAD_REACTORS
330
C
102
}
330
C
100
AcDbDictionary
281
     1
  3
Model
350
7E82
  3
ﾚｲｱｳﾄ1
350
7E83
1001
ACAD
1000
TREAT_AS_HARD
1070
     0
  0
DICTIONARY
  5
29037
102
{ACAD_REACTORS
330
C
102
}
330
C
100
AcDbDictionary
281
     1
  0
DICTIONARY
  5
17
102
{ACAD_REACTORS
330
C
102
}
330
C
100
AcDbDictionary
281
     1
  3
STANDARD
350
18
1001
ACAD
1000
TREAT_AS_HARD
1070
     0
  0
DICTIONARY
  5
19
102
{ACAD_REACTORS
330
C
102
}
330
C
100
AcDbDictionary
281
     1
1001
ACAD
1000
TREAT_AS_HARD
1070
     0
  0
ACDBDICTIONARYWDFLT
  5
7E80
102
{ACAD_REACTORS
330
C
102
}
330
C
100
AcDbDictionary
281
     1
  3
Normal
350
7E81
100
AcDbDictionaryWithDefault
340
7E81
  0
DICTIONARY
  5
29039
102
{ACAD_REACTORS
330
C
102
}
330
C
100
AcDbDictionary
281
     1
  3
Standard
350
2903A
  0
XRECORD
  5
8E27
102
{ACAD_REACTORS
330
C
102
}
330
C
100
AcDbXrecord
280
     1
 90
   990106
  3

 60
     0
 61
     0
 62
     1
 63
     3
 64
     0
 65
     0
 66
     0
 67
     3
 68
     1
 69
     0
 70
     0
 71
     0
 72
     0
 40
0.0
170
     0
340
0
  0
DICTIONARY
  5
29041
102
{ACAD_REACTORS
330
C
102
}
330
C
100
AcDbDictionary
281
     1
  0
DICTIONARY
  5
7E86
102
{ACAD_REACTORS
330
C
102
}
330
C
100
AcDbDictionary
281
     1
  3
CTABLESTYLE
350
2903E
  3
DIMASSOC
350
7E87
  3
PROJECTNAME
350
2903F
  3
SORTENTS
350
B6AF
  0
XRECORD
  5
7DA3
102
{ACAD_REACTORS
330
7BCB
102
}
330
7BCB
100
AcDbXrecord
280
     1
340
1F
  0
XRECORD
  5
7DA2
102
{ACAD_REACTORS
330
7BCD
102
}
330
7BCD
100
AcDbXrecord
280
     1
340
1B
  0
XRECORD
  5
29043
102
{ACAD_REACTORS
330
29042
102
}
330
29042
100
AcDbXrecord
280
     1
102
SHADEPLOT
 70
     0
  0
LAYOUT
  5
7E82
102
{ACAD_XDICTIONARY
360
29044
102
}
102
{ACAD_REACTORS
330
1A
102
}
330
1A
100
AcDbPlotSettings
  1

  2
RICOH IPSiO NX730N RPCS
  4
A3
  6

 40
5.873749732971191
 41
5.873747825622558
 42
5.873748779296875
 43
5.873748779296875
 44
296.9259948730469
 45
419.9466552734374
 46
-5.91
 47
-6.15
 48
0.0
 49
0.0
140
16819.99993279995
141
11879.99995240002
142
1.0
143
40.0
 70
 11948
 72
     1
 73
     1
 74
     4
  7
canon国土交通省.ctb
 75
     0
147
0.025
148
0.0
149
0.0
100
AcDbLayout
  1
Model
 70
     1
 71
     0
 10
0.0
 20
0.0
 11
12.0
 21
9.0
 12
0.0
 22
0.0
 32
0.0
 14
0.0
 24
0.0
 34
0.0
 15
0.0
 25
0.0
 35
0.0
146
0.0
 13
0.0
 23
0.0
 33
0.0
 16
1.0
 26
0.0
 36
0.0
 17
0.0
 27
1.0
 37
0.0
 76
     0
330
1F
  0
LAYOUT
  5
7E83
102
{ACAD_XDICTIONARY
360
29046
102
}
102
{ACAD_REACTORS
330
1A
102
}
330
1A
100
AcDbPlotSettings
  1

  2
Canon LASER SHOT LBP-740
  4

  6

 40
0.0
 41
0.0
 42
0.0
 43
0.0
 44
0.0
 45
0.0
 46
0.0
 47
0.0
 48
0.0
 49
0.0
140
0.0
141
0.0
142
1.0
143
0.000000000000000E+99
 70
   688
 72
     0
 73
     1
 74
     1
  7
canon国土交通省.ctb
 75
     0
147
0.0
148
182.4834335403793
149
501.366229236586
100
AcDbLayout
  1
ﾚｲｱｳﾄ1
 70
     1
 71
     1
 10
-7.184387147259029
 20
-19.73882792270024
 11
-7.184387147259029
 21
-19.73882792270024
 12
0.0
 22
0.0
 32
0.0
 14
-7.18438714725903
 24
-19.73882792270024
 34
-0.0015258207003583
 15
833.8481947040165
 25
574.2966304217307
 35
0.0000000349246037
146
0.0
 13
0.0
 23
0.0
 33
0.0
 16
1.0
 26
0.0
 36
0.0
 17
0.0
 27
1.0
 37
0.0
 76
     0
330
1B
331
2E
  0
MLINESTYLE
  5
18
102
{ACAD_REACTORS
330
17
102
}
330
17
100
AcDbMlineStyle
  2
STANDARD
 70
     0
  3

 62
   256
 51
90.0
 52
90.0
 71
     2
 49
0.5
 62
   256
  6
BYLAYER
 49
-0.5
 62
   256
  6
BYLAYER
  0
ACDBPLACEHOLDER
  5
7E81
102
{ACAD_REACTORS
330
7E80
102
}
330
7E80
  0
TABLESTYLE
  5
2903A
102
{ACAD_REACTORS
330
29039
102
}
330
29039
100
AcDbTableStyle
  3
Standard
 70
     0
 71
     0
 40
0.06
 41
0.06
280
     0
281
     0
  7
STANDARD
140
0.18
170
     2
 62
     0
 63
     7
283
     0
274
    -2
284
     1
 64
     0
275
    -2
285
     1
 65
     0
276
    -2
286
     1
 66
     0
277
    -2
287
     1
 67
     0
278
    -2
288
     1
 68
     0
279
    -2
289
     1
 69
     0
  7
STANDARD
140
0.25
170
     5
 62
     0
 63
     7
283
     0
274
    -2
284
     1
 64
     0
275
    -2
285
     1
 65
     0
276
    -2
286
     1
 66
     0
277
    -2
287
     1
 67
     0
278
    -2
288
     1
 68
     0
279
    -2
289
     1
 69
     0
  7
STANDARD
140
0.18
170
     5
 62
     0
 63
     7
283
     0
274
    -2
284
     1
 64
     0
275
    -2
285
     1
 65
     0
276
    -2
286
     1
 66
     0
277
    -2
287
     1
 67
     0
278
    -2
288
     1
 68
     0
279
    -2
289
     1
 69
     0
  0
DICTIONARYVAR
  5
2903E
102
{ACAD_REACTORS
330
7E86
102
}
330
7E86
100
DictionaryVariables
280
     0
  1
STANDARD
  0
DICTIONARYVAR
  5
7E87
102
{ACAD_REACTORS
330
7E86
102
}
330
7E86
100
DictionaryVariables
280
     0
  1
1
  0
DICTIONARYVAR
  5
2903F
102
{ACAD_REACTORS
330
7E86
102
}
330
7E86
100
DictionaryVariables
280
     0
  1

  0
DICTIONARYVAR
  5
B6AF
102
{ACAD_REACTORS
330
7E86
102
}
330
7E86
100
DictionaryVariables
280
     0
  1
112
  0
DICTIONARY
  5
29044
330
7E82
100
AcDbDictionary
280
     1
281
     1
  3
ACAD_XREC_ROUNDTRIP
360
29045
  0
DICTIONARY
  5
29046
330
7E83
100
AcDbDictionary
280
     1
281
     1
  3
ACAD_XREC_ROUNDTRIP
360
29047
  0
XRECORD
  5
29045
102
{ACAD_REACTORS
330
29044
102
}
330
29044
100
AcDbXrecord
280
     1
102
SHADEPLOT
 70
     2
102
SHADEPLOTRESLEVEL
 70
     2
102
SHADEPLOTCUSTOMDPI
 70
   300
  0
XRECORD
  5
29047
102
{ACAD_REACTORS
330
29046
102
}
330
29046
100
AcDbXrecord
280
     1
102
SHADEPLOT
 70
     0
102
SHADEPLOTRESLEVEL
 70
     2
102
SHADEPLOTCUSTOMDPI
 70
   300
  0
ENDSEC
  0
EOF
