  0
SECTION
  2
HEADER
  9
$ACADVER
  1
AC1009
  9
$INSBASE
 10
0
 20
0
 30
0
  9
$EXTMIN
 10
0
 20
0
  9
$EXTMAX
 10
10395
 20
7350
  9
$LIMMIN
 10
0
 20
0
  9
$LIMMAX
 10
10395
 20
7350
  9
$LTSCALE
 40
35
  0
ENDSEC
  0
SECTION
  2
TABLES
  0
TABLE
  2
LTYPE
 70
     9
  0
LTYPE
  2
CONTINUOUS
 70
    64
  3
実線
 72
    65
 73
     0
 40
0.0
  0
LTYPE
  2
DASHED1
 70
    64
  3
--  --  --  --  --  --  --  --  
 72
    65
 73
     2
 40
2.5
 49
1.25
 49
-1.25
  0
LTYPE
  2
DASHED2
 70
    64
  3
----    ----    ----    ----    
 72
    65
 73
     2
 40
5.0
 49
2.5
 49
-2.5
  0
LTYPE
  2
DASHED3
 70
    64
  3
------  ------  ------  ------  
 72
    65
 73
     2
 40
5.0
 49
3.75
 49
-1.25
  0
LTYPE
  2
CENTER1
 70
    64
  3
----- - ----- - ----- - ----- - 
 72
    65
 73
     4
 40
10.0
 49
6.25
 49
-1.25
 49
1.25
 49
-1.25
  0
LTYPE
  2
CENTER2
 70
    64
  3
----------  --  ----------  --  
 72
    65
 73
     4
 40
20.0
 49
12.5
 49
-2.5
 49
2.5
 49
-2.5
  0
LTYPE
  2
PHANTOM1
 70
    64
  3
--- - - --- - - --- - - --- - - 
 72
    65
 73
     6
 40
10.0
 49
3.25
 49
-1.25
 49
1.25
 49
-1.25
 49
1.25
 49
-1.25
  0
LTYPE
  2
PHANTOM2
 70
    64
  3
--------  -  -  --------  -  -  
 72
    65
 73
     6
 40
20.0
 49
10.0
 49
-2.5
 49
1.25
 49
-2.5
 49
1.25
 49
-2.5
  0
LTYPE
  2
DOT
 70
    64
  3
-   -   -   -   -   -   -   -   
 72
    65
 73
     2
 40
2.5
 49
0.625
 49
-1.875
  0
LTYPE
  2
DUMMY
 70
    64
  3
ダミー
 72
    65
 73
     0
 40
0.0
  0
LTYPE
  2
RAND1
 70
    64
  3
ランダム線1
 72
    65
 73
     4
 40
10.0
 49
1.0
 49
-2.0
 49
3.0
 49
-4.0
  0
LTYPE
  2
RAND2
 70
    64
  3
ランダム線2
 72
    65
 73
     4
 40
14.0
 49
2.0
 49
-3.0
 49
4.0
 49
-5.0
  0
LTYPE
  2
RAND3
 70
    64
  3
ランダム線3
 72
    65
 73
     4
 40
18.0
 49
3.0
 49
-4.0
 49
5.0
 49
-6.0
  0
LTYPE
  2
RAND4
 70
    64
  3
ランダム線4
 72
    65
 73
     4
 40
22.0
 49
4.0
 49
-5.0
 49
6.0
 49
-7.0
  0
LTYPE
  2
RAND5
 70
    64
  3
ランダム線5
 72
    65
 73
     4
 40
26.0
 49
5.0
 49
-6.0
 49
7.0
 49
-8.0
  0
LTYPE
  2
LONG1
 70
    64
  3
----------  --  ----------  --  
 72
    65
 73
     4
 40
40.0
 49
32.5
 49
-2.5
 49
2.5
 49
-2.5
  0
LTYPE
  2
LONG2
 70
    64
  3
--------  -  -  --------  -  -  
 72
    65
 73
     6
 40
40.0
 49
30.0
 49
-2.5
 49
1.25
 49
-2.5
 49
1.25
 49
-2.5
  0
LTYPE
  2
LONG3
 70
    64
  3
+++++++++++++++..+++++++++++++++
 72
    65
 73
     2
 40
40.0
 49
37.5
 49
-2.5
  0
LTYPE
  2
LONG4
 70
    64
  3
+++++++++++++++..+++++++++++++++
 72
    65
 73
     2
 40
80.0
 49
75.0
 49
-5.0
  0
LTYPE
  2
LONG5
 70
    64
  3
----------  --  ----------  --  
 72
    65
 73
     4
 40
60.0
 49
37.5
 49
-7.5
 49
7.5
 49
-7.5
  0
LTYPE
  2
dashed
 70
   64
  3
-------   -------------   ------
 72
   65
 73
    2
 40
7.5
 49
6
 49
-1.5
  0
LTYPE
  2
dashed_spaced
 70
   64
  3
----        --------        ----
 72
   65
 73
    2
 40
12
 49
6
 49
-6
  0
LTYPE
  2
long_dashed_dotted
 70
   64
  3
------------- --- --------------
 72
   65
 73
    4
 40
15.25
 49
12
 49
-1.5
 49
0.25
 49
-1.5
  0
LTYPE
  2
long_dashed_double-dotted
 70
   64
  3
----------- --- --- ------------
 72
   65
 73
    6
 40
17
 49
12
 49
-1.5
 49
0.25
 49
-1.5
 49
0.25
 49
-1.5
  0
LTYPE
  2
long_dashed_triplicate-dotted
 70
   64
  3
--------- --- --- --- ----------
 72
   65
 73
    8
 40
18.75
 49
12
 49
-1.5
 49
0.25
 49
-1.5
 49
0.25
 49
-1.5
 49
0.25
 49
-1.5
  0
LTYPE
  2
dotted
 70
   64
  3
   -       -       -       -    
 72
   65
 73
    2
 40
1.75
 49
0.25
 49
-1.5
  0
LTYPE
  2
chain
 70
   64
  3
-------------- -- --------------
 72
   65
 73
    4
 40
18.5
 49
12
 49
-1.5
 49
3.5
 49
-1.5
  0
LTYPE
  2
chain_double_dash
 70
   64
  3
------------ -- -- -------------
 72
   65
 73
    6
 40
23.5
 49
12
 49
-1.5
 49
3.5
 49
-1.5
 49
3.5
 49
-1.5
  0
LTYPE
  2
dashed_dotted
 70
   64
  3
-----------     -     ----------
 72
   65
 73
    4
 40
9.25
 49
6
 49
-1.5
 49
0.25
 49
-1.5
  0
LTYPE
  2
double-dashed_dotted
 70
   64
  3
------   -----------   -   -----
 72
   65
 73
    6
 40
16.75
 49
6
 49
-1.5
 49
6
 49
-1.5
 49
0.25
 49
-1.5
  0
LTYPE
  2
dashed_double-dotted
 70
   64
  3
---------    -    -    ---------
 72
   65
 73
    6
 40
11
 49
6
 49
-1.5
 49
0.25
 49
-1.5
 49
0.25
 49
-1.5
  0
LTYPE
  2
double-dashed_double-dotted
 70
   64
  3
-----   ---------   -   -   ----
 72
   65
 73
    8
 40
18.5
 49
6
 49
-1.5
 49
6
 49
-1.5
 49
0.25
 49
-1.5
 49
0.25
 49
-1.5
  0
LTYPE
  2
dashed_triplicate-dotted
 70
   64
  3
-------    -    -    -    ------
 72
   65
 73
    8
 40
12.75
 49
6
 49
-1.5
 49
0.25
 49
-1.5
 49
0.25
 49
-1.5
 49
0.25
 49
-1.5
  0
LTYPE
  2
double-dashed_triplicate-dotted
 70
   64
  3
-----  ---------  -  -  -  -----
 72
   65
 73
   10
 40
20.25
 49
6
 49
-1.5
 49
6
 49
-1.5
 49
0.25
 49
-1.5
 49
0.25
 49
-1.5
 49
0.25
 49
-1.5
  0
LTYPE
  2
undefined
 70
   64
  3
--------------------------------
 72
   65
 73
    0
 40
0
  0
LTYPE
  2
_
 70
   64
  3
                                
 72
   65
 73
    0
 40
0
  0
LTYPE
  2
__18
 70
   64
  3
                                
 72
   65
 73
    0
 40
0
  0
LTYPE
  2
__19
 70
   64
  3
                                
 72
   65
 73
    0
 40
0
  0
LTYPE
  2
__20
 70
   64
  3
                                
 72
   65
 73
    0
 40
0
  0
LTYPE
  2
__21
 70
   64
  3
                                
 72
   65
 73
    0
 40
0
  0
LTYPE
  2
__22
 70
   64
  3
                                
 72
   65
 73
    0
 40
0
  0
LTYPE
  2
__23
 70
   64
  3
                                
 72
   65
 73
    0
 40
0
  0
LTYPE
  2
__24
 70
   64
  3
                                
 72
   65
 73
    0
 40
0
  0
LTYPE
  2
__25
 70
   64
  3
                                
 72
   65
 73
    0
 40
0
  0
LTYPE
  2
__26
 70
   64
  3
                                
 72
   65
 73
    0
 40
0
  0
LTYPE
  2
__27
 70
   64
  3
                                
 72
   65
 73
    0
 40
0
  0
LTYPE
  2
__28
 70
   64
  3
                                
 72
   65
 73
    0
 40
0
  0
LTYPE
  2
__29
 70
   64
  3
                                
 72
   65
 73
    0
 40
0
  0
LTYPE
  2
__30
 70
   64
  3
                                
 72
   65
 73
    0
 40
0
  0
LTYPE
  2
__31
 70
   64
  3
                                
 72
   65
 73
    0
 40
0
  0
LTYPE
  2
__32
 70
   64
  3
                                
 72
   65
 73
    0
 40
0
  0
ENDTAB
  0
TABLE
  2
STYLE
  5
3
100
AcDbSymbolTable
 70
     1
  0
STYLE
  5
10
100
AcDbSymbolTableRecord
100
AcDbTextStyleTableRecord
  2
STANDARD
 70
     0
 40
0.0
 41
1.0
 50
0.0
 71
     0
 42
0.2
  3
txt
  4
bigfont.shx
  0
STYLE
  5
26
100
AcDbSymbolTableRecord
100
AcDbTextStyleTableRecord
  2
TATEGAKI
 70
    68
 40
0.0
 41
1.0
 50
0.0
 71
     0
 42
1.0
  3
txt
  4
bigfont.shx
  0
ENDTAB
  0
TABLE
  2
LAYER
 70
    2
  0
LAYER
  2
_0-0_
 70
   64
 62
    7
  6
CONTINUOUS
  0
LAYER
  2
ADD_LINE
 70
   64
 62
    7
  6
CONTINUOUS
  0
ENDTAB
  0
ENDSEC
  0
SECTION
  2
BLOCKS
  0
ENDSEC
  0
SECTION
  2
ENTITIES
  0
LINE
  8
_0-0_
  6
CONTINUOUS
 62
    2
 10
4811.730224609374
 20
5203.4810791015625
 11
4942.3967285156259
 21
5203.4810791015625
  0
LINE
  8
_0-0_
  6
CONTINUOUS
 62
  136
 10
10002.5
 20
6925
 11
392.50000000000028
 21
6925
  0
LINE
  8
_0-0_
  6
CONTINUOUS
 62
  136
 10
392.50000000000028
 20
6925
 11
392.50000000000028
 21
255.00000000000022
  0
LINE
  8
_0-0_
  6
CONTINUOUS
 62
  136
 10
392.50000000000028
 20
255.00000000000022
 11
10002.5
 21
255.00000000000022
  0
LINE
  8
_0-0_
  6
CONTINUOUS
 62
  136
 10
10002.5
 20
255.00000000000022
 11
10002.5
 21
6925
  0
TEXT
  8
_0-0_
 62
    7
 10
7854.6360759493663
 20
2230.4367088607596
 40
98
 41
1
 50
0
  1
試験項目
  0
TEXT
  8
_0-0_
 62
    7
 10
8504.6360759493672
 20
2230.4367088607596
 40
98
 41
1
 50
0
  1
規格値・
  0
TEXT
  8
_0-0_
 62
    7
 10
7854.6360759493663
 20
3149.0443037974687
 40
98
 41
1
 50
0
  1
試験項目
  0
TEXT
  8
_0-0_
 62
    7
 10
9206.8860759493672
 20
2991.7943037974682
 40
87.5
 41
1
 50
0
  1
JIS K 6767
  0
TEXT
  8
_0-0_
 62
    7
 10
9206.8860759493672
 20
2691.7943037974687
 40
87.5
 41
1
 50
0
  1
JIS K 6767
  0
TEXT
  8
_0-0_
 62
    7
 10
9206.8860759493672
 20
2841.7943037974682
 40
87.5
 41
1
 50
0
  1
JIS K 6767
  0
TEXT
  8
_0-0_
 62
    7
 10
7875.6360759493672
 20
2991.7943037974682
 40
87.5
 41
1
 50
0
  1
引張強さ
  0
TEXT
  8
_0-0_
 62
    7
 10
7919.3860759493672
 20
2841.7943037974682
 40
87.5
 41
1
 50
0
  1
伸び率
  0
TEXT
  8
_0-0_
 62
    7
 10
7985.6360759493682
 20
2691.7943037974687
 40
87.5
 41
0.8
 50
0
  1
圧縮硬さ
  0
TEXT
  8
_0-0_
 62
    7
 10
7835.6360759493663
 20
2691.7943037974687
 40
87.5
 41
1
 50
0
  1
50%
  0
TEXT
  8
_0-0_
 62
    7
 10
8344.3860759493672
 20
2991.7943037974682
 40
87.5
 41
1
 50
0
  1
kgf/cm
  0
TEXT
  8
_0-0_
 62
    7
 10
8344.3860759493672
 20
2691.7943037974687
 40
87.5
 41
1
 50
0
  1
kgf/cm
  0
TEXT
  8
_0-0_
 62
    7
 10
8431.8860759493672
 20
2841.7943037974682
 40
87.5
 41
1
 50
0
  1
％
  0
TEXT
  8
_0-0_
 62
    7
 10
8744.3860759493672
 20
2691.7943037974687
 40
87.5
 41
1
 50
0
  1
0.5
  0
TEXT
  8
_0-0_
 62
    7
 10
8744.3860759493672
 20
2841.7943037974682
 40
87.5
 41
1
 50
0
  1
100
  0
TEXT
  8
_0-0_
 62
    7
 10
8744.3860759493672
 20
2991.7943037974682
 40
87.5
 41
1
 50
0
  1
0.5
  0
TEXT
  8
_0-0_
 62
    7
 10
8895.6360759493672
 20
2691.7943037974687
 40
87.5
 41
0.8
 50
0
  1
以下
  0
TEXT
  8
_0-0_
 62
    7
 10
8895.6360759493672
 20
2841.7943037974682
 40
87.5
 41
0.8
 50
0
  1
以上
  0
TEXT
  8
_0-0_
 62
    7
 10
8895.6360759493672
 20
2991.7943037974682
 40
87.5
 41
0.8
 50
0
  1
以上
  0
TEXT
  8
_0-0_
 62
    7
 10
7842.7616033755284
 20
3316.0189873417721
 40
105
 41
1
 50
0
  1
一般物性
  0
LINE
  8
_0-0_
  6
CONTINUOUS
 62
    3
 10
7800.6360759493663
 20
3285.5443037974682
 11
9750.6360759493672
 21
3285.5443037974682
  0
LINE
  8
_0-0_
  6
CONTINUOUS
 62
    3
 10
8300.6360759493672
 20
2660.5443037974687
 11
8300.6360759493672
 21
3285.5443037974682
  0
LINE
  8
_0-0_
  6
CONTINUOUS
 62
    3
 10
7800.6360759493663
 20
3110.5443037974682
 11
9750.6360759493672
 21
3110.5443037974682
  0
LINE
  8
_0-0_
  6
CONTINUOUS
 62
    3
 10
7800.6360759493663
 20
2960.5443037974682
 11
9750.6360759493672
 21
2960.5443037974682
  0
LINE
  8
_0-0_
  6
CONTINUOUS
 62
    3
 10
7800.6360759493663
 20
2810.5443037974682
 11
9750.6360759493672
 21
2810.5443037974682
  0
LINE
  8
_0-0_
  6
CONTINUOUS
 62
    3
 10
7800.6360759493663
 20
2660.5443037974687
 11
9750.6360759493672
 21
2660.5443037974687
  0
LINE
  8
_0-0_
  6
CONTINUOUS
 62
    3
 10
7800.6360759493663
 20
2660.5443037974687
 11
7800.6360759493663
 21
3285.5443037974682
  0
LINE
  8
_0-0_
  6
CONTINUOUS
 62
    3
 10
8660.6360759493672
 20
2660.5443037974687
 11
8660.6360759493672
 21
3285.5443037974682
  0
LINE
  8
_0-0_
  6
CONTINUOUS
 62
    3
 10
9100.6360759493672
 20
2660.5443037974687
 11
9100.6360759493672
 21
3285.5443037974682
  0
LINE
  8
_0-0_
  6
CONTINUOUS
 62
    3
 10
9750.6360759493672
 20
2660.5443037974687
 11
9750.6360759493672
 21
3285.5443037974682
  0
LINE
  8
_0-0_
  6
CONTINUOUS
 62
    3
 10
7800.6360759493663
 20
2191.9367088607591
 11
9750.6360759493672
 21
2191.9367088607591
  0
LINE
  8
_0-0_
  6
CONTINUOUS
 62
    3
 10
7800.6360759493663
 20
2366.9367088607596
 11
9750.6360759493672
 21
2366.9367088607596
  0
TEXT
  8
_0-0_
 62
    7
 10
9131.6360759493672
 20
1953.1867088607591
 40
87.5
 41
1.1199999999999998
 50
0
  1
ｻﾝｼｬｲﾝｶｰﾎﾞﾝ･
  0
TEXT
  8
_0-0_
 62
    7
 10
9543.6360759493527
 20
2069.8533755274261
 40
87.5
 41
0.7199999999999999
 50
0
  1
による
  0
TEXT
  8
_0-0_
 62
    7
 10
9130.8860759493582
 20
2069.8533755274261
 40
87.5
 41
0.9199999999999999
 50
0
  1
JIS K 6266
  0
TEXT
  8
_0-0_
 62
    7
 10
7919.3860759493672
 20
2069.8533755274261
 40
87.5
 41
1
 50
0
  1
耐候性
  0
TEXT
  8
_0-0_
 62
    7
 10
8338.3860759493672
 20
1953.1867088607591
 40
87.5
 41
0.7199999999999999
 50
0
  1
亀裂､削れ等異常なきこと
  0
TEXT
  8
_0-0_
 62
    7
 10
9316.2610759493672
 20
1831.5200421940926
 40
87.5
 41
1
 50
0
  1
1000H
  0
LINE
  8
_0-0_
  6
CONTINUOUS
 62
    3
 10
7800.6360759493663
 20
1801.9367088607593
 11
9750.6360759493672
 21
1801.9367088607593
  0
TEXT
  8
_0-0_
 62
    7
 10
7831.8860759493672
 20
1679.8533755274256
 40
87.5
 41
1
 50
0
  1
耐ｱｽﾌｧﾙﾄ性
  0
TEXT
  8
_0-0_
 62
    7
 10
8338.3860759493672
 20
1563.1867088607591
 40
87.5
 41
0.7199999999999999
 50
0
  1
亀裂､破れ､溶け等　　　 
  0
TEXT
  8
_0-0_
 62
    7
 10
8354.1360759493672
 20
1441.5200421940928
 40
87.5
 41
0.7199999999999999
 50
0
  1
　　　　　異常なきこと
  0
TEXT
  8
_0-0_
 62
    7
 10
9141.2610759493672
 20
1679.8533755274256
 40
87.5
 41
1
 50
0
  1
185℃熱板で　
  0
TEXT
  8
_0-0_
 62
    7
 10
9163.1360759493672
 20
1563.1867088607591
 40
87.5
 41
1
 50
0
  1
   1分間放置
  0
LINE
  8
_0-0_
  6
CONTINUOUS
 62
    3
 10
7800.6360759493663
 20
2366.9367088607596
 11
7800.6360759493663
 21
1411.9367088607591
  0
LINE
  8
_0-0_
  6
CONTINUOUS
 62
    3
 10
8300.6360759493672
 20
2366.9367088607596
 11
8300.6360759493672
 21
1411.9367088607591
  0
LINE
  8
_0-0_
  6
CONTINUOUS
 62
    3
 10
9100.6360759493672
 20
2366.9367088607596
 11
9100.6360759493672
 21
1411.9367088607591
  0
LINE
  8
_0-0_
  6
CONTINUOUS
 62
    3
 10
9750.6360759493672
 20
2366.9367088607596
 11
9750.6360759493672
 21
1411.9367088607591
  0
LINE
  8
_0-0_
  6
CONTINUOUS
 62
    3
 10
7800.6360759493663
 20
1411.9367088607591
 11
9750.6360759493672
 21
1411.9367088607591
  0
TEXT
  8
_0-0_
 62
    7
 10
7842.7616033755284
 20
2397.4113924050634
 40
105
 41
1
 50
0
  1
製品性能試験
  0
TEXT
  8
_0-0_
 62
    7
 10
8610.77345051068
 20
2741.8280310521431
 40
35
 41
1.1999999999999999
 50
0
  1
2
  0
TEXT
  8
_0-0_
 62
    7
 10
8610.77345051068
 20
3041.8280310521431
 40
35
 41
1.1999999999999999
 50
0
  1
2
  0
TEXT
  8
_0-0_
 62
    7
 10
9219.1360759493672
 20
3149.0443037974687
 40
98
 41
1
 50
0
  1
試験方法
  0
TEXT
  8
_0-0_
 62
    7
 10
8377.6360759493672
 20
3149.0443037974682
 40
98
 41
1
 50
0
  1
単位
  0
TEXT
  8
_0-0_
 62
    7
 10
8733.6360759493672
 20
3149.0443037974682
 40
98
 41
1
 50
0
  1
規格値
  0
TEXT
  8
_0-0_
 62
    7
 10
9219.1360759493672
 20
2230.4367088607596
 40
98
 41
1
 50
0
  1
試験方法
  0
TEXT
  8
_0-0_
 62
    7
 10
8509.8860759493672
 20
1679.8533755274256
 40
87.5
 41
1
 50
0
  1
外観表面
  0
TEXT
  8
_0-0_
 62
    7
 10
8509.8860759493672
 20
2069.8533755274261
 40
87.5
 41
1
 50
0
  1
外観表面
  0
LINE
  8
_0-0_
  6
CONTINUOUS
 62
    4
 10
3608.2525377358497
 20
2260.7920597484276
 11
3658.9636436160249
 21
2247.2040598805451
  0
LINE
  8
_0-0_
  6
CONTINUOUS
 62
    2
 10
3558.253537735849
 20
3270.7920597484271
 11
3558.253537735849
 21
2770.8920597484275
  0
LINE
  8
_0-0_
  6
CONTINUOUS
 62
    4
 10
4330.753537735849
 20
3270.7920597484271
 11
4317.165537867967
 21
3220.0809538682506
  0
LINE
  8
_0-0_
  6
CONTINUOUS
 62
    4
 10
4330.753537735849
 20
3270.7920597484271
 11
4344.341537603731
 21
3220.0809538682506
  0
LINE
  8
_0-0_
  6
CONTINUOUS
 62
    4
 10
4080.753537735849
 20
3270.7920597484271
 11
4365.753537735849
 21
3270.7920597484271
  0
LINE
  8
_0-0_
  6
CONTINUOUS
 62
    4
 10
3602.003537735849
 20
3270.7920597484271
 11
3588.4155378679665
 21
3321.5031656286032
  0
LINE
  8
_0-0_
  6
CONTINUOUS
 62
    4
 10
3602.003537735849
 20
3270.7920597484271
 11
3615.5915376037314
 21
3321.5031656286032
  0
LINE
  8
_0-0_
  6
CONTINUOUS
 62
    4
 10
4330.753537735849
 20
3270.7920597484271
 11
4330.753537735849
 21
2770.8920597484275
  0
LINE
  8
_0-0_
  6
CONTINUOUS
 62
    2
 10
3608.2525377358497
 20
2770.8920597484275
 11
3558.253537735849
 21
2770.8920597484275
  0
LINE
  8
_0-0_
  6
CONTINUOUS
 62
    2
 10
3608.2525377358497
 20
3270.7920597484271
 11
3608.2525377358497
 21
2770.8920597484275
  0
LINE
  8
_0-0_
  6
CONTINUOUS
 62
    4
 10
4330.753537735849
 20
2770.8920597484275
 11
4317.165537867967
 21
2821.6031656286031
  0
LINE
  8
_0-0_
  6
CONTINUOUS
 62
    4
 10
4330.753537735849
 20
2770.8920597484275
 11
4344.341537603731
 21
2821.6031656286031
  0
LINE
  8
_0-0_
  6
CONTINUOUS
 62
    2
 10
3558.253537735849
 20
3270.7920597484271
 11
3602.003537735849
 21
3270.7920597484271
  0
LINE
  8
_0-0_
  6
CONTINUOUS
 62
    2
 10
3558.253537735849
 20
3249.9628930817607
 11
3608.2525377358497
 21
3208.3045597484269
  0
LINE
  8
_0-0_
  6
CONTINUOUS
 62
    2
 10
3608.2525377358497
 20
3208.3045597484269
 11
3558.253537735849
 21
3166.6462264150941
  0
LINE
  8
_0-0_
  6
CONTINUOUS
 62
    2
 10
3558.253537735849
 20
3166.6462264150941
 11
3608.2525377358497
 21
3124.9878930817603
  0
LINE
  8
_0-0_
  6
CONTINUOUS
 62
    2
 10
3608.2525377358497
 20
3124.9878930817603
 11
3558.253537735849
 21
3083.329559748427
  0
LINE
  8
_0-0_
  6
CONTINUOUS
 62
    2
 10
3558.253537735849
 20
3083.329559748427
 11
3608.2525377358497
 21
3041.6712264150937
  0
LINE
  8
_0-0_
  6
CONTINUOUS
 62
    2
 10
3608.2525377358497
 20
3041.6712264150937
 11
3558.253537735849
 21
3000.0128930817609
  0
LINE
  8
_0-0_
  6
CONTINUOUS
 62
    2
 10
3558.253537735849
 20
3000.0128930817609
 11
3608.2525377358497
 21
2958.3545597484271
  0
LINE
  8
_0-0_
  6
CONTINUOUS
 62
    2
 10
3608.2525377358497
 20
2958.3545597484271
 11
3558.253537735849
 21
2916.6962264150938
  0
LINE
  8
_0-0_
  6
CONTINUOUS
 62
    2
 10
3558.253537735849
 20
2916.6962264150938
 11
3608.2525377358497
 21
2875.0378930817605
  0
LINE
  8
_0-0_
  6
CONTINUOUS
 62
    2
 10
3608.2525377358497
 20
2875.0378930817605
 11
3558.253537735849
 21
2833.3795597484277
  0
LINE
  8
_0-0_
  6
CONTINUOUS
 62
    2
 10
3558.253537735849
 20
2833.3795597484277
 11
3608.2525377358497
 21
2791.7212264150934
  0
LINE
  8
_0-0_
  6
CONTINUOUS
 62
    2
 10
3583.2530377358493
 20
3270.7920597484271
 11
3558.253537735849
 21
3249.9628930817607
  0
LINE
  8
_0-0_
  6
CONTINUOUS
 62
    2
 10
3608.2525377358497
 20
2791.7212264150934
 11
3583.2530377358493
 21
2770.8920597484275
  0
LINE
  8
_0-0_
  6
CONTINUOUS
 62
    2
 10
3558.253537735849
 20
2770.8920597484275
 11
3558.253537735849
 21
2570.892059748427
  0
TEXT
  8
_0-0_
 62
    7
 10
4324.2416414501012
 20
2976.4061721253115
 40
105
 41
0.8333333333333333
 50
90
  1
50
  0
LINE
  8
_0-0_
  6
CONTINUOUS
 62
    4
 10
3608.2525377358497
 20
2735.8920597484275
 11
3608.2525377358497
 21
2555.8920597484275
  0
TEXT
  8
_0-0_
 62
    7
 10
3270.3122209490334
 20
3564.4639722869569
 40
105
 41
0.6666666666666666
 50
0
  1
シール材
  0
TEXT
  8
_0-0_
 62
    7
 10
3277.2415782232701
 20
3435.3121626048218
 40
105
 41
0.8333333333333333
 50
0
  1
(t=17)
  0
LINE
  8
_0-0_
  6
CONTINUOUS
 62
    4
 10
3602.003537735849
 20
3270.7920597484271
 11
3602.003537735849
 21
3555.7920597484271
  0
LINE
  8
_0-0_
  6
CENTER1
 62
    4
 10
3158.253537735849
 20
3320.7920597484271
 11
3158.253537735849
 21
2520.892059748427
  0
LINE
  8
_0-0_
  6
CONTINUOUS
 62
    2
 10
3158.253537735849
 20
3270.7920597484271
 11
4045.7535377358485
 21
3270.7920597484271
  0
LINE
  8
_0-0_
  6
CONTINUOUS
 62
    4
 10
3643.2525377358497
 20
2770.8920597484275
 11
4365.753537735849
 21
2770.8920597484275
  0
LINE
  8
_0-0_
  6
CONTINUOUS
 62
    3
 10
5574.9297327129552
 20
3953.7748151288587
 11
6359.8831603688058
 21
3953.7748151288587
  0
TEXT
  8
_0-0_
 62
    7
 10
5618.258221403963
 20
3951.2748151288587
 40
112
 41
1
 50
0
  1
連結部詳細図
  0
LINE
  8
_0-0_
  6
CONTINUOUS
 62
    3
 10
3209.5268239079232
 20
3953.7748151288587
 11
3994.4802515637748
 21
3953.7748151288587
  0
TEXT
  8
_0-0_
 62
    7
 10
3252.8553125989315
 20
3951.2748151288587
 40
112
 41
1
 50
0
  1
接合部詳細図
  0
LINE
  8
_0-0_
  6
CONTINUOUS
 62
    4
 10
3558.2535377358499
 20
2260.7920597484276
 11
3507.5424781655378
 21
2274.380057184951
  0
LINE
  8
_0-0_
  6
CONTINUOUS
 62
    4
 10
3558.2535377358499
 20
2260.7920597484276
 11
3507.5424781655378
 21
2247.2040623119041
  0
TEXT
  8
_0-0_
 62
    7
 10
3446.6513648842878
 20
2264.8317478587787
 40
105
 41
0.8333333333333333
 50
0
  1
5
  0
LINE
  8
_0-0_
  6
CONTINUOUS
 62
    4
 10
3428.2535377358499
 20
2260.7920597484276
 11
3558.2535377358499
 21
2260.7920597484276
  0
LINE
  8
_0-0_
  6
CONTINUOUS
 62
    4
 10
3608.2525377358497
 20
2260.7920597484276
 11
3658.9636436160249
 21
2274.38005961631
  0
LINE
  8
_0-0_
  6
CONTINUOUS
 62
    4
 10
3608.2525377358497
 20
2260.7920597484276
 11
3699.2525377358492
 21
2260.7920597484276
  0
LINE
  8
_0-0_
  6
CONTINUOUS
 62
    4
 10
3558.253537735849
 20
2535.892059748427
 11
3558.253537735849
 21
2225.7920597484276
  0
LINE
  8
_0-0_
  6
CONTINUOUS
 62
    4
 10
3608.2525377358497
 20
2555.8920597484275
 11
3608.2525377358497
 21
2225.7920597484276
  0
LINE
  8
_0-0_
  6
CONTINUOUS
 62
    2
 10
6211.906446540881
 20
1506.75692997917
 11
6211.906446540881
 21
1606.75692997917
  0
LINE
  8
_0-0_
  6
CONTINUOUS
 62
    6
 10
6142.40644654088
 20
1624.5069299791705
 11
6247.40644654088
 21
1624.5069299791705
  0
LINE
  8
_0-0_
  6
CONTINUOUS
 62
    6
 10
6142.40644654088
 20
1623.50692997917
 11
6247.40644654088
 21
1623.50692997917
  0
LINE
  8
_0-0_
  6
CONTINUOUS
 62
    6
 10
6247.40644654088
 20
1625.5069299791709
 11
6142.40644654088
 21
1625.5069299791709
  0
LINE
  8
_0-0_
  6
CONTINUOUS
 62
    2
 10
6177.90644654088
 20
1506.75692997917
 11
6177.90644654088
 21
1606.75692997917
  0
LINE
  8
_0-0_
  6
CONTINUOUS
 62
    2
 10
6177.90644654088
 20
1506.75692997917
 11
6211.906446540881
 21
1506.75692997917
  0
LINE
  8
_0-0_
  6
CONTINUOUS
 62
    2
 10
6177.90644654088
 20
1525.6243508523618
 11
6178.1224503472476
 21
1525.6609692308647
  0
LINE
  8
_0-0_
  6
CONTINUOUS
 62
    2
 10
5686.906446540881
 20
1506.75692997917
 11
5686.906446540881
 21
1606.75692997917
  0
LINE
  8
_0-0_
  6
CONTINUOUS
 62
    2
 10
5652.906446540881
 20
1506.75692997917
 11
5652.906446540881
 21
1606.75692997917
  0
LINE
  8
_0-0_
  6
CONTINUOUS
 62
    2
 10
5652.906446540881
 20
1506.75692997917
 11
5686.906446540881
 21
1506.75692997917
  0
LINE
  8
_0-0_
  6
CONTINUOUS
 62
    6
 10
5617.40644654088
 20
1624.5069299791705
 11
5722.40644654088
 21
1624.5069299791705
  0
LINE
  8
_0-0_
  6
CONTINUOUS
 62
    6
 10
5617.40644654088
 20
1623.50692997917
 11
5722.40644654088
 21
1623.50692997917
  0
LINE
  8
_0-0_
  6
CONTINUOUS
 62
    6
 10
5722.40644654088
 20
1625.5069299791709
 11
5617.40644654088
 21
1625.5069299791709
  0
LINE
  8
_0-0_
  6
CONTINUOUS
 62
    2
 10
5652.906446540881
 20
1523.8082960978949
 11
5686.906446540881
 21
1523.8082960978949
  0
LINE
  8
_0-0_
  6
CONTINUOUS
 62
    2
 10
5652.906446540881
 20
1525.6243508523618
 11
5653.1224503472476
 21
1525.6609692308647
  0
LINE
  8
_0-0_
  6
CENTER1
 62
    4
 10
5244.906446540881
 20
1406.7569299791703
 11
6619.906446540881
 21
1406.7569299791703
  0
LINE
  8
_0-0_
  6
CENTER1
 62
    4
 10
5294.906446540881
 20
1656.7569299791703
 11
5294.906446540881
 21
1356.7569299791703
  0
LINE
  8
_0-0_
  6
CENTER1
 62
    4
 10
6569.906446540881
 20
1656.7569299791703
 11
6569.906446540881
 21
1356.7569299791703
  0
LINE
  8
_0-0_
  6
CONTINUOUS
 62
    2
 10
5932.40644654088
 20
1406.7569299791703
 11
5932.40644654088
 21
1622.5069299791703
  0
LINE
  8
_0-0_
  6
CONTINUOUS
 62
    6
 10
5722.40644654088
 20
1626.5069299791712
 11
5617.40644654088
 21
1626.5069299791712
  0
LINE
  8
_0-0_
  6
CONTINUOUS
 62
    6
 10
6247.40644654088
 20
1626.5069299791712
 11
6142.40644654088
 21
1626.5069299791712
  0
LINE
  8
_0-0_
  6
CONTINUOUS
 62
    4
 10
6419.4738351997066
 20
1126.087714256449
 11
6199.6943610299904
 21
1506.75692997917
  0
LINE
  8
_0-0_
  6
CONTINUOUS
 62
    4
 10
6199.6943610299904
 20
1506.75692997917
 11
6236.817467042284
 21
1469.6338239668764
  0
LINE
  8
_0-0_
  6
CONTINUOUS
 62
    4
 10
6199.6943610299904
 20
1506.75692997917
 11
6213.2823608978724
 21
1456.0458240989939
  0
ARC
  8
_0-0_
  6
CONTINUOUS
 62
    2
 10
6169.656446540881
 20
1646.5069299791712
 40
8
 50
90
 51
180
  0
LINE
  8
_0-0_
  6
CONTINUOUS
 62
    2
 10
6220.156446540881
 20
1654.5069299791712
 11
6169.656446540881
 21
1654.5069299791712
  0
ARC
  8
_0-0_
  6
CONTINUOUS
 62
    2
 10
6220.156446540881
 20
1646.5069299791712
 40
8
 50
0
 51
90.000000000000014
  0
ARC
  8
_0-0_
  6
CONTINUOUS
 62
    2
 10
6194.8887902586538
 20
1616.4403671945738
 40
38.066566879323474
 50
60.095391358200487
 51
119.9115064859975
  0
ARC
  8
_0-0_
  6
CONTINUOUS
 62
    2
 10
6221.9313203852334
 20
1645.593441702824
 40
8.8985406554410761
 50
95.420563904963273
 51
154.50708730578242
  0
ARC
  8
_0-0_
  6
CONTINUOUS
 62
    2
 10
6169.1409898528354
 20
1647.4672045259524
 40
7.0461971242491765
 50
16.4938955136471
 51
87.212432526694499
  0
ARC
  8
_0-0_
  6
CONTINUOUS
 62
    2
 10
5644.656446540881
 20
1646.5069299791712
 40
8
 50
90
 51
180
  0
LINE
  8
_0-0_
  6
CONTINUOUS
 62
    2
 10
5695.156446540881
 20
1654.5069299791712
 11
5644.656446540881
 21
1654.5069299791712
  0
ARC
  8
_0-0_
  6
CONTINUOUS
 62
    2
 10
5695.156446540881
 20
1646.5069299791712
 40
8
 50
0
 51
90.000000000000014
  0
ARC
  8
_0-0_
  6
CONTINUOUS
 62
    2
 10
5669.8887902586557
 20
1616.4403671945738
 40
38.066566879323474
 50
60.095391358200487
 51
119.9115064859975
  0
ARC
  8
_0-0_
  6
CONTINUOUS
 62
    2
 10
5696.9313203852334
 20
1645.593441702824
 40
8.8985406554410761
 50
95.420563904963273
 51
154.50708730578242
  0
ARC
  8
_0-0_
  6
CONTINUOUS
 62
    2
 10
5644.1409898528354
 20
1647.4672045259524
 40
7.0461971242491765
 50
16.4938955136471
 51
87.212432526694499
  0
LINE
  8
_0-0_
  6
CONTINUOUS
 62
    6
 10
6247.40644654088
 20
1627.5069299791716
 11
6142.40644654088
 21
1627.5069299791716
  0
LINE
  8
_0-0_
  6
CONTINUOUS
 62
    6
 10
5722.40644654088
 20
1627.5069299791716
 11
5617.40644654088
 21
1627.5069299791716
  0
LINE
  8
_0-0_
  6
CONTINUOUS
 62
    4
 10
6339.8069339030398
 20
1904.8481459031295
 11
6222.852657846307
 21
1654.03889151628
  0
LINE
  8
_0-0_
  6
CONTINUOUS
 62
    4
 10
6222.852657846307
 20
1654.03889151628
 11
6231.9691871738214
 21
1705.7412985494211
  0
LINE
  8
_0-0_
  6
CONTINUOUS
 62
    4
 10
6222.852657846307
 20
1654.03889151628
 11
6256.59900735485
 21
1694.2562247800262
  0
LINE
  8
_0-0_
  6
CONTINUOUS
 62
    3
 10
6177.90644654088
 20
1523.8082960978949
 11
6211.906446540881
 21
1523.8082960978949
  0
LINE
  8
_0-0_
  6
CONTINUOUS
 62
    3
 10
6177.90644654088
 20
1523.8082960978949
 11
6211.906446540881
 21
1523.8082960978949
  0
LINE
  8
_0-0_
  6
CONTINUOUS
 62
    3
 10
6177.9553085566622
 20
1526.6469020996951
 11
6211.7393047502946
 21
1532.3741861729265
  0
LINE
  8
_0-0_
  6
CONTINUOUS
 62
    3
 10
6177.7741689877439
 20
1536.7718051359156
 11
6211.7741689877448
 21
1541.3091125500777
  0
LINE
  8
_0-0_
  6
CONTINUOUS
 62
    3
 10
6177.7724521084583
 20
1546.9135898669126
 11
6212.1380766232205
 21
1551.5602958195795
  0
LINE
  8
_0-0_
  6
CONTINUOUS
 62
    3
 10
6177.7701544713227
 20
1557.0550668366383
 11
6211.9879149102889
 21
1561.7626036641668
  0
LINE
  8
_0-0_
  6
CONTINUOUS
 62
    3
 10
6178.1365399775704
 20
1567.24810382814
 11
6211.7605820573953
 21
1572.2056807247674
  0
LINE
  8
_0-0_
  6
CONTINUOUS
 62
    3
 10
6178.2824044610561
 20
1576.4014776351993
 11
6211.906446540881
 21
1580.5407115010352
  0
LINE
  8
_0-0_
  6
CONTINUOUS
 62
    3
 10
6178.1755537971866
 20
1587.538431102949
 11
6211.7995958770125
 21
1591.15186896212
  0
LINE
  8
_0-0_
  6
CONTINUOUS
 62
    3
 10
5652.906446540881
 20
1523.8082960978949
 11
5686.906446540881
 21
1523.8082960978949
  0
LINE
  8
_0-0_
  6
CONTINUOUS
 62
    3
 10
5652.9553085566622
 20
1526.6469020996951
 11
5686.7393047502955
 21
1532.3741861729265
  0
LINE
  8
_0-0_
  6
CONTINUOUS
 62
    3
 10
5652.7741689877439
 20
1536.7718051359156
 11
5686.7741689877448
 21
1541.3091125500777
  0
LINE
  8
_0-0_
  6
CONTINUOUS
 62
    3
 10
5652.7724521084583
 20
1546.9135898669126
 11
5687.1380766232205
 21
1551.5602958195795
  0
LINE
  8
_0-0_
  6
CONTINUOUS
 62
    3
 10
5652.7701544713227
 20
1557.0550668366383
 11
5686.9879149102889
 21
1561.7626036641668
  0
LINE
  8
_0-0_
  6
CONTINUOUS
 62
    3
 10
5653.1365399775704
 20
1567.24810382814
 11
5686.7605820573953
 21
1572.2056807247674
  0
LINE
  8
_0-0_
  6
CONTINUOUS
 62
    3
 10
5653.2824044610561
 20
1576.4014776351993
 11
5686.906446540881
 21
1580.5407115010352
  0
LINE
  8
_0-0_
  6
CONTINUOUS
 62
    3
 10
5653.1755537971866
 20
1587.538431102949
 11
5686.7995958770125
 21
1591.15186896212
  0
LINE
  8
_0-0_
  6
CONTINUOUS
 62
    3
 10
5494.90644654088
 20
1622.5069299791703
 11
6369.90644654088
 21
1622.5069299791703
  0
LINE
  8
_0-0_
  6
CONTINUOUS
 62
    3
 10
5494.90644654088
 20
1622.5069299791703
 11
5494.90644654088
 21
1606.75692997917
  0
LINE
  8
_0-0_
  6
CONTINUOUS
 62
    3
 10
6369.90644654088
 20
1622.5069299791703
 11
6369.90644654088
 21
1606.75692997917
  0
LINE
  8
ADD_LINE
  6
DOT
 62
    4
 10
8775.6360759493672
 20
3640.2943037974682
 11
8775.6360759493672
 21
3702.2943037974682
  0
LINE
  8
_0-0_
  6
CONTINUOUS
 62
    3
 10
8105.6360759493663
 20
3640.2943037974682
 11
9445.6360759493654
 21
3640.2943037974682
  0
TEXT
  8
_0-0_
 62
    7
 10
8142.1360759493672
 20
3646.2943037974687
 40
112
 41
1
 50
0
  1
シール材の品質及び性能
  0
LINE
  8
_0-0_
  6
CONTINUOUS
 62
    4
 10
3602.003537735849
 20
3555.7920597484271
 11
3245.0740374394335
 21
3555.7920597484271
  0
TEXT
  8
_0-0_
 62
    7
 10
6430.3241742877826
 20
1793.7478198616324
 40
98
 41
1
 50
0
  1
(ﾒｯｷ)
  0
TEXT
  8
_0-0_
 62
    7
 10
6371.9147523363499
 20
1917.0200584416586
 40
98
 41
1
 50
0
  1
ﾎﾞﾙﾄ M12
  0
TEXT
  8
_0-0_
 62
    7
 10
6453.7934682578197
 20
1134.7596267949777
 40
98
 41
1
 50
0
  1
ｲﾝｻｰﾄ M12
  0
LINE
  8
_0-0_
  6
CONTINUOUS
 62
    4
 10
6339.8069339030398
 20
1904.8481459031295
 11
6782.3055251379555
 21
1904.8481459031295
  0
LINE
  8
_0-0_
  6
CONTINUOUS
 62
    4
 10
6419.4738351997066
 20
1126.087714256449
 11
6919.0618428150901
 21
1126.087714256449
  0
TEXT
  8
_0-0_
 62
    7
 10
6549.0120250911404
 20
1005.7425093843927
 40
98
 41
1
 50
0
  1
(ﾒｯｷ)
  0
TEXT
  8
_0-0_
 62
    7
 10
5171.0009351526232
 20
1909.3541216974372
 40
98
 41
1
 50
0
  1
ﾜｯｼｬー
  0
TEXT
  8
_0-0_
 62
    7
 10
5197.4603490618028
 20
1792.3099763719089
 40
98
 41
1
 50
0
  1
(ﾒｯｷ)
  0
LINE
  8
_0-0_
  6
CONTINUOUS
 62
    4
 10
5495.9143895315219
 20
1905.1551516006172
 11
5130.7239622520764
 21
1905.1551516006172
  0
LINE
  8
_0-0_
  6
CONTINUOUS
 62
    6
 10
5722.40644654088
 20
1628.5069299791719
 11
5617.40644654088
 21
1628.5069299791719
  0
LINE
  8
_0-0_
  6
CONTINUOUS
 62
    4
 10
5495.9143895315219
 20
1905.1551516006172
 11
5624.9175738885624
 21
1628.5069299791719
  0
LINE
  8
_0-0_
  6
CONTINUOUS
 62
    4
 10
5625.3838815467179
 20
1627.5069299791716
 11
5625.4356738921851
 21
1627.3958609358869
  0
LINE
  8
_0-0_
  6
CONTINUOUS
 62
    4
 10
5624.9175738885624
 20
1628.5069299791719
 11
5591.1712243800193
 21
1668.7242632429183
  0
LINE
  8
_0-0_
  6
CONTINUOUS
 62
    4
 10
5624.9175738885624
 20
1628.5069299791719
 11
5615.8010445610489
 21
1680.2093370123129
  0
LINE
  8
_0-0_
  6
CONTINUOUS
 62
    2
 10
5703.156446540881
 20
1646.5069299791712
 11
5703.156446540881
 21
1629.0942644017211
  0
LINE
  8
_0-0_
  6
CONTINUOUS
 62
    2
 10
5703.156446540881
 20
1629.0942644017211
 11
5703.156446540881
 21
1628.5069299791719
  0
LINE
  8
_0-0_
  6
CONTINUOUS
 62
    2
 10
5636.656446540881
 20
1646.5069299791712
 11
5636.656446540881
 21
1628.5069299791719
  0
LINE
  8
_0-0_
  6
CONTINUOUS
 62
    2
 10
5650.90644654088
 20
1628.5069299791719
 11
5650.90644654088
 21
1649.5069299791709
  0
LINE
  8
_0-0_
  6
CONTINUOUS
 62
    2
 10
5688.90644654088
 20
1628.5069299791719
 11
5688.90644654088
 21
1649.438623828388
  0
LINE
  8
_0-0_
  6
CONTINUOUS
 62
    6
 10
6247.40644654088
 20
1628.5069299791719
 11
6142.40644654088
 21
1628.5069299791719
  0
LINE
  8
_0-0_
  6
CONTINUOUS
 62
    2
 10
6161.656446540881
 20
1646.5069299791712
 11
6161.656446540881
 21
1628.5069299791719
  0
LINE
  8
_0-0_
  6
CONTINUOUS
 62
    2
 10
6175.90644654088
 20
1628.5069299791719
 11
6175.90644654088
 21
1649.5069299791709
  0
LINE
  8
_0-0_
  6
CONTINUOUS
 62
    2
 10
6213.90644654088
 20
1628.5069299791719
 11
6213.90644654088
 21
1649.438623828388
  0
LINE
  8
_0-0_
  6
CONTINUOUS
 62
    2
 10
6228.15644654088
 20
1646.5069299791712
 11
6228.15644654088
 21
1628.5069299791719
  0
LINE
  8
_0-0_
  6
CENTER1
 62
    4
 10
4045.7535377358485
 20
3320.7920597484271
 11
4045.7535377358485
 21
2523.2794601405862
  0
LINE
  8
_0-0_
  6
CENTER1
 62
    4
 10
4045.7535377358485
 20
2523.2794601405862
 11
4045.7535377358485
 21
2520.892059748427
  0
LINE
  8
_0-0_
  6
CENTER1
 62
    4
 10
4045.7535377358485
 20
2570.892059748427
 11
3108.253537735849
 21
2570.892059748427
  0
LINE
  8
_0-0_
  6
CONTINUOUS
 62
    4
 10
1319.4407348632819
 20
3773.6313476562504
 11
1319.4407348632819
 21
3613.6313476562504
  0
LINE
  8
_0-0_
  6
CONTINUOUS
 62
    2
 10
1570.4407958984377
 20
3476.63134765625
 11
1570.4407958984377
 21
3613.6313476562504
  0
LINE
  8
_0-0_
  6
CONTINUOUS
 62
    2
 10
1560.4407958984379
 20
3466.6313476562504
 11
1554.4407958984377
 21
3466.6313476562504
  0
LINE
  8
_0-0_
  6
CONTINUOUS
 62
    4
 10
1319.4407348632819
 20
3578.6313476562504
 11
1319.4407348632819
 21
3478.6313476562504
  0
LINE
  8
_0-0_
  6
CONTINUOUS
 62
    4
 10
1319.4407348632819
 20
3578.6313476562504
 11
1333.0287475585944
 21
3527.9201660156254
  0
LINE
  8
_0-0_
  6
CONTINUOUS
 62
    4
 10
1319.4407348632819
 20
3578.6313476562504
 11
1305.8527221679685
 21
3527.9201660156254
  0
LINE
  8
_0-0_
  6
CONTINUOUS
 62
    2
 10
2296.4407958984375
 20
3613.6313476562504
 11
1554.4407958984377
 21
3613.6313476562504
  0
LINE
  8
_0-0_
  6
CONTINUOUS
 62
    4
 10
1119.4407348632817
 20
3613.6313476562504
 11
1133.0287475585939
 21
3562.9201660156254
  0
LINE
  8
_0-0_
  6
CONTINUOUS
 62
    4
 10
1119.4407348632817
 20
3613.6313476562504
 11
1105.8527221679692
 21
3562.9201660156254
  0
LINE
  8
_0-0_
  6
CONTINUOUS
 62
    4
 10
1519.4407958984377
 20
3613.6313476562504
 11
1084.4407348632817
 21
3613.6313476562504
  0
LINE
  8
_0-0_
  6
CONTINUOUS
 62
    4
 10
1319.4407348632819
 20
3613.6313476562504
 11
1305.8527221679685
 21
3664.342529296875
  0
LINE
  8
_0-0_
  6
CONTINUOUS
 62
    4
 10
1319.4407348632819
 20
3613.6313476562504
 11
1333.0287475585944
 21
3664.342529296875
  0
LINE
  8
_0-0_
  6
CONTINUOUS
 62
    4
 10
1519.4407958984377
 20
3578.6313476562504
 11
1284.4407348632819
 21
3578.6313476562504
  0
LINE
  8
_0-0_
  6
CONTINUOUS
 62
    5
 10
1594.4407958984377
 20
3578.6313476562504
 11
2271.4407958984379
 21
3578.6313476562504
  0
ARC
  8
_0-0_
  6
CONTINUOUS
 62
    2
 10
1560.4407958984379
 20
3476.63134765625
 40
10
 50
270
 51
0
  0
LINE
  8
_0-0_
  6
CONTINUOUS
 62
    5
 10
733.5625
 20
6490.0000000000009
 11
2733.5625
 21
6490.0000000000009
  0
TEXT
  8
_0-0_
 62
    7
 10
1311.3288147896789
 20
3676.6786762430801
 40
105
 41
0.8333333333333333
 50
90
  1
35
  0
LINE
  8
_0-0_
  6
CONTINUOUS
 62
    4
 10
1786.4407958984379
 20
5854.4810791015634
 11
1786.4407958984379
 21
5519.4810791015625
  0
LINE
  8
_0-0_
  6
CONTINUOUS
 62
    4
 10
1586.4407958984377
 20
5854.4810791015634
 11
1586.4407958984377
 21
5519.4810791015625
  0
LINE
  8
_0-0_
  6
CONTINUOUS
 62
    4
 10
1766.4407958984375
 20
5854.4810791015634
 11
1766.4407958984375
 21
5519.4810791015625
  0
LINE
  8
_0-0_
  6
CONTINUOUS
 62
    4
 10
2334.4407958984375
 20
5164.4810791015625
 11
2769.4406738281259
 21
5164.4810791015625
  0
LINE
  8
_0-0_
  6
CONTINUOUS
 62
    2
 10
2296.4407958984375
 20
5164.4810791015625
 11
1554.4407958984377
 21
5164.4810791015625
  0
LINE
  8
_0-0_
  6
CONTINUOUS
 62
    2
 10
1583.7392578124995
 20
5457.4661865234384
 11
1554.4407958984377
 21
5164.4810791015625
  0
LINE
  8
_0-0_
  6
CONTINUOUS
 62
    2
 10
1739.2911376953129
 20
5484.4810791015625
 11
1613.5903320312502
 21
5484.4810791015625
  0
LINE
  8
_0-0_
  6
CONTINUOUS
 62
    4
 10
1760.5085449218754
 20
5475.5577392578125
 11
1849.0183105468756
 21
5644.767578125
  0
LINE
  8
_0-0_
  6
CONTINUOUS
 62
    4
 10
1760.5085449218754
 20
5475.5577392578125
 11
1771.9726562500004
 21
5526.7907714843759
  0
LINE
  8
_0-0_
  6
CONTINUOUS
 62
    4
 10
1760.5085449218754
 20
5475.5577392578125
 11
1796.0533447265631
 21
5514.1947021484375
  0
LINE
  8
_0-0_
  6
CONTINUOUS
 62
    5
 10
2266.4407958984375
 20
5194.4810791015625
 11
1599.4407958984375
 21
5194.4810791015625
  0
LINE
  8
_0-0_
  6
CONTINUOUS
 62
    4
 10
1882.5926513671877
 20
4765.89306640625
 11
1926.4022216796884
 21
5198.5548095703125
  0
LINE
  8
_0-0_
  6
CONTINUOUS
 62
    4
 10
1926.4022216796884
 20
5198.5548095703125
 11
1934.8123779296872
 21
5146.73291015625
  0
LINE
  8
_0-0_
  6
CONTINUOUS
 62
    4
 10
1926.4022216796884
 20
5198.5548095703125
 11
1907.7746582031259
 21
5149.4705810546875
  0
LINE
  8
_0-0_
  6
CONTINUOUS
 62
    4
 10
1773.7905273437502
 20
5196.0411376953125
 11
1799.39892578125
 21
5150.2103271484375
  0
LINE
  8
_0-0_
  6
CONTINUOUS
 62
    4
 10
1773.7905273437502
 20
5196.0411376953125
 11
1773.0527343749997
 21
5143.5462646484375
  0
LINE
  8
_0-0_
  6
CONTINUOUS
 62
    4
 10
1773.7905273437502
 20
5196.0411376953125
 11
1882.5926513671877
 21
4765.89306640625
  0
LINE
  8
_0-0_
  6
CONTINUOUS
 62
    4
 10
1684.0885009765631
 20
5194.4810791015625
 11
1684.0885009765631
 21
4765.89306640625
  0
LINE
  8
_0-0_
  6
CONTINUOUS
 62
    4
 10
1684.0885009765631
 20
5194.4810791015625
 11
1697.6765136718754
 21
5143.7700195312509
  0
LINE
  8
_0-0_
  6
CONTINUOUS
 62
    4
 10
1684.0885009765631
 20
5194.4810791015625
 11
1670.5004882812497
 21
5143.7700195312509
  0
LINE
  8
_0-0_
  6
CONTINUOUS
 62
    4
 10
1519.4407958984377
 20
5164.4810791015625
 11
934.44073486328193
 21
5164.4810791015625
  0
LINE
  8
_0-0_
  6
CONTINUOUS
 62
    4
 10
2065.5327148437504
 20
5327.2130126953125
 11
2115.3583984375
 21
5343.7554931640625
  0
LINE
  8
_0-0_
  6
CONTINUOUS
 62
    4
 10
2065.5327148437504
 20
5327.2130126953125
 11
2116.9542236328125
 21
5316.6263427734375
  0
LINE
  8
_0-0_
  6
DASHED1
 62
    2
 10
1566.4407958984372
 20
5284.4810791015625
 11
1791.1518554687502
 21
5284.4810791015625
  0
LINE
  8
_0-0_
  6
CONTINUOUS
 62
    4
 10
1791.1518554687502
 20
5291.7091064453134
 11
1871.8720703125006
 21
5513.4862060546875
  0
LINE
  8
_0-0_
  6
CONTINUOUS
 62
    4
 10
1791.1518554687502
 20
5291.7091064453134
 11
1793.5452880859375
 21
5344.154541015625
  0
LINE
  8
_0-0_
  6
CONTINUOUS
 62
    4
 10
1791.1518554687502
 20
5291.7091064453134
 11
1819.447265625
 21
5335.9313964843759
  0
LINE
  8
_0-0_
  6
CONTINUOUS
 62
    4
 10
1834.1450195312497
 20
5344.4810791015625
 11
1989.3394775390631
 21
5344.4810791015625
  0
LINE
  8
_0-0_
  6
CONTINUOUS
 62
    4
 10
1834.1450195312497
 20
5284.4810791015625
 11
1989.3394775390631
 21
5284.4810791015625
  0
LINE
  8
_0-0_
  6
CONTINUOUS
 62
    4
 10
1959.3394775390631
 20
5284.4810791015625
 11
1959.3394775390631
 21
5234.6937255859375
  0
LINE
  8
_0-0_
  6
CONTINUOUS
 62
    4
 10
1959.3394775390631
 20
5344.4810791015625
 11
1949.9611816406252
 21
5379.4810791015625
  0
LINE
  8
_0-0_
  6
CONTINUOUS
 62
    4
 10
1959.3394775390631
 20
5344.4810791015625
 11
1968.7176513671877
 21
5379.4810791015625
  0
LINE
  8
_0-0_
  6
CONTINUOUS
 62
    4
 10
1959.3394775390631
 20
5284.4810791015625
 11
1949.9611816406252
 21
5249.4810791015625
  0
LINE
  8
_0-0_
  6
CONTINUOUS
 62
    4
 10
1959.3394775390631
 20
5284.4810791015625
 11
1968.7176513671877
 21
5249.4810791015625
  0
LINE
  8
_0-0_
  6
CONTINUOUS
 62
    4
 10
1959.3394775390631
 20
5418.106201171875
 11
1959.3394775390631
 21
5344.4810791015625
  0
LINE
  8
_0-0_
  6
CONTINUOUS
 62
    4
 10
2296.4407958984375
 20
5349.5416259765625
 11
2296.4407958984375
 21
5854.4810791015634
  0
LINE
  8
_0-0_
  6
CONTINUOUS
 62
    4
 10
2286.4407958984375
 20
5854.4810791015634
 11
2286.4407958984375
 21
5348.953369140625
  0
LINE
  8
_0-0_
  6
CONTINUOUS
 62
    2
 10
1784.5281982421872
 20
5303.6063232421884
 11
1769.1422119140625
 21
5457.4661865234384
  0
LINE
  8
_0-0_
  6
CONTINUOUS
 62
    2
 10
1805.6268310546879
 20
5285.63232421875
 11
2286.4407958984375
 21
5314.4810791015625
  0
LINE
  8
_0-0_
  6
CONTINUOUS
 62
    4
 10
1566.5361328125002
 20
5484.4810791015625
 11
934.44073486328193
 21
5484.4810791015625
  0
LINE
  8
_0-0_
  6
DASHED1
 62
    2
 10
1574.4407958984381
 20
5364.4810791015634
 11
1780.4407958984377
 21
5344.4810791015625
  0
LINE
  8
_0-0_
  6
CONTINUOUS
 62
    2
 10
2286.4407958984375
 20
5314.4810791015625
 11
2296.4407958984375
 21
5164.4810791015625
  0
LINE
  8
_0-0_
  6
CONTINUOUS
 62
    4
 10
1539.2662353515627
 20
5364.4810791015634
 11
1339.4407348632812
 21
5364.4810791015634
  0
LINE
  8
_0-0_
  6
CONTINUOUS
 62
    4
 10
1539.2662353515627
 20
5284.4810791015625
 11
1139.440734863281
 21
5284.4810791015625
  0
LINE
  8
_0-0_
  6
CONTINUOUS
 62
    4
 10
2321.5184326171879
 20
5314.4810791015625
 11
2769.4406738281259
 21
5314.4810791015625
  0
LINE
  8
_0-0_
  6
CONTINUOUS
 62
    4
 10
2329.5184326171879
 20
5194.4810791015625
 11
2569.4406738281254
 21
5194.4810791015625
  0
LINE
  8
_0-0_
  6
CONTINUOUS
 62
    4
 10
8899.2070312500018
 20
5478.752197265625
 11
8891.1679687499981
 21
5448.752197265625
  0
LINE
  8
_0-0_
  6
CONTINUOUS
 62
    4
 10
8899.2070312500018
 20
5478.752197265625
 11
8907.2451171875
 21
5448.752197265625
  0
LINE
  8
_0-0_
  6
CONTINUOUS
 62
    4
 10
8699.2070312499981
 20
5478.752197265625
 11
8934.2070312500018
 21
5478.752197265625
  0
LINE
  8
_0-0_
  6
CENTER1
 62
    4
 10
7842.05712890625
 20
5638.7521972656259
 11
8714.20703125
 21
5638.7521972656259
  0
LINE
  8
_0-0_
  6
CONTINUOUS
 62
    3
 10
7892.05712890625
 20
5478.752197265625
 11
7892.05712890625
 21
5638.7521972656259
  0
LINE
  8
_0-0_
  6
CONTINUOUS
 62
    2
 10
7892.05712890625
 20
5478.752197265625
 11
8664.2070312499981
 21
5478.752197265625
  0
LINE
  8
_0-0_
  6
CONTINUOUS
 62
    7
 10
8664.2070312499981
 20
5638.7521972656259
 11
8664.2070312499981
 21
5478.752197265625
  0
LINE
  8
_0-0_
  6
CONTINUOUS
 62
    2
 10
8104.0571289062509
 20
5638.7521972656259
 11
8104.0571289062509
 21
5478.752197265625
  0
LINE
  8
_0-0_
  6
CONTINUOUS
 62
    2
 10
8124.05712890625
 20
5638.7521972656259
 11
8124.05712890625
 21
5478.752197265625
  0
LINE
  8
_0-0_
  6
CONTINUOUS
 62
    2
 10
8664.2070312499981
 20
5478.752197265625
 11
8664.2070312499981
 21
5638.7521972656259
  0
LINE
  8
_0-0_
  6
CONTINUOUS
 62
    4
 10
8268.3012695312518
 20
5478.752197265625
 11
8254.7133789062518
 21
5428.0411376953125
  0
LINE
  8
_0-0_
  6
CONTINUOUS
 62
    4
 10
8268.3012695312518
 20
5478.752197265625
 11
8281.88916015625
 21
5428.0411376953125
  0
LINE
  8
_0-0_
  6
CONTINUOUS
 62
    2
 10
8654.2070312500018
 20
5638.7521972656259
 11
8654.2070312500018
 21
5478.752197265625
  0
LINE
  8
_0-0_
  6
CONTINUOUS
 62
    2
 10
8672.2451171875
 20
4548.754638671875
 11
7930.2451171875
 21
4548.754638671875
  0
LINE
  8
_0-0_
  6
CONTINUOUS
 62
    2
 10
7959.5439453125009
 20
4841.7397460937509
 11
7930.2451171875
 21
4548.754638671875
  0
LINE
  8
_0-0_
  6
CONTINUOUS
 62
    2
 10
8115.0957031250009
 20
4868.75439453125
 11
7989.3950195312509
 21
4868.75439453125
  0
LINE
  8
_0-0_
  6
CONTINUOUS
 62
    2
 10
8160.333007812499
 20
4687.879638671875
 11
8144.9467773437509
 21
4841.7397460937509
  0
LINE
  8
_0-0_
  6
CONTINUOUS
 62
    2
 10
8069.8461914062518
 20
4818.7546386718759
 11
8034.64404296875
 21
4818.7546386718759
  0
LINE
  8
_0-0_
  6
CONTINUOUS
 62
    2
 10
8113.4497070312481
 20
4654.216796875
 11
8099.697265625
 21
4791.73974609375
  0
LINE
  8
_0-0_
  6
CONTINUOUS
 62
    2
 10
8155.64697265625
 20
4618.268798828125
 11
8665.2402343749981
 21
4648.8442382812509
  0
LINE
  8
_0-0_
  6
CONTINUOUS
 62
    4
 10
7900.095703125
 20
4548.754638671875
 11
7765.0957031250009
 21
4548.754638671875
  0
LINE
  8
_0-0_
  6
CONTINUOUS
 62
    4
 10
7800.0957031250009
 20
4548.754638671875
 11
7808.13427734375
 21
4578.754638671874
  0
LINE
  8
_0-0_
  6
CONTINUOUS
 62
    4
 10
7800.0957031250009
 20
4548.754638671875
 11
7792.0571289062509
 21
4578.754638671874
  0
LINE
  8
_0-0_
  6
CONTINUOUS
 62
    4
 10
7907.095703124999
 20
4658.754638671875
 11
7765.0957031250009
 21
4658.754638671875
  0
LINE
  8
_0-0_
  6
CONTINUOUS
 62
    4
 10
7800.0957031250009
 20
4658.754638671875
 11
7792.0571289062509
 21
4628.754638671875
  0
LINE
  8
_0-0_
  6
CONTINUOUS
 62
    4
 10
7800.0957031250009
 20
4658.754638671875
 11
7808.13427734375
 21
4628.754638671875
  0
LINE
  8
_0-0_
  6
CONTINUOUS
 62
    4
 10
7800.0957031250009
 20
4548.754638671875
 11
7800.0957031250009
 21
4658.754638671875
  0
LINE
  8
_0-0_
  6
CONTINUOUS
 62
    2
 10
7991.49462890625
 20
4658.754638671875
 11
7941.2451171875018
 21
4658.754638671875
  0
LINE
  8
_0-0_
  6
CONTINUOUS
 62
    2
 10
8004.7929687500009
 20
4791.73974609375
 11
7991.49462890625
 21
4658.754638671875
  0
LINE
  8
_0-0_
  6
CONTINUOUS
 62
    4
 10
8268.3012695312518
 20
5478.752197265625
 11
8268.3012695312518
 21
5245.925537109375
  0
LINE
  8
_0-0_
  6
CONTINUOUS
 62
    4
 10
2065.5327148437504
 20
5327.2130126953125
 11
2233.7360839843754
 21
5337.1074218750009
  0
LINE
  8
_0-0_
  6
CONTINUOUS
 62
    4
 10
8899.2070312500018
 20
5348.752197265625
 11
8899.2070312500018
 21
5478.752197265625
  0
LINE
  8
_0-0_
  6
CONTINUOUS
 62
    2
 10
7892.05712890625
 20
5483.752197265625
 11
8664.2070312499981
 21
5483.752197265625
  0
LINE
  8
_0-0_
  6
CONTINUOUS
 62
    2
 10
1563.9787597656256
 20
5259.861083984375
 11
1579.45849609375
 21
5253.861083984375
  0
LINE
  8
_0-0_
  6
CONTINUOUS
 62
    2
 10
1557.7786865234379
 20
5197.861083984375
 11
1574.4584960937502
 21
5203.8610839843759
  0
LINE
  8
_0-0_
  6
CONTINUOUS
 62
    2
 10
1579.45849609375
 20
5253.861083984375
 11
1574.4584960937502
 21
5203.8610839843759
  0
LINE
  8
_0-0_
  6
CONTINUOUS
 62
    4
 10
1554.4407958984377
 20
5854.4810791015634
 11
1554.4407958984377
 21
5456.795654296875
  0
LINE
  8
_0-0_
  6
CONTINUOUS
 62
    2
 10
4108.730224609375
 20
5203.4810791015625
 11
4102.730224609375
 21
5209.4810791015625
  0
LINE
  8
_0-0_
  6
CONTINUOUS
 62
    2
 10
4102.730224609375
 20
5259.4810791015634
 11
4108.730224609375
 21
5265.4810791015625
  0
LINE
  8
_0-0_
  6
CONTINUOUS
 62
    2
 10
3961.730224609375
 20
5259.4810791015634
 11
4102.730224609375
 21
5259.4810791015634
  0
LINE
  8
_0-0_
  6
CONTINUOUS
 62
    2
 10
3961.730224609375
 20
5209.4810791015625
 11
4102.730224609375
 21
5209.4810791015625
  0
LINE
  8
_0-0_
  6
CONTINUOUS
 62
    2
 10
4108.730224609375
 20
5203.4810791015625
 11
3961.730224609375
 21
5203.4810791015625
  0
LINE
  8
_0-0_
  6
CONTINUOUS
 62
    2
 10
3961.730224609375
 20
5265.4810791015625
 11
4108.730224609375
 21
5265.4810791015625
  0
LINE
  8
_0-0_
  6
CONTINUOUS
 62
    2
 10
4108.730224609375
 20
5265.4810791015625
 11
4108.730224609375
 21
5203.4810791015625
  0
LINE
  8
_0-0_
  6
CONTINUOUS
 62
    2
 10
4102.730224609375
 20
5259.4810791015634
 11
4102.730224609375
 21
5209.4810791015625
  0
LINE
  8
_0-0_
  6
CONTINUOUS
 62
    2
 10
3961.730224609375
 20
5164.4810791015625
 11
3961.730224609375
 21
5484.4810791015625
  0
ARC
  8
_0-0_
  6
CONTINUOUS
 62
    2
 10
1613.5903320312502
 20
5454.4810791015625
 40
30
 50
90
 51
174.28939819335937
  0
ARC
  8
_0-0_
  6
CONTINUOUS
 62
    2
 10
1739.2911376953129
 20
5454.4810791015625
 40
30
 50
5.7105865478515625
 51
90
  0
ARC
  8
_0-0_
  6
CONTINUOUS
 62
    2
 10
1804.4289550781245
 20
5305.596435546875
 40
20
 50
185.71058654785156
 51
273.43362426757812
  0
ARC
  8
_0-0_
  6
CONTINUOUS
 62
    2
 10
7989.3950195312509
 20
4838.754638671875
 40
30
 50
90
 51
174.28939819335937
  0
ARC
  8
_0-0_
  6
CONTINUOUS
 62
    2
 10
8115.0957031250009
 20
4838.754638671875
 40
30
 50
5.7105865478515625
 51
90
  0
ARC
  8
_0-0_
  6
CONTINUOUS
 62
    2
 10
8180.233398437499
 20
4689.869873046875
 40
20
 50
185.71058654785156
 51
273.43362426757812
  0
ARC
  8
_0-0_
  6
CONTINUOUS
 62
    2
 10
8034.64404296875
 20
4788.754638671874
 40
30
 50
90
 51
174.28939819335937
  0
ARC
  8
_0-0_
  6
CONTINUOUS
 62
    2
 10
8069.8461914062518
 20
4788.754638671874
 40
30
 50
5.7105865478515625
 51
90
  0
ARC
  8
_0-0_
  6
CONTINUOUS
 62
    2
 10
8153.2509765625009
 20
4658.1970214843759
 40
40
 50
185.71058654785156
 51
273.43362426757812
  0
CIRCLE
  8
_0-0_
  6
CONTINUOUS
 62
    2
 10
4461.730224609375
 20
5234.4810791015625
 40
12
  0
CIRCLE
  8
_0-0_
  6
CONTINUOUS
 62
    2
 10
4036.730224609374
 20
5234.4810791015625
 40
7.5
  0
TEXT
  8
_0-0_
 62
    7
 10
2088.6614990234379
 20
5193.03369140625
 40
17.5
 41
1
 50
0
  1
●
  0
TEXT
  8
_0-0_
 62
    7
 10
1600.9114990234379
 20
5193.03369140625
 40
17.5
 41
1
 50
0
  1
●
  0
TEXT
  8
_0-0_
 62
    7
 10
1760.1614990234375
 20
5193.03369140625
 40
17.5
 41
1
 50
0
  1
●
  0
TEXT
  8
_0-0_
 62
    7
 10
1924.4114990234377
 20
5193.03369140625
 40
17.5
 41
1
 50
0
  1
●
  0
TEXT
  8
_0-0_
 62
    7
 10
2247.9114990234375
 20
5193.03369140625
 40
17.5
 41
1
 50
0
  1
●
  0
LINE
  8
_0-0_
  6
CONTINUOUS
 62
    4
 10
969.44073486328193
 20
5484.4810791015625
 11
969.44073486328193
 21
5164.4810791015625
  0
LINE
  8
_0-0_
  6
CONTINUOUS
 62
    4
 10
969.44073486328193
 20
5484.4810791015625
 11
983.02874755859431
 21
5433.77001953125
  0
LINE
  8
_0-0_
  6
CONTINUOUS
 62
    4
 10
969.44073486328193
 20
5484.4810791015625
 11
955.85272216796852
 21
5433.77001953125
  0
LINE
  8
_0-0_
  6
CONTINUOUS
 62
    4
 10
969.44073486328193
 20
5164.4810791015625
 11
955.85272216796852
 21
5215.1922607421875
  0
LINE
  8
_0-0_
  6
CONTINUOUS
 62
    4
 10
969.44073486328193
 20
5164.4810791015625
 11
983.02874755859431
 21
5215.1922607421875
  0
LINE
  8
_0-0_
  6
CONTINUOUS
 62
    4
 10
1169.4407348632812
 20
5484.4810791015625
 11
1169.4407348632812
 21
5284.4810791015625
  0
LINE
  8
_0-0_
  6
CONTINUOUS
 62
    4
 10
1169.4407348632812
 20
5284.4810791015625
 11
1169.4407348632812
 21
5164.4810791015625
  0
LINE
  8
_0-0_
  6
CONTINUOUS
 62
    4
 10
1169.4407348632812
 20
5484.4810791015625
 11
1183.0287475585937
 21
5433.77001953125
  0
LINE
  8
_0-0_
  6
CONTINUOUS
 62
    4
 10
1169.4407348632812
 20
5484.4810791015625
 11
1155.8527221679687
 21
5433.77001953125
  0
LINE
  8
_0-0_
  6
CONTINUOUS
 62
    4
 10
1169.4407348632812
 20
5284.4810791015625
 11
1155.8527221679687
 21
5335.1922607421884
  0
LINE
  8
_0-0_
  6
CONTINUOUS
 62
    4
 10
1169.4407348632812
 20
5284.4810791015625
 11
1183.0287475585937
 21
5335.1922607421884
  0
LINE
  8
_0-0_
  6
CONTINUOUS
 62
    4
 10
1169.4407348632812
 20
5284.4810791015625
 11
1183.0287475585937
 21
5233.77001953125
  0
LINE
  8
_0-0_
  6
CONTINUOUS
 62
    4
 10
1169.4407348632812
 20
5284.4810791015625
 11
1155.8527221679687
 21
5233.77001953125
  0
LINE
  8
_0-0_
  6
CONTINUOUS
 62
    4
 10
1169.4407348632812
 20
5164.4810791015625
 11
1155.8527221679687
 21
5215.1922607421875
  0
LINE
  8
_0-0_
  6
CONTINUOUS
 62
    4
 10
1169.4407348632812
 20
5164.4810791015625
 11
1183.0287475585937
 21
5215.1922607421875
  0
LINE
  8
_0-0_
  6
CONTINUOUS
 62
    4
 10
1369.4407348632814
 20
5364.4810791015634
 11
1369.4407348632814
 21
5284.4810791015625
  0
LINE
  8
_0-0_
  6
CONTINUOUS
 62
    4
 10
1369.4407348632814
 20
5284.4810791015625
 11
1378.8189697265627
 21
5319.4810791015625
  0
LINE
  8
_0-0_
  6
CONTINUOUS
 62
    4
 10
1369.4407348632814
 20
5284.4810791015625
 11
1360.0625000000002
 21
5319.4810791015625
  0
LINE
  8
_0-0_
  6
CONTINUOUS
 62
    4
 10
1369.4407348632814
 20
5364.4810791015634
 11
1378.8189697265627
 21
5329.4810791015634
  0
LINE
  8
_0-0_
  6
CONTINUOUS
 62
    4
 10
1369.4407348632814
 20
5364.4810791015634
 11
1360.0625000000002
 21
5329.4810791015634
  0
TEXT
  8
_0-0_
 62
    7
 10
961.9407348632817
 20
5258.8560791015625
 40
105
 41
0.8333333333333333
 50
90
  1
320
  0
TEXT
  8
_0-0_
 62
    7
 10
1161.9407348632819
 20
5318.8560791015625
 40
105
 41
0.8333333333333333
 50
90
  1
200
  0
TEXT
  8
_0-0_
 62
    7
 10
1161.9407348632819
 20
5158.8560791015634
 40
105
 41
0.8333333333333333
 50
90
  1
120
  0
TEXT
  8
_0-0_
 62
    7
 10
1356.4322509765622
 20
5287.646484375
 40
105
 41
0.8333333333333333
 50
90
  1
80
  0
LINE
  8
_0-0_
  6
CONTINUOUS
 62
    4
 10
2734.4406738281259
 20
5314.4810791015625
 11
2734.4406738281259
 21
5164.4810791015625
  0
LINE
  8
_0-0_
  6
CONTINUOUS
 62
    4
 10
2734.4406738281259
 20
5314.4810791015625
 11
2748.0288085937504
 21
5263.77001953125
  0
LINE
  8
_0-0_
  6
CONTINUOUS
 62
    4
 10
2734.4406738281259
 20
5314.4810791015625
 11
2720.8527832031259
 21
5263.77001953125
  0
LINE
  8
_0-0_
  6
CONTINUOUS
 62
    4
 10
2734.4406738281259
 20
5164.4810791015625
 11
2720.8527832031259
 21
5215.1922607421875
  0
LINE
  8
_0-0_
  6
CONTINUOUS
 62
    4
 10
2734.4406738281259
 20
5164.4810791015625
 11
2748.0288085937504
 21
5215.1922607421875
  0
LINE
  8
_0-0_
  6
CONTINUOUS
 62
    4
 10
2534.4406738281254
 20
5194.4810791015625
 11
2520.8527832031254
 21
5245.1922607421875
  0
LINE
  8
_0-0_
  6
CONTINUOUS
 62
    4
 10
2534.4406738281254
 20
5194.4810791015625
 11
2548.02880859375
 21
5245.1922607421875
  0
LINE
  8
_0-0_
  6
CONTINUOUS
 62
    4
 10
2534.4406738281254
 20
5194.4810791015625
 11
2520.8527832031254
 21
5245.1922607421875
  0
LINE
  8
_0-0_
  6
CONTINUOUS
 62
    4
 10
2534.4406738281254
 20
5194.4810791015625
 11
2548.02880859375
 21
5245.1922607421875
  0
LINE
  8
_0-0_
  6
CONTINUOUS
 62
    4
 10
2534.4406738281254
 20
5164.4810791015625
 11
2548.02880859375
 21
5113.77001953125
  0
LINE
  8
_0-0_
  6
CONTINUOUS
 62
    4
 10
2534.4406738281254
 20
5164.4810791015625
 11
2520.8527832031254
 21
5113.77001953125
  0
LINE
  8
_0-0_
  6
CONTINUOUS
 62
    4
 10
2534.4406738281254
 20
5164.4810791015625
 11
2534.4406738281254
 21
5034.4810791015625
  0
LINE
  8
_0-0_
  6
CONTINUOUS
 62
    4
 10
2534.4406738281254
 20
5194.4810791015625
 11
2534.4406738281254
 21
5294.4810791015634
  0
TEXT
  8
_0-0_
 62
    7
 10
2726.9406738281254
 20
5173.8560791015625
 40
105
 41
0.8333333333333333
 50
90
  1
150
  0
TEXT
  8
_0-0_
 62
    7
 10
2526.9406738281254
 20
5044.4810791015625
 40
105
 41
0.8333333333333333
 50
90
  1
30
  0
LINE
  8
_0-0_
  6
CONTINUOUS
 62
    4
 10
1586.4407958984377
 20
5819.4810791015634
 11
1766.4407958984375
 21
5819.4810791015634
  0
LINE
  8
_0-0_
  6
CONTINUOUS
 62
    4
 10
1766.4407958984375
 20
5819.4810791015634
 11
1715.7296142578129
 21
5805.8931884765634
  0
LINE
  8
_0-0_
  6
CONTINUOUS
 62
    4
 10
1766.4407958984375
 20
5819.4810791015634
 11
1715.7296142578129
 21
5833.069091796875
  0
LINE
  8
_0-0_
  6
CONTINUOUS
 62
    4
 10
1586.4407958984377
 20
5819.4810791015634
 11
1637.15185546875
 21
5833.069091796875
  0
LINE
  8
_0-0_
  6
CONTINUOUS
 62
    4
 10
1586.4407958984377
 20
5819.4810791015634
 11
1637.15185546875
 21
5805.8931884765634
  0
LINE
  8
_0-0_
  6
CONTINUOUS
 62
    4
 10
1786.4407958984379
 20
5819.4810791015634
 11
2286.4407958984375
 21
5819.4810791015634
  0
LINE
  8
_0-0_
  6
CONTINUOUS
 62
    4
 10
1786.4407958984379
 20
5819.4810791015634
 11
1837.1518554687504
 21
5833.069091796875
  0
LINE
  8
_0-0_
  6
CONTINUOUS
 62
    4
 10
1786.4407958984379
 20
5819.4810791015634
 11
1837.1518554687504
 21
5805.8931884765634
  0
LINE
  8
_0-0_
  6
CONTINUOUS
 62
    4
 10
2286.4407958984375
 20
5819.4810791015634
 11
2235.729614257812
 21
5805.8931884765634
  0
LINE
  8
_0-0_
  6
CONTINUOUS
 62
    4
 10
2286.4407958984375
 20
5819.4810791015634
 11
2235.729614257812
 21
5833.069091796875
  0
LINE
  8
_0-0_
  6
CONTINUOUS
 62
    4
 10
2296.4407958984375
 20
5819.4810791015634
 11
2347.15185546875
 21
5833.069091796875
  0
LINE
  8
_0-0_
  6
CONTINUOUS
 62
    4
 10
2296.4407958984375
 20
5819.4810791015634
 11
2347.15185546875
 21
5805.8931884765634
  0
LINE
  8
_0-0_
  6
CONTINUOUS
 62
    4
 10
2296.4407958984375
 20
5819.4810791015634
 11
2466.4406738281254
 21
5819.4810791015634
  0
LINE
  8
_0-0_
  6
CONTINUOUS
 62
    4
 10
1554.4407958984377
 20
5819.4810791015634
 11
1384.440734863281
 21
5819.4810791015634
  0
LINE
  8
_0-0_
  6
CONTINUOUS
 62
    4
 10
1554.4407958984377
 20
5819.4810791015634
 11
1503.7296142578122
 21
5805.8931884765634
  0
LINE
  8
_0-0_
  6
CONTINUOUS
 62
    4
 10
1554.4407958984377
 20
5819.4810791015634
 11
1503.7296142578122
 21
5833.069091796875
  0
TEXT
  8
_0-0_
 62
    7
 10
1406.9407348632819
 20
5826.9810791015625
 40
105
 41
0.8333333333333333
 50
0
  1
32
  0
TEXT
  8
_0-0_
 62
    7
 10
1970.8157958984379
 20
5826.9810791015625
 40
105
 41
0.8333333333333333
 50
0
  1
500
  0
TEXT
  8
_0-0_
 62
    7
 10
1610.8157958984381
 20
5826.9810791015625
 40
105
 41
0.8333333333333333
 50
0
  1
180
  0
TEXT
  8
_0-0_
 62
    7
 10
2356.4407958984375
 20
5826.9810791015625
 40
105
 41
0.8333333333333333
 50
0
  1
10
  0
TEXT
  8
_0-0_
 62
    7
 10
1749.5903320312506
 20
5923.6192626953125
 40
105
 41
0.8333333333333333
 50
0
  1
20
  0
LINE
  8
_0-0_
  6
CONTINUOUS
 62
    4
 10
1907.158203125
 20
5513.4862060546875
 11
1871.8720703125006
 21
5513.4862060546875
  0
LINE
  8
_0-0_
  6
CONTINUOUS
 62
    4
 10
1871.8720703125006
 20
5513.4862060546875
 11
1874.663818359375
 21
5513.4862060546875
  0
LINE
  8
_0-0_
  6
CONTINUOUS
 62
    4
 10
1849.0183105468756
 20
5644.767578125
 11
2033.8447265625002
 21
5644.767578125
  0
LINE
  8
_0-0_
  6
CONTINUOUS
 62
    4
 10
1877.2818603515629
 20
5513.4862060546875
 11
2056.6983642578129
 21
5513.4862060546875
  0
TEXT
  8
_0-0_
 62
    7
 10
1882.5546875
 20
5512.144287109375
 40
87.5
 41
1
 50
0
  1
R=20
  0
TEXT
  8
_0-0_
 62
    7
 10
1859.7009277343759
 20
5643.4257812500009
 40
87.5
 41
1
 50
0
  1
R=30
  0
LINE
  8
_0-0_
  6
CONTINUOUS
 62
    4
 10
2160.8479003906254
 20
4765.89306640625
 11
1882.5926513671877
 21
4765.89306640625
  0
LINE
  8
_0-0_
  6
CONTINUOUS
 62
    4
 10
1684.0885009765631
 20
4765.89306640625
 11
1411.0218505859372
 21
4765.89306640625
  0
TEXT
  8
_0-0_
 62
    7
 10
1955.6494140625002
 20
4769.428955078125
 40
105
 41
0.8333333333333333
 50
0
  1
5-D6
  0
TEXT
  8
_0-0_
 62
    7
 10
1951.4970703125
 20
5349.9940185546884
 40
87.5
 41
1
 50
90
  1
60
  0
TEXT
  8
_0-0_
 62
    7
 10
2129.0682373046875
 20
5339.1016845703125
 40
87.5
 41
1
 50
0
  1
6%
  0
LINE
  8
_0-0_
  6
CONTINUOUS
 62
    4
 10
3961.730224609375
 20
4779.4810791015625
 11
4012.4413304895506
 21
4793.0690789694453
  0
LINE
  8
_0-0_
  6
CONTINUOUS
 62
    4
 10
3961.730224609375
 20
4779.4810791015625
 11
4012.4413304895506
 21
4765.8930792336805
  0
LINE
  8
_0-0_
  6
CONTINUOUS
 62
    4
 10
3961.730224609375
 20
4529.4810791015634
 11
4012.4413304895506
 21
4543.0690789694453
  0
LINE
  8
_0-0_
  6
CONTINUOUS
 62
    4
 10
3961.730224609375
 20
4529.4810791015634
 11
4012.4413304895506
 21
4515.8930792336805
  0
LINE
  8
_0-0_
  6
CONTINUOUS
 62
    4
 10
3881.7302246093754
 20
4964.4810791015625
 11
3961.730224609375
 21
4964.4810791015625
  0
LINE
  8
_0-0_
  6
CONTINUOUS
 62
    4
 10
3961.730224609375
 20
4964.4810791015625
 11
3851.6048964770589
 21
4964.4810791015625
  0
LINE
  8
_0-0_
  6
CONTINUOUS
 62
    4
 10
3961.730224609375
 20
4964.4810791015625
 11
3911.0191187291998
 21
4950.8930792336805
  0
LINE
  8
_0-0_
  6
CONTINUOUS
 62
    4
 10
3961.730224609375
 20
4964.4810791015625
 11
3911.0191187291998
 21
4978.0690789694453
  0
LINE
  8
_0-0_
  6
CONTINUOUS
 62
    4
 10
4036.7302246093759
 20
4964.4810791015625
 11
4087.4413304895515
 21
4978.0690789694453
  0
LINE
  8
_0-0_
  6
CONTINUOUS
 62
    4
 10
4036.7302246093759
 20
4964.4810791015625
 11
4087.4413304895515
 21
4950.8930792336805
  0
LINE
  8
_0-0_
  6
CONTINUOUS
 62
    4
 10
4036.7302246093759
 20
4964.4810791015625
 11
4176.4447287368393
 21
4964.4810791015625
  0
TEXT
  8
_0-0_
 62
    7
 10
4087.0427686228431
 20
4966.7008895204171
 40
105
 41
0.8333333333333333
 50
0
  1
75
  0
LINE
  8
_0-0_
  6
CONTINUOUS
 62
    4
 10
4036.7302246093759
 20
5129.4810791015625
 11
4036.7302246093759
 21
4929.4810791015625
  0
LINE
  8
_0-0_
  6
CONTINUOUS
 62
    4
 10
3961.730224609375
 20
5129.4810791015625
 11
3961.730224609375
 21
4494.4810791015634
  0
LINE
  8
_0-0_
  6
CONTINUOUS
 62
    4
 10
3926.730224609375
 20
5164.4810791015625
 11
3691.730224609375
 21
5164.4810791015625
  0
LINE
  8
_0-0_
  6
CONTINUOUS
 62
    4
 10
3691.730224609375
 20
5234.4810791015625
 11
4006.730224609375
 21
5234.4810791015625
  0
TEXT
  8
_0-0_
 62
    7
 10
3699.5983959664094
 20
5156.9486174084922
 40
105
 41
0.8333333333333333
 50
90
  1
70
  0
LINE
  8
_0-0_
  6
CONTINUOUS
 62
    4
 10
3726.730224609375
 20
5234.4810791015625
 11
3718.691748836441
 21
5204.4810791015625
  0
LINE
  8
_0-0_
  6
CONTINUOUS
 62
    4
 10
3726.730224609375
 20
5234.4810791015625
 11
3734.7687003823089
 21
5204.4810791015625
  0
LINE
  8
_0-0_
  6
CONTINUOUS
 62
    4
 10
3726.730224609375
 20
5164.4810791015625
 11
3734.7687003823089
 21
5194.4810791015625
  0
LINE
  8
_0-0_
  6
CONTINUOUS
 62
    4
 10
3726.730224609375
 20
5234.4810791015625
 11
3726.730224609375
 21
5164.4810791015625
  0
LINE
  8
_0-0_
  6
CONTINUOUS
 62
    4
 10
3726.730224609375
 20
5164.4810791015625
 11
3718.691748836441
 21
5194.4810791015625
  0
LINE
  8
_0-0_
  6
CONTINUOUS
 62
    3
 10
7817.6586914062481
 20
6038.480712890625
 11
8757.6582031250018
 21
6038.480712890625
  0
TEXT
  8
_0-0_
 62
    7
 10
8297.5780653272013
 20
5251.692611084165
 40
87.5
 41
0.7199999999999999
 50
0
  1
シール溝
  0
LINE
  8
_0-0_
  6
CONTINUOUS
 62
    4
 10
8268.3012695312518
 20
5245.925537109375
 11
8562.211053669147
 21
5245.925537109375
  0
TEXT
  8
_0-0_
 62
    7
 10
7775.783691406249
 20
4536.561767578125
 40
105
 41
0.8333333333333333
 50
90
  1
110
  0
TEXT
  8
_0-0_
 62
    7
 10
8895.1669921874981
 20
5367.1500244140625
 40
105
 41
0.8333333333333333
 50
90
  1
5
  0
ARC
  8
_0-0_
  6
CONTINUOUS
 62
    2
 10
6168.65644654088
 20
2880.7920597484271
 40
26.25
 50
90
 51
270
  0
ARC
  8
_0-0_
  6
CONTINUOUS
 62
    2
 10
6221.15644654088
 20
2880.7920597484271
 40
26.25
 50
270
 51
90
  0
LINE
  8
_0-0_
  6
CONTINUOUS
 62
    2
 10
6168.65644654088
 20
2907.0420597484271
 11
6221.15644654088
 21
2907.0420597484271
  0
LINE
  8
_0-0_
  6
CONTINUOUS
 62
    2
 10
6168.65644654088
 20
2854.5420597484271
 11
6221.15644654088
 21
2854.5420597484271
  0
CIRCLE
  8
_0-0_
  6
CONTINUOUS
 62
    2
 10
5669.90644654088
 20
2880.7920597484271
 40
26.25
  0
LINE
  8
_0-0_
  6
CONTINUOUS
 62
    4
 10
5656.78144654088
 20
2858.058892899086
 11
5355.2505498325344
 21
2335.7920597484276
  0
LINE
  8
_0-0_
  6
CONTINUOUS
 62
    4
 10
5656.78144654088
 20
2858.058892899086
 11
5643.193446672999
 21
2807.3477870189094
  0
LINE
  8
_0-0_
  6
CONTINUOUS
 62
    4
 10
5656.78144654088
 20
2858.058892899086
 11
5619.6583405285873
 21
2820.9357868867919
  0
LINE
  8
_0-0_
  6
CONTINUOUS
 62
    2
 10
5494.90644654088
 20
2950.7920597484271
 11
6369.90644654088
 21
2950.7920597484271
  0
LINE
  8
_0-0_
  6
CONTINUOUS
 62
    2
 10
5494.90644654088
 20
2810.7920597484271
 11
6369.90644654088
 21
2810.7920597484271
  0
LINE
  8
_0-0_
  6
CONTINUOUS
 62
    2
 10
5494.90644654088
 20
2810.7920597484271
 11
5494.90644654088
 21
2950.7920597484271
  0
LINE
  8
_0-0_
  6
CONTINUOUS
 62
    2
 10
6369.90644654088
 20
2810.7920597484271
 11
6369.90644654088
 21
2950.7920597484271
  0
LINE
  8
_0-0_
  6
CONTINUOUS
 62
    4
 10
5801.15644654088
 20
2950.7920597484271
 11
5787.5684466729981
 21
3001.5031656286032
  0
LINE
  8
_0-0_
  6
CONTINUOUS
 62
    4
 10
5801.15644654088
 20
2950.7920597484271
 11
5814.7444464087629
 21
3001.5031656286032
  0
LINE
  8
_0-0_
  6
CENTER1
 62
    4
 10
5249.3040944780668
 20
3125.7920597484271
 11
6604.906446540881
 21
3125.7920597484271
  0
LINE
  8
_0-0_
  6
CENTER1
 62
    4
 10
5294.906446540881
 20
2585.7920597484271
 11
5294.906446540881
 21
3175.7920597484276
  0
LINE
  8
_0-0_
  6
CENTER1
 62
    4
 10
6569.906446540881
 20
2585.7920597484271
 11
6569.906446540881
 21
3175.7920597484276
  0
LINE
  8
_0-0_
  6
CONTINUOUS
 62
    2
 10
5294.906446540881
 20
2635.7920597484271
 11
6569.906446540881
 21
2635.7920597484271
  0
LINE
  8
_0-0_
  6
CONTINUOUS
 62
    2
 10
5932.40644654088
 20
2635.7920597484271
 11
5932.40644654088
 21
3125.7920597484271
  0
LINE
  8
_0-0_
  6
CONTINUOUS
 62
    4
 10
5669.90644654088
 20
2405.7920597484276
 11
5932.40644654088
 21
2405.7920597484276
  0
LINE
  8
_0-0_
  6
CONTINUOUS
 62
    4
 10
5932.40644654088
 20
2405.7920597484276
 11
6194.90644654088
 21
2405.7920597484276
  0
LINE
  8
_0-0_
  6
CONTINUOUS
 62
    4
 10
5669.90644654088
 20
2405.7920597484276
 11
5720.6175524210566
 21
2419.3800596163096
  0
LINE
  8
_0-0_
  6
CONTINUOUS
 62
    4
 10
5669.90644654088
 20
2405.7920597484276
 11
5720.6175524210566
 21
2392.2040598805451
  0
LINE
  8
_0-0_
  6
CONTINUOUS
 62
    4
 10
5932.40644654088
 20
2405.7920597484276
 11
5881.6953406607053
 21
2392.2040598805451
  0
LINE
  8
_0-0_
  6
CONTINUOUS
 62
    4
 10
5932.40644654088
 20
2405.7920597484276
 11
5881.6953406607053
 21
2419.3800596163096
  0
LINE
  8
_0-0_
  6
CONTINUOUS
 62
    4
 10
5932.40644654088
 20
2405.7920597484276
 11
5983.1175524210566
 21
2419.3800596163096
  0
LINE
  8
_0-0_
  6
CONTINUOUS
 62
    4
 10
5932.40644654088
 20
2405.7920597484276
 11
5983.1175524210566
 21
2392.2040598805451
  0
LINE
  8
_0-0_
  6
CONTINUOUS
 62
    4
 10
6194.90644654088
 20
2405.7920597484276
 11
6144.1953406607053
 21
2392.2040598805451
  0
LINE
  8
_0-0_
  6
CONTINUOUS
 62
    4
 10
6194.90644654088
 20
2405.7920597484276
 11
6144.1953406607053
 21
2419.3800596163096
  0
TEXT
  8
_0-0_
 62
    7
 10
5757.4107783544404
 20
2414.0323725856655
 40
105
 41
0.8333333333333333
 50
0
  1
75
  0
TEXT
  8
_0-0_
 62
    7
 10
6019.9107783544404
 20
2414.0323725856655
 40
105
 41
0.8333333333333333
 50
0
  1
75
  0
LINE
  8
_0-0_
  6
CONTINUOUS
 62
    4
 10
5494.90644654088
 20
2190.7920597484276
 11
6369.90644654088
 21
2190.7920597484276
  0
LINE
  8
_0-0_
  6
CONTINUOUS
 62
    4
 10
5494.90644654088
 20
2190.7920597484276
 11
5545.6175524210566
 21
2204.3800596163096
  0
LINE
  8
_0-0_
  6
CONTINUOUS
 62
    4
 10
5494.90644654088
 20
2190.7920597484276
 11
5545.6175524210566
 21
2177.2040598805447
  0
LINE
  8
_0-0_
  6
CONTINUOUS
 62
    4
 10
6369.90644654088
 20
2190.7920597484276
 11
6319.1953406607053
 21
2177.2040598805447
  0
LINE
  8
_0-0_
  6
CONTINUOUS
 62
    4
 10
6369.90644654088
 20
2190.7920597484276
 11
6319.1953406607053
 21
2204.3800596163096
  0
TEXT
  8
_0-0_
 62
    7
 10
5865.0357783544404
 20
2199.032372585666
 40
105
 41
0.8333333333333333
 50
0
  1
250
  0
LINE
  8
_0-0_
  6
CONTINUOUS
 62
    4
 10
5669.90644654088
 20
2370.7920597484276
 11
5669.90644654088
 21
2775.7920597484271
  0
LINE
  8
_0-0_
  6
CONTINUOUS
 62
    4
 10
5932.40644654088
 20
2370.7920597484276
 11
5932.40644654088
 21
2600.7920597484271
  0
LINE
  8
_0-0_
  6
CONTINUOUS
 62
    4
 10
6194.90644654088
 20
2370.7920597484276
 11
6194.90644654088
 21
2775.7920597484271
  0
LINE
  8
_0-0_
  6
CONTINUOUS
 62
    4
 10
5494.90644654088
 20
2155.7920597484276
 11
5494.90644654088
 21
2775.7920597484271
  0
LINE
  8
_0-0_
  6
CONTINUOUS
 62
    4
 10
6369.90644654088
 20
2155.7920597484276
 11
6369.90644654088
 21
2775.7920597484271
  0
LINE
  8
_0-0_
  6
CONTINUOUS
 62
    4
 10
6142.40644654088
 20
3255.7920597484271
 11
6247.40644654088
 21
3255.7920597484271
  0
LINE
  8
_0-0_
  6
CONTINUOUS
 62
    4
 10
6142.40644654088
 20
3255.7920597484271
 11
6177.40644654088
 21
3265.1702814835161
  0
LINE
  8
_0-0_
  6
CONTINUOUS
 62
    4
 10
6142.40644654088
 20
3255.7920597484271
 11
6177.40644654088
 21
3246.4138380133381
  0
LINE
  8
_0-0_
  6
CONTINUOUS
 62
    4
 10
6247.40644654088
 20
3255.7920597484271
 11
6212.40644654088
 21
3246.4138380133381
  0
LINE
  8
_0-0_
  6
CONTINUOUS
 62
    4
 10
6247.40644654088
 20
3255.7920597484271
 11
6212.40644654088
 21
3265.1702814835161
  0
TEXT
  8
_0-0_
 62
    7
 10
6151.1607783544404
 20
3264.0323725856651
 40
105
 41
0.8333333333333333
 50
0
  1
30
  0
LINE
  8
_0-0_
  6
CONTINUOUS
 62
    4
 10
6142.40644654088
 20
2985.7920597484271
 11
6142.40644654088
 21
3290.7920597484271
  0
LINE
  8
_0-0_
  6
CONTINUOUS
 62
    4
 10
6247.40644654088
 20
2985.7920597484271
 11
6247.40644654088
 21
3290.7920597484271
  0
LINE
  8
_0-0_
  6
CONTINUOUS
 62
    4
 10
5932.40644654088
 20
3125.7920597484271
 11
5932.40644654088
 21
3490.7920597484271
  0
LINE
  8
_0-0_
  6
CONTINUOUS
 62
    4
 10
5459.90644654088
 20
3455.7920597484271
 11
5510.6175524210566
 21
3469.3800596163096
  0
LINE
  8
_0-0_
  6
CONTINUOUS
 62
    4
 10
5459.90644654088
 20
3455.7920597484271
 11
5510.6175524210566
 21
3442.2040598805451
  0
LINE
  8
_0-0_
  6
CONTINUOUS
 62
    4
 10
5459.90644654088
 20
3455.7920597484271
 11
5510.6175524210566
 21
3469.3800596163096
  0
LINE
  8
_0-0_
  6
CONTINUOUS
 62
    4
 10
5459.90644654088
 20
3455.7920597484271
 11
5510.6175524210566
 21
3442.2040598805451
  0
LINE
  8
_0-0_
  6
CONTINUOUS
 62
    4
 10
5459.90644654088
 20
3455.7920597484271
 11
5510.6175524210566
 21
3469.3800596163096
  0
LINE
  8
_0-0_
  6
CONTINUOUS
 62
    4
 10
5459.90644654088
 20
3455.7920597484271
 11
5510.6175524210566
 21
3442.2040598805451
  0
LINE
  8
_0-0_
  6
CONTINUOUS
 62
    4
 10
5459.90644654088
 20
3455.7920597484271
 11
5932.40644654088
 21
3455.7920597484271
  0
LINE
  8
_0-0_
  6
CONTINUOUS
 62
    4
 10
5932.40644654088
 20
3455.7920597484271
 11
6404.90644654088
 21
3455.7920597484271
  0
LINE
  8
_0-0_
  6
CONTINUOUS
 62
    4
 10
5932.40644654088
 20
3455.7920597484271
 11
5881.6953406607053
 21
3442.2040598805451
  0
LINE
  8
_0-0_
  6
CONTINUOUS
 62
    4
 10
5932.40644654088
 20
3455.7920597484271
 11
5881.6953406607053
 21
3469.3800596163096
  0
LINE
  8
_0-0_
  6
CONTINUOUS
 62
    4
 10
5932.40644654088
 20
3455.7920597484271
 11
5983.1175524210566
 21
3469.3800596163096
  0
LINE
  8
_0-0_
  6
CONTINUOUS
 62
    4
 10
5932.40644654088
 20
3455.7920597484271
 11
5983.1175524210566
 21
3442.2040598805451
  0
LINE
  8
_0-0_
  6
CONTINUOUS
 62
    4
 10
6404.90644654088
 20
3455.7920597484271
 11
6354.1953406607053
 21
3442.2040598805451
  0
LINE
  8
_0-0_
  6
CONTINUOUS
 62
    4
 10
6404.90644654088
 20
3455.7920597484271
 11
6354.1953406607053
 21
3469.3800596163096
  0
TEXT
  8
_0-0_
 62
    7
 10
6100.6823222396924
 20
3464.8107835429768
 40
105
 41
0.8333333333333333
 50
0
  1
135
  0
TEXT
  8
_0-0_
 62
    7
 10
5628.1823222396924
 20
3464.8107835429768
 40
105
 41
0.8333333333333333
 50
0
  1
135
  0
TEXT
  8
_0-0_
 62
    7
 10
4897.9877712634988
 20
3729.4639722869565
 40
105
 41
0.5999999999999999
 50
0
  1
連結プレート(メッキ)
  0
TEXT
  8
_0-0_
 62
    7
 10
4956.3971932149315
 20
3606.1917337069298
 40
105
 41
0.8333333333333333
 50
0
  1
250×40×4.5
  0
LINE
  8
_0-0_
  6
CONTINUOUS
 62
    4
 10
4865.8799528301897
 20
3720.7920597484276
 11
5801.15644654088
 21
3720.7920597484276
  0
LINE
  8
_0-0_
  6
CONTINUOUS
 62
    4
 10
5801.15644654088
 20
2950.7920597484271
 11
5801.15644654088
 21
3720.7920597484276
  0
LINE
  8
_0-0_
  6
CONTINUOUS
 62
    2
 10
5459.90644654088
 20
2968.2920597484271
 11
5459.90644654088
 21
2793.2920597484271
  0
LINE
  8
_0-0_
  6
CONTINUOUS
 62
    2
 10
5459.90644654088
 20
2793.2920597484271
 11
6404.90644654088
 21
2793.2920597484271
  0
LINE
  8
_0-0_
  6
CONTINUOUS
 62
    2
 10
6404.90644654088
 20
2968.2920597484271
 11
6404.90644654088
 21
2793.2920597484271
  0
LINE
  8
_0-0_
  6
CONTINUOUS
 62
    2
 10
5459.90644654088
 20
2968.2920597484271
 11
6404.90644654088
 21
2968.2920597484271
  0
LINE
  8
_0-0_
  6
CONTINUOUS
 62
    2
 10
5403.906446540881
 20
3024.2920597484271
 11
5403.906446540881
 21
2737.2920597484271
  0
LINE
  8
_0-0_
  6
CONTINUOUS
 62
    2
 10
5403.906446540881
 20
2737.2920597484271
 11
6460.90644654088
 21
2737.2920597484271
  0
LINE
  8
_0-0_
  6
CONTINUOUS
 62
    2
 10
6460.90644654088
 20
3024.2920597484271
 11
6460.90644654088
 21
2737.2920597484271
  0
LINE
  8
_0-0_
  6
CONTINUOUS
 62
    2
 10
5403.906446540881
 20
3024.2920597484271
 11
6460.90644654088
 21
3024.2920597484271
  0
LINE
  8
_0-0_
  6
CONTINUOUS
 62
    2
 10
5403.906446540881
 20
3024.2920597484271
 11
5459.90644654088
 21
2968.2920597484271
  0
LINE
  8
_0-0_
  6
CONTINUOUS
 62
    2
 10
5459.90644654088
 20
2793.2920597484271
 11
5403.906446540881
 21
2737.2920597484271
  0
LINE
  8
_0-0_
  6
CONTINUOUS
 62
    2
 10
6460.90644654088
 20
2737.2920597484271
 11
6404.90644654088
 21
2793.2920597484271
  0
LINE
  8
_0-0_
  6
CONTINUOUS
 62
    2
 10
6404.90644654088
 20
2968.2920597484271
 11
6460.90644654088
 21
3024.2920597484271
  0
LINE
  8
_0-0_
  6
CONTINUOUS
 62
    4
 10
5459.90644654088
 20
3003.2920597484271
 11
5459.90644654088
 21
3490.7920597484271
  0
LINE
  8
_0-0_
  6
CONTINUOUS
 62
    4
 10
6404.90644654088
 20
3003.2920597484271
 11
6404.90644654088
 21
3490.7920597484271
  0
LINE
  8
_0-0_
  6
CONTINUOUS
 62
    2
 10
6404.90644654088
 20
1606.75692997917
 11
6460.90644654088
 21
1662.7569299791703
  0
LINE
  8
_0-0_
  6
CONTINUOUS
 62
    2
 10
5459.90644654088
 20
1606.75692997917
 11
5403.906446540881
 21
1662.7569299791703
  0
LINE
  8
_0-0_
  6
CONTINUOUS
 62
    2
 10
5294.906446540881
 20
1662.7569299791703
 11
5403.906446540881
 21
1662.7569299791703
  0
LINE
  8
_0-0_
  6
CONTINUOUS
 62
    2
 10
6460.90644654088
 20
1662.7569299791703
 11
6569.906446540881
 21
1662.7569299791703
  0
LINE
  8
_0-0_
  6
CONTINUOUS
 62
    2
 10
5459.90644654088
 20
1606.75692997917
 11
6404.90644654088
 21
1606.75692997917
  0
LINE
  8
_0-0_
  6
CONTINUOUS
 62
    2
 10
1602.4272832558008
 20
5232.302065076863
 11
1577.5205078125006
 21
5234.4810791015625
  0
LINE
  8
_0-0_
  6
CONTINUOUS
 62
    2
 10
1601.0341255615037
 20
5218.3704881338926
 11
1576.1274414062502
 21
5220.549560546875
  0
LINE
  8
_0-0_
  6
CONTINUOUS
 62
    2
 10
1602.4272832558008
 20
5232.302065076863
 11
1601.0341255615037
 21
5218.3704881338926
  0
LINE
  8
_0-0_
  6
CONTINUOUS
 62
    2
 10
1595.4407958984375
 20
3544.6313476562504
 11
1570.4407958984377
 21
3544.6313476562504
  0
LINE
  8
_0-0_
  6
CONTINUOUS
 62
    2
 10
1595.4407958984375
 20
3532.6313476562504
 11
1595.4407958984375
 21
3544.6313476562504
  0
LINE
  8
_0-0_
  6
CONTINUOUS
 62
    2
 10
1595.4407958984375
 20
3532.6313476562504
 11
1570.4407958984377
 21
3532.6313476562504
  0
TEXT
  8
_0-0_
 62
    7
 10
4965.5439455457371
 20
733.6108789109146
 40
87.5
 41
0.9199999999999999
 50
0
  1
連結プレート､ボルト､ワッシャー､インサートの仕様
  0
TEXT
  8
_0-0_
 62
    7
 10
5078.4422675571067
 20
569.42350065855839
 40
87.5
 41
1
 50
0
  1
1. 材質SS400または同等以上のもの
  0
TEXT
  8
_0-0_
 62
    7
 10
5078.4422675571067
 20
439.42350065855856
 40
87.5
 41
1
 50
0
  1
2. 電気亜鉛ﾒｯｷ(JIS H 8610)2種3級または同等以上のもの
  0
LINE
  8
_0-0_
  6
CONTINUOUS
 62
    4
 10
5059.906446540881
 20
2793.2920597484271
 11
5059.906446540881
 21
2968.2920597484271
  0
LINE
  8
_0-0_
  6
CONTINUOUS
 62
    4
 10
5424.90644654088
 20
2968.2920597484271
 11
5024.906446540881
 21
2968.2920597484271
  0
LINE
  8
_0-0_
  6
CONTINUOUS
 62
    4
 10
5424.90644654088
 20
2793.2920597484271
 11
5024.906446540881
 21
2793.2920597484271
  0
LINE
  8
_0-0_
  6
CONTINUOUS
 62
    4
 10
5059.906446540881
 20
2968.2920597484271
 11
5073.4944464087629
 21
2917.580953868251
  0
LINE
  8
_0-0_
  6
CONTINUOUS
 62
    4
 10
5059.906446540881
 20
2968.2920597484271
 11
5046.3184466729981
 21
2917.580953868251
  0
LINE
  8
_0-0_
  6
CONTINUOUS
 62
    4
 10
5059.906446540881
 20
2793.2920597484271
 11
5046.3184466729981
 21
2844.0031656286032
  0
LINE
  8
_0-0_
  6
CONTINUOUS
 62
    4
 10
5059.906446540881
 20
2793.2920597484271
 11
5073.4944464087629
 21
2844.0031656286032
  0
TEXT
  8
_0-0_
 62
    7
 10
5055.073809049798
 20
2836.4815832364779
 40
105
 41
0.8333333333333333
 50
90
  1
50
  0
LINE
  8
_0-0_
  6
CONTINUOUS
 62
    4
 10
6834.906446540881
 20
2907.0420597484271
 11
6821.318446672999
 21
2957.7531656286032
  0
LINE
  8
_0-0_
  6
CONTINUOUS
 62
    4
 10
6834.906446540881
 20
2907.0420597484271
 11
6848.4944464087639
 21
2957.7531656286032
  0
LINE
  8
_0-0_
  6
CONTINUOUS
 62
    4
 10
6834.906446540881
 20
2854.5420597484271
 11
6848.4944464087639
 21
2803.8309538682515
  0
LINE
  8
_0-0_
  6
CONTINUOUS
 62
    4
 10
6834.906446540881
 20
2854.5420597484271
 11
6821.318446672999
 21
2803.8309538682515
  0
LINE
  8
_0-0_
  6
CONTINUOUS
 62
    4
 10
6834.906446540881
 20
2854.5420597484271
 11
6834.906446540881
 21
2694.5420597484271
  0
LINE
  8
_0-0_
  6
CONTINUOUS
 62
    4
 10
6834.906446540881
 20
2907.0420597484271
 11
6834.906446540881
 21
3007.0420597484271
  0
TEXT
  8
_0-0_
 62
    7
 10
6827.5887629577055
 20
2701.1660393156012
 40
105
 41
0.8333333333333333
 50
90
  1
15
  0
LINE
  8
_0-0_
  6
CONTINUOUS
 62
    4
 10
6282.40644654088
 20
2907.0420597484271
 11
6869.906446540881
 21
2907.0420597484271
  0
LINE
  8
_0-0_
  6
CONTINUOUS
 62
    4
 10
6282.40644654088
 20
2854.5420597484271
 11
6869.906446540881
 21
2854.5420597484271
  0
LINE
  8
_0-0_
  6
CONTINUOUS
 62
    4
 10
7099.906446540881
 20
2810.7920597484271
 11
7099.906446540881
 21
2950.7920597484271
  0
LINE
  8
_0-0_
  6
CONTINUOUS
 62
    4
 10
7099.906446540881
 20
2950.7920597484271
 11
7113.4944464087629
 21
2900.0809538682515
  0
LINE
  8
_0-0_
  6
CONTINUOUS
 62
    4
 10
7099.906446540881
 20
2950.7920597484271
 11
7086.3184466729981
 21
2900.0809538682515
  0
LINE
  8
_0-0_
  6
CONTINUOUS
 62
    4
 10
7099.906446540881
 20
2810.7920597484271
 11
7086.3184466729981
 21
2861.5031656286032
  0
LINE
  8
_0-0_
  6
CONTINUOUS
 62
    4
 10
7099.906446540881
 20
2810.7920597484271
 11
7113.4944464087629
 21
2861.5031656286032
  0
TEXT
  8
_0-0_
 62
    7
 10
7083.2028639841928
 20
2836.2068779455844
 40
105
 41
0.8333333333333333
 50
90
  1
40
  0
LINE
  8
_0-0_
  6
CONTINUOUS
 62
    4
 10
6399.906446540881
 20
2950.7920597484271
 11
7134.906446540881
 21
2950.7920597484271
  0
LINE
  8
_0-0_
  6
CONTINUOUS
 62
    4
 10
6399.906446540881
 20
2810.7920597484271
 11
7134.906446540881
 21
2810.7920597484271
  0
TEXT
  8
_0-0_
 62
    7
 10
7866.5507083333332
 20
6036.2366701388882
 40
112
 41
1
 50
0
  1
ｼﾞｮｲﾝﾄ部 詳細図
  0
LINE
  8
_0-0_
  6
CONTINUOUS
 62
    4
 10
5147.9897313510891
 20
2335.7920597484276
 11
5355.2505498325344
 21
2335.7920597484276
  0
TEXT
  8
_0-0_
 62
    7
 10
5147.241653958511
 20
2340.5482881953876
 40
105
 41
0.8333333333333333
 50
0
  1
φ
  0
TEXT
  8
_0-0_
 62
    7
 10
5233.5500798618322
 20
2339.706155150191
 40
105
 41
0.8333333333333333
 50
0
  1
15
  0
LINE
  8
_0-0_
  6
CONTINUOUS
 62
    4
 10
8699.2070312499981
 20
5483.752197265625
 11
8934.2070312500018
 21
5483.752197265625
  0
LINE
  8
_0-0_
  6
CONTINUOUS
 62
    4
 10
8899.2070312500018
 20
5483.752197265625
 11
8907.2451171875
 21
5513.752197265625
  0
LINE
  8
_0-0_
  6
CONTINUOUS
 62
    4
 10
8899.2070312500018
 20
5483.752197265625
 11
8891.1679687499981
 21
5513.752197265625
  0
LINE
  8
_0-0_
  6
CONTINUOUS
 62
    4
 10
8899.2070312500018
 20
5483.752197265625
 11
8899.2070312500018
 21
5554.614013671875
  0
LINE
  8
_0-0_
  6
CONTINUOUS
 62
    2
 10
8181.43115234375
 20
4669.90576171875
 11
8662.2451171875
 21
4698.754638671875
  0
LINE
  8
_0-0_
  6
CONTINUOUS
 62
    2
 10
8662.2451171875
 20
4698.754638671875
 11
8672.2451171875
 21
4548.754638671875
  0
LINE
  8
_0-0_
  6
CONTINUOUS
 62
    4
 10
8563.2882843017578
 20
4634.3795471191406
 11
8556.2713165283203
 21
4598.8954162597656
  0
LINE
  8
_0-0_
  6
CONTINUOUS
 62
    4
 10
8563.2882843017578
 20
4634.3795471191406
 11
8574.9950103759783
 21
4600.0189514160156
  0
LINE
  8
_0-0_
  6
CONTINUOUS
 62
    4
 10
8563.2882843017578
 20
4634.3795471191406
 11
8566.9469146728515
 21
4579.5001525878906
  0
LINE
  8
_0-0_
  6
CONTINUOUS
 62
    4
 10
8552.023094177246
 20
4803.3605422973632
 11
8559.4081649780273
 21
4692.584665775299
  0
LINE
  8
_0-0_
  6
CONTINUOUS
 62
    4
 10
8559.4081649780273
 20
4692.584665775299
 11
8547.7014389038085
 21
4726.9450168609619
  0
LINE
  8
_0-0_
  6
CONTINUOUS
 62
    4
 10
8559.4081649780273
 20
4692.584665775299
 11
8566.4250717163085
 21
4728.0685520172128
  0
TEXT
  8
_0-0_
 62
    7
 10
8552.5879491002597
 20
4719.5379421170237
 40
105
 41
0.8333333333333333
 50
93.999999890000097
  1
50
  0
LINE
  8
_0-0_
  6
CONTINUOUS
 62
    4
 10
8332.8436584472656
 20
4881.1398162841796
 11
8626.7534255981445
 21
4881.1398162841796
  0
TEXT
  8
_0-0_
 62
    7
 10
8362.1204528808593
 20
4886.9068908691406
 40
87.5
 41
0.7199999999999999
 50
0
  1
シール溝
  0
LINE
  8
_0-0_
  6
CONTINUOUS
 62
    4
 10
8242.4905700683593
 20
4646.7933845520019
 11
8248.0551452636718
 21
4698.9977308511734
  0
LINE
  8
_0-0_
  6
CONTINUOUS
 62
    4
 10
8332.8436584472656
 20
4881.1398162841796
 11
8242.4905700683593
 21
4646.7933845520019
  0
LINE
  8
_0-0_
  6
CONTINUOUS
 62
    4
 10
8242.4905700683593
 20
4646.7933845520019
 11
8273.4117736816406
 21
4689.2213640213012
  0
TEXT
  8
_0-0_
 62
    7
 10
3509.7195512751613
 20
5662.159942626954
 40
105
 41
1
 50
0
  1
ｲﾝｻｰﾄ M12
  0
LINE
  8
_0-0_
  6
CONTINUOUS
 62
    4
 10
3490.7091447810212
 20
5651.9810791015625
 11
4036.730224609375
 21
5651.9810791015625
  0
TEXT
  8
_0-0_
 62
    7
 10
788.56250000000045
 20
6496.25
 40
157.5
 41
1
 50
0
  1
Ｌ型街渠－両面Ｂ(水抜き)
  0
LINE
  8
_0-0_
  6
CONTINUOUS
 62
    6
 10
1969.4799804687504
 20
6235.6383056640625
 11
2532.4167480468754
 21
6235.6383056640625
  0
TEXT
  8
_0-0_
 62
    7
 10
2035.241943359375
 20
6231.9365234375
 40
122.5
 41
1.1428571428571427
 50
0
  1
l=997
  0
LINE
  8
_0-0_
  6
CONTINUOUS
 62
    4
 10
4958.7302246093759
 20
5129.4810791015625
 11
4958.7302246093759
 21
4494.4810791015634
  0
LINE
  8
_0-0_
  6
CONTINUOUS
 62
    4
 10
3961.730224609375
 20
4529.4810791015634
 11
4958.7302246093759
 21
4529.4810791015634
  0
LINE
  8
_0-0_
  6
CONTINUOUS
 62
    4
 10
4458.730224609375
 20
5130.2849266788562
 11
4458.730224609375
 21
4745.2849266788562
  0
LINE
  8
_0-0_
  6
CONTINUOUS
 62
    4
 10
2296.4407958984375
 20
4529.48095703125
 11
1554.4407958984377
 21
4529.48095703125
  0
LINE
  8
_0-0_
  6
CONTINUOUS
 62
    4
 10
2296.4407958984375
 20
4529.48095703125
 11
2245.7296142578129
 21
4515.8930664062509
  0
LINE
  8
_0-0_
  6
CONTINUOUS
 62
    4
 10
2296.4407958984375
 20
4529.48095703125
 11
2245.7296142578129
 21
4543.0690917968759
  0
LINE
  8
_0-0_
  6
CONTINUOUS
 62
    4
 10
1554.4407958984377
 20
4529.48095703125
 11
1605.1518554687502
 21
4543.0690917968759
  0
LINE
  8
_0-0_
  6
CONTINUOUS
 62
    4
 10
1554.4407958984377
 20
4529.48095703125
 11
1605.1518554687502
 21
4515.8930664062509
  0
TEXT
  8
_0-0_
 62
    7
 10
1859.8157958984375
 20
4536.98095703125
 40
105
 41
0.8333333333333333
 50
0
  1
742
  0
LINE
  8
_0-0_
  6
CONTINUOUS
 62
    4
 10
2296.4407958984375
 20
5129.4810791015625
 11
2296.4407958984375
 21
4494.48095703125
  0
LINE
  8
_0-0_
  6
CONTINUOUS
 62
    4
 10
1554.4407958984377
 20
5129.4810791015625
 11
1554.4407958984377
 21
4899.48095703125
  0
TEXT
  8
_0-0_
 62
    7
 10
4142.605224609375
 20
4786.9810791015634
 40
105
 41
0.8333333333333333
 50
0
  1
497
  0
LINE
  8
_0-0_
  6
CONTINUOUS
 62
    4
 10
4458.730224609375
 20
4779.4810791015625
 11
4509.4413304895506
 21
4793.0690789694453
  0
LINE
  8
_0-0_
  6
CONTINUOUS
 62
    4
 10
4458.730224609375
 20
4779.4810791015625
 11
4509.4413304895506
 21
4765.8930792336805
  0
LINE
  8
_0-0_
  6
CONTINUOUS
 62
    4
 10
4458.730224609375
 20
4779.4810791015625
 11
4408.0191187291993
 21
4793.0690789694453
  0
LINE
  8
_0-0_
  6
CONTINUOUS
 62
    4
 10
4458.730224609375
 20
4779.4810791015625
 11
4408.0191187291993
 21
4765.8930792336805
  0
LINE
  8
_0-0_
  6
CONTINUOUS
 62
    4
 10
3961.730224609375
 20
4779.4810791015625
 11
4458.730224609375
 21
4779.4810791015625
  0
LINE
  8
_0-0_
  6
CONTINUOUS
 62
    4
 10
4958.730224609374
 20
4779.4810791015625
 11
4908.0191187291993
 21
4765.8930792336805
  0
LINE
  8
_0-0_
  6
CONTINUOUS
 62
    4
 10
4958.730224609374
 20
4779.4810791015625
 11
4908.0191187291993
 21
4793.0690789694453
  0
TEXT
  8
_0-0_
 62
    7
 10
4639.605224609375
 20
4786.9810791015634
 40
105
 41
0.8333333333333333
 50
0
  1
500
  0
LINE
  8
_0-0_
  6
CONTINUOUS
 62
    4
 10
4458.730224609375
 20
4779.4810791015625
 11
4958.7302246093759
 21
4779.4810791015625
  0
LINE
  8
_0-0_
  6
CONTINUOUS
 62
    4
 10
4958.7302246093759
 20
4529.4810791015634
 11
4908.0191187291993
 21
4515.8930792336805
  0
LINE
  8
_0-0_
  6
CONTINUOUS
 62
    4
 10
4958.7302246093759
 20
4529.4810791015634
 11
4908.0191187291993
 21
4543.0690789694453
  0
TEXT
  8
_0-0_
 62
    7
 10
4391.105224609375
 20
4536.9810791015625
 40
105
 41
0.8333333333333333
 50
0
  1
997
  0
LINE
  8
_0-0_
  6
CONTINUOUS
 62
    4
 10
4958.7302246093759
 20
5684.4810791015625
 11
5009.4411621093759
 21
5670.8931884765625
  0
LINE
  8
_0-0_
  6
CONTINUOUS
 62
    4
 10
4958.7302246093759
 20
5684.4810791015625
 11
5009.4411621093759
 21
5698.0690917968759
  0
LINE
  8
_0-0_
  6
CONTINUOUS
 62
    2
 10
4954.230224609375
 20
5484.4810791015625
 11
4954.230224609375
 21
5288.9810791015625
  0
LINE
  8
_0-0_
  6
CONTINUOUS
 62
    2
 10
4958.7302246093759
 20
5284.4810791015625
 11
4954.230224609375
 21
5288.9810791015625
  0
LINE
  8
_0-0_
  6
CONTINUOUS
 62
    2
 10
4958.7302246093759
 20
5265.4810791015625
 11
4942.3967285156259
 21
5265.4810791015625
  0
LINE
  8
_0-0_
  6
CONTINUOUS
 62
    2
 10
4958.7302246093759
 20
5259.4810791015634
 11
4942.3967285156259
 21
5259.4810791015634
  0
LINE
  8
_0-0_
  6
CONTINUOUS
 62
    2
 10
4958.7302246093759
 20
5209.4810791015625
 11
4942.3967285156259
 21
5209.4810791015625
  0
LINE
  8
_0-0_
  6
CONTINUOUS
 62
    2
 10
4811.730224609374
 20
5265.4810791015625
 11
4817.730224609374
 21
5259.4810791015634
  0
LINE
  8
_0-0_
  6
CONTINUOUS
 62
    2
 10
4817.730224609374
 20
5209.4810791015625
 11
4811.730224609374
 21
5203.4810791015625
  0
LINE
  8
_0-0_
  6
CONTINUOUS
 62
    2
 10
4942.3967285156259
 20
5265.4810791015625
 11
4811.730224609374
 21
5265.4810791015625
  0
LINE
  8
_0-0_
  6
CONTINUOUS
 62
    2
 10
4942.3967285156259
 20
5209.4810791015625
 11
4817.730224609374
 21
5209.4810791015625
  0
LINE
  8
_0-0_
  6
CONTINUOUS
 62
    2
 10
4817.730224609374
 20
5259.4810791015634
 11
4942.3967285156259
 21
5259.4810791015634
  0
LINE
  8
_0-0_
  6
CONTINUOUS
 62
    2
 10
4811.730224609374
 20
5265.4810791015625
 11
4811.730224609374
 21
5203.4810791015625
  0
LINE
  8
_0-0_
  6
CONTINUOUS
 62
    2
 10
4817.730224609374
 20
5259.4810791015634
 11
4817.730224609374
 21
5209.4810791015625
  0
LINE
  8
_0-0_
  6
CONTINUOUS
 62
    4
 10
4608.7302246093759
 20
5684.4810791015625
 11
4780.709228515625
 21
5684.4810791015625
  0
LINE
  8
_0-0_
  6
CONTINUOUS
 62
    4
 10
4308.7302246093759
 20
5684.4810791015625
 11
4138.730224609375
 21
5684.4810791015625
  0
LINE
  8
_0-0_
  6
CONTINUOUS
 62
    4
 10
4778.7302246093768
 20
5684.4810791015625
 11
4608.7302246093759
 21
5684.4810791015625
  0
LINE
  8
_0-0_
  6
CONTINUOUS
 62
    2
 10
4338.730224609375
 20
5378.069091796875
 11
4578.730224609374
 21
5378.069091796875
  0
LINE
  8
_0-0_
  6
CONTINUOUS
 62
    2
 10
4348.730224609375
 20
5358.069091796875
 11
4568.7302246093768
 21
5358.069091796875
  0
LINE
  8
_0-0_
  6
CONTINUOUS
 62
    2
 10
4608.7302246093759
 20
5348.0690917968759
 11
4608.7302246093759
 21
5298.069091796875
  0
LINE
  8
_0-0_
  6
CONTINUOUS
 62
    2
 10
4598.730224609374
 20
5328.069091796875
 11
4598.730224609374
 21
5298.069091796875
  0
LINE
  8
_0-0_
  6
CONTINUOUS
 62
    2
 10
4308.7302246093759
 20
5348.0690917968759
 11
4308.7302246093759
 21
5298.069091796875
  0
LINE
  8
_0-0_
  6
CONTINUOUS
 62
    2
 10
4318.730224609374
 20
5328.069091796875
 11
4318.730224609374
 21
5298.069091796875
  0
LINE
  8
_0-0_
  6
CONTINUOUS
 62
    4
 10
4608.7302246093759
 20
5413.069091796875
 11
4608.7302246093759
 21
5919.4810791015625
  0
LINE
  8
_0-0_
  6
CONTINUOUS
 62
    4
 10
4598.730224609374
 20
5413.069091796875
 11
4598.730224609374
 21
5719.4810791015625
  0
LINE
  8
_0-0_
  6
CONTINUOUS
 62
    4
 10
4318.730224609374
 20
5413.069091796875
 11
4318.730224609374
 21
5719.4810791015625
  0
LINE
  8
_0-0_
  6
CONTINUOUS
 62
    4
 10
4308.7302246093759
 20
5413.069091796875
 11
4308.7302246093759
 21
5919.4810791015625
  0
LINE
  8
_0-0_
  6
CONTINUOUS
 62
    4
 10
5088.730224609374
 20
5684.4810791015625
 11
4958.7302246093759
 21
5684.4810791015625
  0
LINE
  8
_0-0_
  6
CONTINUOUS
 62
    4
 10
4958.7302246093759
 20
5519.4810791015625
 11
4958.7302246093759
 21
5719.4810791015625
  0
ARC
  8
_0-0_
  6
CONTINUOUS
 62
    2
 10
4578.730224609374
 20
5348.0690917968759
 40
30
 50
0
 51
90
  0
ARC
  8
_0-0_
  6
CONTINUOUS
 62
    2
 10
4338.730224609375
 20
5348.0690917968759
 40
30
 50
90
 51
180
  0
ARC
  8
_0-0_
  6
CONTINUOUS
 62
    2
 10
4568.7302246093768
 20
5328.069091796875
 40
30
 50
0
 51
90
  0
ARC
  8
_0-0_
  6
CONTINUOUS
 62
    2
 10
4348.730224609375
 20
5328.069091796875
 40
30
 50
90
 51
180
  0
CIRCLE
  8
_0-0_
  6
CONTINUOUS
 62
    2
 10
4883.7302246093768
 20
5234.4810791015625
 40
7.5
  0
TEXT
  8
_0-0_
 62
    7
 10
5092.1588070759698
 20
5524.7343250052017
 40
87.5
 41
0.7199999999999999
 50
0
  1
シール溝
  0
LINE
  8
_0-0_
  6
CONTINUOUS
 62
    4
 10
5364.1308265058278
 20
5518.9149633871684
 11
5070.2210423679325
 21
5518.9149633871684
  0
TEXT
  8
_0-0_
 62
    7
 10
5026.5822753906259
 20
5688.5208740234384
 40
105
 41
0.8333333333333333
 50
0
  1
5
  0
LINE
  8
_0-0_
  6
CONTINUOUS
 62
    4
 10
4598.730224609374
 20
5684.4810791015625
 11
4318.730224609374
 21
5684.4810791015625
  0
LINE
  8
_0-0_
  6
CONTINUOUS
 62
    4
 10
4318.730224609374
 20
5684.4810791015625
 11
4369.4411621093759
 21
5670.8931884765625
  0
LINE
  8
_0-0_
  6
CONTINUOUS
 62
    4
 10
4318.730224609374
 20
5684.4810791015625
 11
4369.4411621093759
 21
5698.0690917968759
  0
LINE
  8
_0-0_
  6
CONTINUOUS
 62
    4
 10
4598.730224609374
 20
5684.4810791015625
 11
4548.018798828125
 21
5698.0690917968759
  0
LINE
  8
_0-0_
  6
CONTINUOUS
 62
    4
 10
4598.730224609374
 20
5684.4810791015625
 11
4548.018798828125
 21
5670.8931884765625
  0
LINE
  8
_0-0_
  6
CONTINUOUS
 62
    4
 10
4308.7302246093759
 20
5684.4810791015625
 11
4258.018798828125
 21
5698.0690917968759
  0
LINE
  8
_0-0_
  6
CONTINUOUS
 62
    4
 10
4308.7302246093759
 20
5684.4810791015625
 11
4258.018798828125
 21
5670.8931884765625
  0
LINE
  8
_0-0_
  6
CONTINUOUS
 62
    4
 10
4608.7302246093759
 20
5684.4810791015625
 11
4659.4411621093759
 21
5670.8931884765625
  0
LINE
  8
_0-0_
  6
CONTINUOUS
 62
    4
 10
4608.7302246093759
 20
5684.4810791015625
 11
4659.4411621093759
 21
5698.0690917968759
  0
LINE
  8
_0-0_
  6
CONTINUOUS
 62
    4
 10
4608.7302246093759
 20
5884.4810791015625
 11
4308.7302246093759
 21
5884.4810791015625
  0
LINE
  8
_0-0_
  6
CONTINUOUS
 62
    4
 10
4608.7302246093759
 20
5884.4810791015625
 11
4558.018798828125
 21
5898.0690917968759
  0
LINE
  8
_0-0_
  6
CONTINUOUS
 62
    4
 10
4608.7302246093759
 20
5884.4810791015625
 11
4558.018798828125
 21
5870.8931884765625
  0
LINE
  8
_0-0_
  6
CONTINUOUS
 62
    4
 10
4308.7302246093759
 20
5884.4810791015625
 11
4359.441162109374
 21
5870.8931884765625
  0
LINE
  8
_0-0_
  6
CONTINUOUS
 62
    4
 10
4308.7302246093759
 20
5884.4810791015625
 11
4359.441162109374
 21
5898.0690917968759
  0
TEXT
  8
_0-0_
 62
    7
 10
4671.9338378906259
 20
5692.1287841796875
 40
105
 41
0.8333333333333333
 50
0
  1
10
  0
TEXT
  8
_0-0_
 62
    7
 10
4392.8728027343759
 20
5692.9063720703125
 40
105
 41
0.8333333333333333
 50
0
  1
280
  0
TEXT
  8
_0-0_
 62
    7
 10
4393.022705078124
 20
5892.5531005859375
 40
105
 41
0.8333333333333333
 50
0
  1
300
  0
TEXT
  8
_0-0_
 62
    7
 10
4161.230224609374
 20
5691.9810791015625
 40
105
 41
0.8333333333333333
 50
0
  1
10
  0
LINE
  8
_0-0_
  6
CONTINUOUS
 62
    2
 10
4958.7302246093759
 20
5484.4810791015625
 11
4958.7302246093759
 21
5164.4810791015625
  0
LINE
  8
_0-0_
  6
CONTINUOUS
 62
    4
 10
5070.2253515443935
 20
5518.9149633871684
 11
4957.0676260449818
 21
5382.2912833079653
  0
LINE
  8
_0-0_
  6
CONTINUOUS
 62
    4
 10
4957.0676260449818
 20
5382.2912833079653
 11
4978.9498949476883
 21
5430.0135664435156
  0
LINE
  8
_0-0_
  6
CONTINUOUS
 62
    4
 10
4957.0676260449818
 20
5382.2912833079653
 11
4999.8793683749427
 21
5412.6788583785928
  0
LINE
  8
_0-0_
  6
CONTINUOUS
 62
    2
 10
4958.7302246093759
 20
5484.4810791015625
 11
3961.730224609375
 21
5484.4810791015625
  0
LINE
  8
_0-0_
  6
DASHED1
 62
    2
 10
4954.230224609375
 20
5314.4810791015625
 11
3961.730224609375
 21
5314.4810791015625
  0
LINE
  8
_0-0_
  6
DASHED1
 62
    2
 10
4954.230224609375
 20
5294.4810791015634
 11
3961.730224609375
 21
5294.4810791015634
  0
LINE
  8
_0-0_
  6
CONTINUOUS
 62
    2
 10
4958.7302246093759
 20
5164.4810791015625
 11
3961.730224609375
 21
5164.4810791015625
  0
LINE
  8
_0-0_
  6
CONTINUOUS
 62
    4
 10
4036.730224609375
 20
5651.9810791015625
 11
4036.730224609375
 21
5241.9810791015634
  0
LINE
  8
_0-0_
  6
CONTINUOUS
 62
    4
 10
4036.730224609375
 20
5241.9810791015634
 11
4023.1422247414925
 21
5292.692184981739
  0
LINE
  8
_0-0_
  6
CONTINUOUS
 62
    4
 10
4036.730224609375
 20
5241.9810791015634
 11
4050.3182244772574
 21
5292.692184981739
  0
LINE
  8
_0-0_
  6
CONTINUOUS
 62
    4
 10
4466.9928860996778
 20
5226.465811799323
 11
4587.8064192629226
 21
5017.2106341186772
  0
LINE
  8
_0-0_
  6
CONTINUOUS
 62
    4
 10
4587.8064192629226
 20
5017.2106341186772
 11
5898.0746459960982
 21
5017.2106341186772
  0
LINE
  8
_0-0_
  6
CONTINUOUS
 62
    4
 10
4466.9928860996778
 20
5226.465811799323
 11
4504.1159921119724
 21
5189.3427057870294
  0
LINE
  8
_0-0_
  6
CONTINUOUS
 62
    4
 10
4466.9928860996778
 20
5226.465811799323
 11
4480.5808859675607
 21
5175.7547059191474
  0
LINE
  8
_0-0_
  6
CONTINUOUS
 62
    4
 10
1519.4407958984377
 20
2616.6313476562504
 11
1084.4407348632817
 21
2616.6313476562504
  0
LINE
  8
_0-0_
  6
CONTINUOUS
 62
    4
 10
1119.4407348632817
 20
3613.6313476562504
 11
1119.4407348632817
 21
2616.6313476562504
  0
TEXT
  8
_0-0_
 62
    7
 10
1111.9407348632819
 20
3046.0063476562504
 40
105
 41
0.8333333333333333
 50
90
  1
997
  0
LINE
  8
_0-0_
  6
CONTINUOUS
 62
    4
 10
1519.4407958984377
 20
2616.6313476562504
 11
1084.4407348632817
 21
2616.6313476562504
  0
LINE
  8
_0-0_
  6
CONTINUOUS
 62
    4
 10
1319.4407348632819
 20
2616.6313476562504
 11
1333.0287475585944
 21
2565.9204101562504
  0
LINE
  8
_0-0_
  6
CONTINUOUS
 62
    4
 10
1319.4407348632819
 20
2616.6313476562504
 11
1305.8527221679685
 21
2565.9204101562504
  0
LINE
  8
_0-0_
  6
CONTINUOUS
 62
    4
 10
1319.4407348632819
 20
2751.6313476562509
 11
1319.4407348632819
 21
2651.6313476562504
  0
LINE
  8
_0-0_
  6
CONTINUOUS
 62
    4
 10
1319.4407348632819
 20
2651.6313476562504
 11
1305.8527221679685
 21
2702.3422851562509
  0
LINE
  8
_0-0_
  6
CONTINUOUS
 62
    4
 10
1319.4407348632819
 20
2651.6313476562504
 11
1333.0287475585944
 21
2702.3422851562509
  0
LINE
  8
_0-0_
  6
CONTINUOUS
 62
    4
 10
1519.4407958984377
 20
2651.6313476562504
 11
1284.4407348632819
 21
2651.6313476562504
  0
LINE
  8
_0-0_
  6
CONTINUOUS
 62
    5
 10
1594.4407958984377
 20
2651.6313476562504
 11
2271.4407958984379
 21
2651.6313476562504
  0
LINE
  8
_0-0_
  6
CONTINUOUS
 62
    2
 10
1570.4407958984377
 20
2753.6313476562504
 11
1570.4407958984377
 21
2616.6313476562504
  0
LINE
  8
_0-0_
  6
CONTINUOUS
 62
    2
 10
1560.4407958984379
 20
2763.6313476562504
 11
1554.4407958984377
 21
2763.6313476562504
  0
LINE
  8
_0-0_
  6
CONTINUOUS
 62
    4
 10
1319.4407348632819
 20
2616.6313476562504
 11
1319.4407348632819
 21
2456.6313476562504
  0
ARC
  8
_0-0_
  6
CONTINUOUS
 62
    2
 10
1560.4407958984379
 20
2753.6313476562504
 40
10
 50
0
 51
90
  0
LINE
  8
_0-0_
  6
CONTINUOUS
 62
    4
 10
1554.4407958984377
 20
2146.6313476562495
 11
1503.7296900182623
 21
2133.0433477883671
  0
LINE
  8
_0-0_
  6
CONTINUOUS
 62
    4
 10
1554.4407958984377
 20
2146.6313476562495
 11
1503.7296900182623
 21
2160.2193475241319
  0
LINE
  8
_0-0_
  6
CONTINUOUS
 62
    4
 10
1554.4407958984377
 20
2576.6313476562504
 11
1554.4407958984377
 21
2111.6313476562495
  0
LINE
  8
_0-0_
  6
CONTINUOUS
 62
    4
 10
1604.4407958984384
 20
2146.6313476562495
 11
1655.1519017786138
 21
2160.2193475241319
  0
LINE
  8
_0-0_
  6
CONTINUOUS
 62
    4
 10
1604.4407958984384
 20
2146.6313476562495
 11
1655.1519017786138
 21
2133.0433477883671
  0
LINE
  8
_0-0_
  6
CONTINUOUS
 62
    4
 10
1604.4407958984384
 20
2576.6313476562504
 11
1604.4407958984384
 21
2111.6313476562495
  0
LINE
  8
_0-0_
  6
CONTINUOUS
 62
    4
 10
1554.4407958984377
 20
2146.6313476562495
 11
1384.4407958984386
 21
2146.6313476562495
  0
TEXT
  8
_0-0_
 62
    7
 10
1406.9407958984375
 20
2154.13134765625
 40
105
 41
0.8333333333333333
 50
0
  1
50
  0
LINE
  8
_0-0_
  6
CONTINUOUS
 62
    4
 10
1704.4407958984375
 20
2146.6313476562495
 11
1604.4407958984384
 21
2146.6313476562495
  0
LINE
  8
_0-0_
  6
CONTINUOUS
 62
    4
 10
1863.6298459755678
 20
2383.8046967128534
 11
2157.5396301134628
 21
2383.8046967128534
  0
TEXT
  8
_0-0_
 62
    7
 10
1873.1018654054259
 20
2389.6240583308867
 40
87.5
 41
0.7199999999999999
 50
0
  1
シール溝
  0
LINE
  8
_0-0_
  6
CONTINUOUS
 62
    4
 10
2157.5353209370023
 20
2616.6313476562495
 11
2143.9473210691189
 21
2565.9202417760739
  0
LINE
  8
_0-0_
  6
CONTINUOUS
 62
    4
 10
2157.5353209370023
 20
2616.6313476562495
 11
2171.1233208048838
 21
2565.9202417760739
  0
LINE
  8
_0-0_
  6
CONTINUOUS
 62
    4
 10
2157.5353209370023
 20
2616.6313476562495
 11
2157.5353209370023
 21
2383.8046967128534
  0
LINE
  8
_0-0_
  6
CONTINUOUS
 62
    4
 10
2534.4407958984379
 20
2616.63134765625
 11
2520.8527960305546
 21
2565.9202417760743
  0
LINE
  8
_0-0_
  6
CONTINUOUS
 62
    4
 10
2534.4407958984379
 20
2616.63134765625
 11
2548.0287957663213
 21
2565.9202417760743
  0
LINE
  8
_0-0_
  6
CONTINUOUS
 62
    4
 10
2534.4407958984379
 20
2616.63134765625
 11
2534.4407958984379
 21
2525.6313476562504
  0
LINE
  8
_0-0_
  6
CONTINUOUS
 62
    4
 10
2331.4407958984375
 20
2616.63134765625
 11
2569.4407958984379
 21
2616.63134765625
  0
TEXT
  8
_0-0_
 62
    7
 10
1312.1230512801073
 20
2463.2553272234235
 40
105
 41
0.8333333333333333
 50
90
  1
35
  0
LINE
  8
_0-0_
  6
CONTINUOUS
 62
    2
 10
1595.4407958984375
 20
2697.6313476562509
 11
1570.4407958984377
 21
2697.6313476562509
  0
LINE
  8
_0-0_
  6
CONTINUOUS
 62
    2
 10
1595.4407958984375
 20
2697.6313476562509
 11
1595.4407958984375
 21
2685.6313476562504
  0
LINE
  8
_0-0_
  6
CONTINUOUS
 62
    2
 10
1595.4407958984375
 20
2685.6313476562504
 11
1570.4407958984377
 21
2685.6313476562504
  0
LINE
  8
_0-0_
  6
CONTINUOUS
 62
    4
 10
2261.4407958984375
 20
2576.6313476562504
 11
2261.4407958984375
 21
2111.6313476562495
  0
LINE
  8
_0-0_
  6
CONTINUOUS
 62
    4
 10
2296.4407958984375
 20
2576.6313476562504
 11
2296.4407958984375
 21
2111.6313476562495
  0
TEXT
  8
_0-0_
 62
    7
 10
2359.4881244852681
 20
2154.7432677298525
 40
105
 41
0.8333333333333333
 50
0
  1
35
  0
LINE
  8
_0-0_
  6
CONTINUOUS
 62
    4
 10
2466.4407958984384
 20
2146.6313476562495
 11
2296.4407958984375
 21
2146.6313476562495
  0
LINE
  8
_0-0_
  6
CONTINUOUS
 62
    4
 10
2296.4407958984375
 20
2146.6313476562495
 11
2347.1519017786149
 21
2160.2193475241319
  0
LINE
  8
_0-0_
  6
CONTINUOUS
 62
    4
 10
2296.4407958984375
 20
2146.6313476562495
 11
2347.1519017786149
 21
2133.0433477883671
  0
LINE
  8
_0-0_
  6
CONTINUOUS
 62
    4
 10
2261.4407958984375
 20
2146.6313476562495
 11
2161.4407958984384
 21
2146.6313476562495
  0
LINE
  8
_0-0_
  6
CONTINUOUS
 62
    4
 10
2261.4407958984375
 20
2146.6313476562495
 11
2210.7296900182618
 21
2160.2193475241319
  0
LINE
  8
_0-0_
  6
CONTINUOUS
 62
    4
 10
2261.4407958984375
 20
2146.6313476562495
 11
2210.7296900182618
 21
2133.0433477883671
  0
LINE
  8
_0-0_
  6
CONTINUOUS
 62
    4
 10
2331.4407958984375
 20
2621.63134765625
 11
2569.4407958984379
 21
2621.63134765625
  0
TEXT
  8
_0-0_
 62
    7
 10
2531.9463877614621
 20
2684.2117060965783
 40
105
 41
0.8333333333333333
 50
90
  1
5
  0
LINE
  8
_0-0_
  6
CONTINUOUS
 62
    4
 10
2534.4407958984379
 20
2621.6313476562495
 11
2548.0287957663213
 21
2672.3424535364256
  0
LINE
  8
_0-0_
  6
CONTINUOUS
 62
    4
 10
2534.4407958984397
 20
2751.63134765625
 11
2534.4407958984397
 21
2621.63134765625
  0
LINE
  8
_0-0_
  6
CONTINUOUS
 62
    4
 10
2534.4407958984379
 20
2621.6313476562495
 11
2520.8527960305546
 21
2672.3424535364256
  0
LINE
  8
_0-0_
  6
DASHED1
 62
    2
 10
1554.4407958984377
 20
3266.63134765625
 11
1781.4407958984381
 21
3263.5720484648754
  0
LINE
  8
_0-0_
  6
DASHED1
 62
    2
 10
1554.4407958984377
 20
2966.6313476562504
 11
1781.4407958984381
 21
2969.6906468476254
  0
LINE
  8
_0-0_
  6
CONTINUOUS
 62
    2
 10
1554.4407958984377
 20
3613.6313476562504
 11
1554.4407958984377
 21
2616.6313476562504
  0
LINE
  8
_0-0_
  6
CONTINUOUS
 62
    2
 10
1781.4407958984381
 20
3613.6313476562504
 11
1781.4407958984381
 21
2616.6313476562504
  0
LINE
  8
_0-0_
  6
CONTINUOUS
 62
    5
 10
1604.4407958984375
 20
2641.6313476562504
 11
1604.4407958984375
 21
3588.63134765625
  0
LINE
  8
_0-0_
  6
CONTINUOUS
 62
    5
 10
1768.6907958984377
 20
2641.6313476562504
 11
1768.6907958984377
 21
3588.63134765625
  0
LINE
  8
_0-0_
  6
CONTINUOUS
 62
    5
 10
1932.9407958984379
 20
2641.6313476562504
 11
1932.9407958984379
 21
3588.63134765625
  0
LINE
  8
_0-0_
  6
CONTINUOUS
 62
    5
 10
2097.190795898437
 20
2641.6313476562504
 11
2097.190795898437
 21
3588.63134765625
  0
LINE
  8
_0-0_
  6
CONTINUOUS
 62
    5
 10
2261.4407958984375
 20
2641.6313476562504
 11
2261.4407958984375
 21
3588.63134765625
  0
LINE
  8
_0-0_
  6
CONTINUOUS
 62
    2
 10
2296.4407958984375
 20
2621.6313476562504
 11
1554.4407958984377
 21
2621.6313476562504
  0
LINE
  8
_0-0_
  6
CONTINUOUS
 62
    2
 10
2286.4407958984375
 20
3613.6313476562504
 11
2286.4407958984375
 21
2616.6313476562504
  0
LINE
  8
_0-0_
  6
CONTINUOUS
 62
    2
 10
2296.4407958984375
 20
2616.6313476562504
 11
1554.4407958984377
 21
2616.6313476562504
  0
LINE
  8
_0-0_
  6
CONTINUOUS
 62
    2
 10
2296.4407958984375
 20
3613.6313476562504
 11
2296.4407958984375
 21
2616.6313476562504
  0
LINE
  8
_0-0_
  6
CONTINUOUS
 62
    5
 10
1594.4407958984377
 20
3393.2313476562503
 11
2271.4407958984379
 21
3393.2313476562503
  0
LINE
  8
_0-0_
  6
CONTINUOUS
 62
    5
 10
1594.4407958984377
 20
3207.8313476562502
 11
2271.4407958984379
 21
3207.8313476562502
  0
LINE
  8
_0-0_
  6
CONTINUOUS
 62
    5
 10
1594.4407958984377
 20
3022.4313476562501
 11
2271.4407958984379
 21
3022.4313476562501
  0
LINE
  8
_0-0_
  6
CONTINUOUS
 62
    5
 10
1594.4407958984377
 20
2837.03134765625
 11
2271.4407958984379
 21
2837.03134765625
  0
LINE
  8
_0-0_
  6
CONTINUOUS
 62
    4
 10
1369.4407348632814
 20
3335.9105224609379
 11
1369.4407348632814
 21
3115.1313781738285
  0
TEXT
  8
_0-0_
 62
    7
 10
1361.638244628906
 20
3132.2227020263676
 40
105
 41
0.8333333333333333
 50
90
  1
6-D6
  0
LINE
  8
_0-0_
  6
CONTINUOUS
 62
    4
 10
1820.8157882690429
 20
3115.1313781738285
 11
1369.4407348632814
 21
3115.1313781738285
  0
ARC
  8
_0-0_
  6
CONTINUOUS
 62
    4
 10
1820.8157882690429
 20
3145.1313781738285
 40
30
 50
270
 51
0
  0
LINE
  8
_0-0_
  6
CONTINUOUS
 62
    4
 10
1850.8157882690431
 20
3085.131378173829
 11
1850.8157882690431
 21
3022.4313812255868
  0
ARC
  8
_0-0_
  6
CONTINUOUS
 62
    4
 10
1820.8157882690429
 20
3085.131378173829
 40
30
 50
0
 51
90
  0
LINE
  8
_0-0_
  6
CONTINUOUS
 62
    4
 10
1850.8157882690431
 20
3578.6313781738285
 11
1850.8157882690431
 21
3393.2313690185551
  0
LINE
  8
_0-0_
  6
CONTINUOUS
 62
    4
 10
1850.8157882690431
 20
3393.2313690185551
 11
1850.8157882690431
 21
3207.8313746452336
  0
LINE
  8
_0-0_
  6
CONTINUOUS
 62
    4
 10
1850.8157882690431
 20
3022.4313812255868
 11
1850.8157882690431
 21
2837.0313720703129
  0
LINE
  8
_0-0_
  6
CONTINUOUS
 62
    4
 10
1850.8157882690431
 20
2837.0313720703129
 11
1850.8157882690431
 21
2651.6313476562504
  0
LINE
  8
_0-0_
  6
CONTINUOUS
 62
    4
 10
1850.8157882690431
 20
3207.8313746452336
 11
1850.8157882690431
 21
3145.1313781738285
  0
LINE
  8
_0-0_
  6
CONTINUOUS
 62
    4
 10
1850.8157882690431
 20
3578.6313781738285
 11
1864.4037881369256
 21
3527.9202722936524
  0
LINE
  8
_0-0_
  6
CONTINUOUS
 62
    4
 10
1850.8157882690431
 20
3578.6313781738285
 11
1837.2277884011607
 21
3527.9202722936524
  0
LINE
  8
_0-0_
  6
CONTINUOUS
 62
    4
 10
1850.8157882690431
 20
3393.2313690185551
 11
1864.4037881369256
 21
3342.520263138379
  0
LINE
  8
_0-0_
  6
CONTINUOUS
 62
    4
 10
1850.8157882690431
 20
3393.2313690185551
 11
1837.2277884011607
 21
3342.520263138379
  0
LINE
  8
_0-0_
  6
CONTINUOUS
 62
    4
 10
1850.8157882690431
 20
3207.8313746452336
 11
1864.4037881369256
 21
3157.1202687650575
  0
LINE
  8
_0-0_
  6
CONTINUOUS
 62
    4
 10
1850.8157882690431
 20
3207.8313746452336
 11
1837.2277884011607
 21
3157.1202687650575
  0
LINE
  8
_0-0_
  6
CONTINUOUS
 62
    4
 10
1850.8157882690431
 20
3022.4313812255868
 11
1837.2277884011607
 21
3073.1424871057624
  0
LINE
  8
_0-0_
  6
CONTINUOUS
 62
    4
 10
1850.8157882690431
 20
3022.4313812255868
 11
1864.4037881369256
 21
3073.1424871057624
  0
LINE
  8
_0-0_
  6
CONTINUOUS
 62
    4
 10
1850.8157882690431
 20
2837.0313720703129
 11
1837.2277884011607
 21
2887.742477950489
  0
LINE
  8
_0-0_
  6
CONTINUOUS
 62
    4
 10
1850.8157882690431
 20
2837.0313720703129
 11
1864.4037881369256
 21
2887.742477950489
  0
LINE
  8
_0-0_
  6
CONTINUOUS
 62
    4
 10
1850.8157882690431
 20
2651.6313476562504
 11
1837.2277884011607
 21
2702.3424535364265
  0
LINE
  8
_0-0_
  6
CONTINUOUS
 62
    4
 10
1850.8157882690431
 20
2651.6313476562504
 11
1864.4037881369256
 21
2702.3424535364265
  0
LINE
  8
_0-0_
  6
CONTINUOUS
 62
    4
 10
2261.0019276008802
 20
2902.162360212887
 11
2534.0018055305672
 21
2902.162360212887
  0
LINE
  8
_0-0_
  6
CONTINUOUS
 62
    4
 10
2261.0019276008802
 20
2902.162360212887
 11
2311.7130176887708
 21
2915.7503423906214
  0
LINE
  8
_0-0_
  6
CONTINUOUS
 62
    4
 10
2261.0019276008802
 20
2902.162360212887
 11
2311.7130176887708
 21
2888.574347517575
  0
LINE
  8
_0-0_
  6
CONTINUOUS
 62
    4
 10
2096.7519123420906
 20
2902.162360212887
 11
2261.0019276008802
 21
2902.162360212887
  0
LINE
  8
_0-0_
  6
CONTINUOUS
 62
    4
 10
2096.7519123420906
 20
2902.162360212887
 11
2147.4630176887703
 21
2915.7503423906214
  0
LINE
  8
_0-0_
  6
CONTINUOUS
 62
    4
 10
2096.7519123420906
 20
2902.162360212887
 11
2147.4630176887703
 21
2888.574347517575
  0
LINE
  8
_0-0_
  6
CONTINUOUS
 62
    4
 10
1932.5019171104627
 20
2902.162360212887
 11
2096.7519123420906
 21
2902.162360212887
  0
LINE
  8
_0-0_
  6
CONTINUOUS
 62
    4
 10
1932.5019171104627
 20
2902.162360212887
 11
1983.2130215034683
 21
2915.7503423906214
  0
LINE
  8
_0-0_
  6
CONTINUOUS
 62
    4
 10
1932.5019171104627
 20
2902.162360212887
 11
1983.2130215034683
 21
2888.574347517575
  0
LINE
  8
_0-0_
  6
CONTINUOUS
 62
    4
 10
1768.2519123420911
 20
2902.162360212887
 11
1932.5019171104627
 21
2902.162360212887
  0
LINE
  8
_0-0_
  6
CONTINUOUS
 62
    4
 10
1768.2519123420911
 20
2902.162360212887
 11
1818.9630253181649
 21
2915.7503423906214
  0
LINE
  8
_0-0_
  6
CONTINUOUS
 62
    4
 10
1768.2519123420911
 20
2902.162360212887
 11
1818.9630253181649
 21
2888.574347517575
  0
LINE
  8
_0-0_
  6
CONTINUOUS
 62
    4
 10
1604.0019276008799
 20
2902.162360212887
 11
1768.2519123420911
 21
2902.162360212887
  0
LINE
  8
_0-0_
  6
CONTINUOUS
 62
    4
 10
1604.0019276008799
 20
2902.162360212887
 11
1654.7130176887706
 21
2915.7503423906214
  0
LINE
  8
_0-0_
  6
CONTINUOUS
 62
    4
 10
1604.0019276008799
 20
2902.162360212887
 11
1654.7130176887706
 21
2888.574347517575
  0
TEXT
  8
_0-0_
 62
    7
 10
2526.1993152961927
 20
2939.2536840654261
 40
105
 41
0.8333333333333333
 50
90
  1
5-D6
  0
LINE
  8
_0-0_
  6
CONTINUOUS
 62
    4
 10
2534.0018055305672
 20
3143.5150518632776
 11
2534.0018055305672
 21
2902.162360212887
  0
TEXT
  8
_0-0_
 62
    7
 10
3987.930599610006
 20
5182.7356229912829
 40
17.5
 41
1
 50
0
  1
●
  0
TEXT
  8
_0-0_
 62
    7
 10
4914.9305996100065
 20
5182.7356229912829
 40
17.5
 41
1
 50
0
  1
●
  0
LINE
  8
_0-0_
  6
CONTINUOUS
 62
    5
 10
4933.730224609375
 20
5198.9810791015625
 11
3986.7302246093754
 21
5198.9810791015625
  0
TEXT
  8
_0-0_
 62
    7
 10
4173.3305996100061
 20
5182.7356229912829
 40
17.5
 41
1
 50
0
  1
●
  0
TEXT
  8
_0-0_
 62
    7
 10
4358.7305996100058
 20
5182.7356229912829
 40
17.5
 41
1
 50
0
  1
●
  0
TEXT
  8
_0-0_
 62
    7
 10
4544.1305996100063
 20
5182.7356229912829
 40
17.5
 41
1
 50
0
  1
●
  0
TEXT
  8
_0-0_
 62
    7
 10
4729.5305996100059
 20
5182.7356229912829
 40
17.5
 41
1
 50
0
  1
●
  0
TEXT
  8
_0-0_
 62
    7
 10
5134.3932495117242
 20
5027.0803240600835
 40
105
 41
1
 50
0
  1
吊ｲﾝｻｰﾄ 2箇所
  0
LINE
  8
_0-0_
  6
CONTINUOUS
 62
    4
 10
4953.7302246093759
 20
5519.4810791015625
 11
4953.7302246093759
 21
5719.4810791015625
  0
LINE
  8
_0-0_
  6
CONTINUOUS
 62
    4
 10
4953.7302246093759
 20
5684.3471064275972
 11
4903.0187988281268
 21
5697.9351191229097
  0
LINE
  8
_0-0_
  6
CONTINUOUS
 62
    4
 10
4953.7302246093759
 20
5684.3471064275972
 11
4862.458251953125
 21
5684.3471064275972
  0
LINE
  8
_0-0_
  6
CONTINUOUS
 62
    4
 10
4953.7302246093759
 20
5684.3471064275972
 11
4903.0187988281268
 21
5670.7592158025981
  0
TEXT
  8
_0-0_
 62
    7
 10
1442.3357281948888
 20
4774.417288172779
 40
105
 41
0.8333333333333333
 50
0
  1
6-D6
  0
LINE
  8
_0-0_
  6
CONTINUOUS
 62
    4
 10
1554.4407958984377
 20
4765.89306640625
 11
1554.4407958984377
 21
4494.48095703125
  0
ENDSEC
  0
EOF
