  0
SECTION
  2
HEADER
  9
$ACADVER
  1
AC1032
  9
$ACADMAINTVER
 90
      228
  9
$DWGCODEPAGE
  3
ANSI_932
  9
$LASTSAVEDBY
  1
yano27
  9
$REQUIREDVERSIONS
160
                 0
  9
$INSBASE
 10
0.0
 20
0.0
 30
0.0
  9
$EXTMIN
 10
144.0
 20
108.0
 30
0.0
  9
$EXTMAX
 10
1592.0
 20
2188.0
 30
0.0
  9
$LIMMIN
 10
0.0
 20
0.0
  9
$LIMMAX
 10
3360.0
 20
2376.0
  9
$ORTHOMODE
 70
     1
  9
$REGENMODE
 70
     1
  9
$FILLMODE
 70
     1
  9
$QTEXTMODE
 70
     0
  9
$MIRRTEXT
 70
     0
  9
$LTSCALE
 40
8.0
  9
$ATTMODE
 70
     1
  9
$TEXTSIZE
 40
0.2
  9
$TRACEWID
 40
0.05
  9
$TEXTSTYLE
  7
STANDARD
  9
$CLAYER
  8
0
  9
$CELTYPE
  6
CONTINUOUS
  9
$CECOLOR
 62
   256
  9
$CELTSCALE
 40
1.0
  9
$DISPSILH
 70
     0
  9
$DIMSCALE
 40
1.0
  9
$DIMASZ
 40
0.18
  9
$DIMEXO
 40
0.0625
  9
$DIMDLI
 40
0.38
  9
$DIMRND
 40
0.0
  9
$DIMDLE
 40
0.0
  9
$DIMEXE
 40
0.18
  9
$DIMTP
 40
0.0
  9
$DIMTM
 40
0.0
  9
$DIMTXT
 40
0.18
  9
$DIMCEN
 40
0.09
  9
$DIMTSZ
 40
0.0
  9
$DIMTOL
 70
     0
  9
$DIMLIM
 70
     0
  9
$DIMTIH
 70
     1
  9
$DIMTOH
 70
     1
  9
$DIMSE1
 70
     0
  9
$DIMSE2
 70
     0
  9
$DIMTAD
 70
     0
  9
$DIMZIN
 70
     0
  9
$DIMBLK
  1

  9
$DIMASO
 70
     1
  9
$DIMSHO
 70
     1
  9
$DIMPOST
  1

  9
$DIMAPOST
  1

  9
$DIMALT
 70
     0
  9
$DIMALTD
 70
     2
  9
$DIMALTF
 40
25.4
  9
$DIMLFAC
 40
1.0
  9
$DIMTOFL
 70
     0
  9
$DIMTVP
 40
0.0
  9
$DIMTIX
 70
     0
  9
$DIMSOXD
 70
     0
  9
$DIMSAH
 70
     0
  9
$DIMBLK1
  1

  9
$DIMBLK2
  1

  9
$DIMSTYLE
  2
Standard
  9
$DIMCLRD
 70
     0
  9
$DIMCLRE
 70
     0
  9
$DIMCLRT
 70
     0
  9
$DIMTFAC
 40
1.0
  9
$DIMGAP
 40
0.09
  9
$DIMJUST
 70
     0
  9
$DIMSD1
 70
     0
  9
$DIMSD2
 70
     0
  9
$DIMTOLJ
 70
     1
  9
$DIMTZIN
 70
     0
  9
$DIMALTZ
 70
     0
  9
$DIMALTTZ
 70
     0
  9
$DIMUPT
 70
     0
  9
$DIMDEC
 70
     4
  9
$DIMTDEC
 70
     4
  9
$DIMALTU
 70
     2
  9
$DIMALTTD
 70
     2
  9
$DIMTXSTY
  7
STANDARD
  9
$DIMAUNIT
 70
     0
  9
$DIMADEC
 70
     0
  9
$DIMALTRND
 40
0.0
  9
$DIMAZIN
 70
     0
  9
$DIMDSEP
 70
    46
  9
$DIMATFIT
 70
     3
  9
$DIMFRAC
 70
     0
  9
$DIMLDRBLK
  1

  9
$DIMLUNIT
 70
     2
  9
$DIMLWD
 70
    -2
  9
$DIMLWE
 70
    -2
  9
$DIMTMOVE
 70
     0
  9
$DIMFXL
 40
1.0
  9
$DIMFXLON
 70
     0
  9
$DIMJOGANG
 40
0.7853981633974483
  9
$DIMTFILL
 70
     0
  9
$DIMTFILLCLR
 70
     0
  9
$DIMARCSYM
 70
     0
  9
$DIMLTYPE
  6

  9
$DIMLTEX1
  6

  9
$DIMLTEX2
  6

  9
$DIMTXTDIRECTION
 70
     0
  9
$LUNITS
 70
     2
  9
$LUPREC
 70
     4
  9
$SKETCHINC
 40
0.1
  9
$FILLETRAD
 40
0.0
  9
$AUNITS
 70
     0
  9
$AUPREC
 70
     0
  9
$MENU
  1
.
  9
$ELEVATION
 40
0.0
  9
$PELEVATION
 40
0.0
  9
$THICKNESS
 40
0.0
  9
$LIMCHECK
 70
     0
  9
$CHAMFERA
 40
0.0
  9
$CHAMFERB
 40
0.0
  9
$CHAMFERC
 40
0.0
  9
$CHAMFERD
 40
0.0
  9
$SKPOLY
 70
     0
  9
$TDCREATE
 40
2456342.037662037
  9
$TDUCREATE
 40
2456341.662670116
  9
$TDUPDATE
 40
2459923.717916667
  9
$TDUUPDATE
 40
2459923.342916666
  9
$TDINDWG
 40
0.0048555556
  9
$TDUSRTIMER
 40
0.0048555556
  9
$USRTIMER
 70
     1
  9
$ANGBASE
 50
0.0
  9
$ANGDIR
 70
     0
  9
$PDMODE
 70
     0
  9
$PDSIZE
 40
0.0
  9
$PLINEWID
 40
0.0
  9
$SPLFRAME
 70
     0
  9
$SPLINETYPE
 70
     6
  9
$SPLINESEGS
 70
     8
  9
$HANDSEED
  5
4FD
  9
$SURFTAB1
 70
     6
  9
$SURFTAB2
 70
     6
  9
$SURFTYPE
 70
     6
  9
$SURFU
 70
     6
  9
$SURFV
 70
     6
  9
$UCSBASE
  2

  9
$UCSNAME
  2

  9
$UCSORG
 10
0.0
 20
0.0
 30
0.0
  9
$UCSXDIR
 10
1.0
 20
0.0
 30
0.0
  9
$UCSYDIR
 10
0.0
 20
1.0
 30
0.0
  9
$UCSORTHOREF
  2

  9
$UCSORTHOVIEW
 70
     0
  9
$UCSORGTOP
 10
0.0
 20
0.0
 30
0.0
  9
$UCSORGBOTTOM
 10
0.0
 20
0.0
 30
0.0
  9
$UCSORGLEFT
 10
0.0
 20
0.0
 30
0.0
  9
$UCSORGRIGHT
 10
0.0
 20
0.0
 30
0.0
  9
$UCSORGFRONT
 10
0.0
 20
0.0
 30
0.0
  9
$UCSORGBACK
 10
0.0
 20
0.0
 30
0.0
  9
$PUCSBASE
  2

  9
$PUCSNAME
  2

  9
$PUCSORG
 10
0.0
 20
0.0
 30
0.0
  9
$PUCSXDIR
 10
1.0
 20
0.0
 30
0.0
  9
$PUCSYDIR
 10
0.0
 20
1.0
 30
0.0
  9
$PUCSORTHOREF
  2

  9
$PUCSORTHOVIEW
 70
     0
  9
$PUCSORGTOP
 10
0.0
 20
0.0
 30
0.0
  9
$PUCSORGBOTTOM
 10
0.0
 20
0.0
 30
0.0
  9
$PUCSORGLEFT
 10
0.0
 20
0.0
 30
0.0
  9
$PUCSORGRIGHT
 10
0.0
 20
0.0
 30
0.0
  9
$PUCSORGFRONT
 10
0.0
 20
0.0
 30
0.0
  9
$PUCSORGBACK
 10
0.0
 20
0.0
 30
0.0
  9
$USERI1
 70
     0
  9
$USERI2
 70
     0
  9
$USERI3
 70
     0
  9
$USERI4
 70
     0
  9
$USERI5
 70
     0
  9
$USERR1
 40
0.0
  9
$USERR2
 40
0.0
  9
$USERR3
 40
0.0
  9
$USERR4
 40
0.0
  9
$USERR5
 40
0.0
  9
$WORLDVIEW
 70
     1
  9
$SHADEDGE
 70
     3
  9
$SHADEDIF
 70
    70
  9
$TILEMODE
 70
     1
  9
$MAXACTVP
 70
    64
  9
$PINSBASE
 10
0.0
 20
0.0
 30
0.0
  9
$PLIMCHECK
 70
     0
  9
$PEXTMIN
 10
1.000000000000000E+20
 20
1.000000000000000E+20
 30
1.000000000000000E+20
  9
$PEXTMAX
 10
-1.000000000000000E+20
 20
-1.000000000000000E+20
 30
-1.000000000000000E+20
  9
$PLIMMIN
 10
0.0
 20
0.0
  9
$PLIMMAX
 10
12.0
 20
9.0
  9
$UNITMODE
 70
     0
  9
$VISRETAIN
 70
     1
  9
$PLINEGEN
 70
     0
  9
$PSLTSCALE
 70
     1
  9
$TREEDEPTH
 70
  3020
  9
$CMLSTYLE
  2
Standard
  9
$CMLJUST
 70
     0
  9
$CMLSCALE
 40
1.0
  9
$PROXYGRAPHICS
 70
     1
  9
$MEASUREMENT
 70
     0
  9
$CELWEIGHT
370
    -1
  9
$ENDCAPS
280
     0
  9
$JOINSTYLE
280
     0
  9
$LWDISPLAY
290
     0
  9
$INSUNITS
 70
     0
  9
$HYPERLINKBASE
  1

  9
$STYLESHEET
  1

  9
$XEDIT
290
     1
  9
$CEPSNTYPE
380
     0
  9
$PSTYLEMODE
290
     1
  9
$FINGERPRINTGUID
  2
{F05ABA9C-ACB8-470F-8F85-86A24683E64E}
  9
$VERSIONGUID
  2
{7A3258A0-302E-42BD-95EB-12F066BD8075}
  9
$EXTNAMES
290
     1
  9
$PSVPSCALE
 40
0.0
  9
$OLESTARTUP
290
     0
  9
$SORTENTS
280
   127
  9
$INDEXCTL
280
     0
  9
$HIDETEXT
280
     0
  9
$XCLIPFRAME
280
     2
  9
$HALOGAP
280
     0
  9
$OBSCOLOR
 70
   257
  9
$OBSLTYPE
280
     0
  9
$INTERSECTIONDISPLAY
280
     0
  9
$INTERSECTIONCOLOR
 70
   257
  9
$DIMASSOC
280
     1
  9
$PROJECTNAME
  1

  9
$CAMERADISPLAY
290
     0
  9
$LENSLENGTH
 40
50.0
  9
$CAMERAHEIGHT
 40
0.0
  9
$STEPSPERSEC
 40
2.0
  9
$STEPSIZE
 40
6.0
  9
$3DDWFPREC
 40
2.0
  9
$PSOLWIDTH
 40
0.25
  9
$PSOLHEIGHT
 40
4.0
  9
$LOFTANG1
 40
1.570796326794896
  9
$LOFTANG2
 40
1.570796326794896
  9
$LOFTMAG1
 40
0.0
  9
$LOFTMAG2
 40
0.0
  9
$LOFTPARAM
 70
     7
  9
$LOFTNORMALS
280
     1
  9
$LATITUDE
 40
37.795
  9
$LONGITUDE
 40
-122.394
  9
$NORTHDIRECTION
 40
0.0
  9
$TIMEZONE
 70
 -8000
  9
$LIGHTGLYPHDISPLAY
280
     1
  9
$TILEMODELIGHTSYNCH
280
     1
  9
$CMATERIAL
347
498
  9
$SOLIDHIST
280
     0
  9
$SHOWHIST
280
     1
  9
$DWFFRAME
280
     2
  9
$DGNFRAME
280
     0
  9
$REALWORLDSCALE
290
     1
  9
$INTERFERECOLOR
 62
     1
  9
$INTERFEREOBJVS
345
4BA
  9
$INTERFEREVPVS
346
4B7
  9
$CSHADOW
280
     0
  9
$SHADOWPLANELOCATION
 40
0.0
  0
ENDSEC
  0
SECTION
  2
CLASSES
  0
CLASS
  1
ACDBDICTIONARYWDFLT
  2
AcDbDictionaryWithDefault
  3
ObjectDBX Classes
 90
        0
 91
        1
280
     0
281
     0
  0
CLASS
  1
DICTIONARYVAR
  2
AcDbDictionaryVar
  3
ObjectDBX Classes
 90
        0
 91
       12
280
     0
281
     0
  0
CLASS
  1
MATERIAL
  2
AcDbMaterial
  3
ObjectDBX Classes
 90
     1153
 91
        3
280
     0
281
     0
  0
CLASS
  1
VISUALSTYLE
  2
AcDbVisualStyle
  3
ObjectDBX Classes
 90
     4095
 91
       24
280
     0
281
     0
  0
CLASS
  1
TABLESTYLE
  2
AcDbTableStyle
  3
ObjectDBX Classes
 90
     4095
 91
        1
280
     0
281
     0
  0
CLASS
  1
SCALE
  2
AcDbScale
  3
ObjectDBX Classes
 90
     1153
 91
       17
280
     0
281
     0
  0
CLASS
  1
MLEADERSTYLE
  2
AcDbMLeaderStyle
  3
ACDB_MLEADERSTYLE_CLASS
 90
     4095
 91
        1
280
     0
281
     0
  0
CLASS
  1
ACDBSECTIONVIEWSTYLE
  2
AcDbSectionViewStyle
  3
ObjectDBX Classes
 90
     1025
 91
        1
280
     0
281
     0
  0
CLASS
  1
ACDBDETAILVIEWSTYLE
  2
AcDbDetailViewStyle
  3
ObjectDBX Classes
 90
     1025
 91
        1
280
     0
281
     0
  0
CLASS
  1
CELLSTYLEMAP
  2
AcDbCellStyleMap
  3
ObjectDBX Classes
 90
     1152
 91
        1
280
     0
281
     0
  0
ENDSEC
  0
SECTION
  2
TABLES
  0
TABLE
  2
VPORT
  5
8
330
0
100
AcDbSymbolTable
 70
     1
  0
VPORT
  5
48C
330
8
100
AcDbSymbolTableRecord
100
AcDbViewportTableRecord
  2
*Active
 70
     0
 10
0.0
 20
0.0
 11
1.0
 21
1.0
 12
1855.170889516807
 22
1188.0
 13
0.0
 23
0.0
 14
1.0
 24
1.0
 15
0.0
 25
0.0
 16
0.0
 26
0.0
 36
1.0
 17
0.0
 27
0.0
 37
0.0
 40
2219.520305590606
 41
1.716778523489932
 42
50.0
 43
0.0
 44
0.0
 50
0.0
 51
0.0
 71
     0
 72
   100
 73
     1
 74
     1
 75
     0
 76
     0
 77
     0
 78
     0
281
     0
 65
     1
110
0.0
120
0.0
130
0.0
111
1.0
121
0.0
131
0.0
112
0.0
122
1.0
132
0.0
 79
     0
146
0.0
348
4B6
 60
     3
 61
     5
292
     1
282
     1
141
0.0
142
0.0
 63
   250
421
  3355443
1001
ACAD_NAV_VCDISPLAY
1070
     3
  0
ENDTAB
  0
TABLE
  2
LTYPE
  5
5
330
0
100
AcDbSymbolTable
 70
    35
  0
LTYPE
  5
13
330
5
100
AcDbSymbolTableRecord
100
AcDbLinetypeTableRecord
  2
ByBlock
 70
     0
  3

 72
    65
 73
     0
 40
0.0
  0
LTYPE
  5
14
330
5
100
AcDbSymbolTableRecord
100
AcDbLinetypeTableRecord
  2
ByLayer
 70
     0
  3

 72
    65
 73
     0
 40
0.0
  0
LTYPE
  5
15
330
5
100
AcDbSymbolTableRecord
100
AcDbLinetypeTableRecord
  2
CONTINUOUS
 70
     0
  3
実線
 72
    65
 73
     0
 40
0.0
  0
LTYPE
  5
24
330
5
100
AcDbSymbolTableRecord
100
AcDbLinetypeTableRecord
  2
DASHED1
 70
     0
  3
--  --  --  --  --  --  --  --  
 72
    65
 73
     2
 40
2.5
 49
1.25
 74
     0
 49
-1.25
 74
     0
  0
LTYPE
  5
25
330
5
100
AcDbSymbolTableRecord
100
AcDbLinetypeTableRecord
  2
DASHED2
 70
     0
  3
----    ----    ----    ----    
 72
    65
 73
     2
 40
5.0
 49
2.5
 74
     0
 49
-2.5
 74
     0
  0
LTYPE
  5
26
330
5
100
AcDbSymbolTableRecord
100
AcDbLinetypeTableRecord
  2
DASHED3
 70
     0
  3
------  ------  ------  ------  
 72
    65
 73
     2
 40
5.0
 49
3.75
 74
     0
 49
-1.25
 74
     0
  0
LTYPE
  5
27
330
5
100
AcDbSymbolTableRecord
100
AcDbLinetypeTableRecord
  2
CENTER1
 70
     0
  3
----- - ----- - ----- - ----- - 
 72
    65
 73
     4
 40
10.0
 49
6.25
 74
     0
 49
-1.25
 74
     0
 49
1.25
 74
     0
 49
-1.25
 74
     0
  0
LTYPE
  5
28
330
5
100
AcDbSymbolTableRecord
100
AcDbLinetypeTableRecord
  2
CENTER2
 70
     0
  3
----------  --  ----------  --  
 72
    65
 73
     4
 40
20.0
 49
12.5
 74
     0
 49
-2.5
 74
     0
 49
2.5
 74
     0
 49
-2.5
 74
     0
  0
LTYPE
  5
29
330
5
100
AcDbSymbolTableRecord
100
AcDbLinetypeTableRecord
  2
PHANTOM1
 70
     0
  3
--- - - --- - - --- - - --- - - 
 72
    65
 73
     6
 40
10.0
 49
3.25
 74
     0
 49
-1.25
 74
     0
 49
1.25
 74
     0
 49
-1.25
 74
     0
 49
1.25
 74
     0
 49
-1.25
 74
     0
  0
LTYPE
  5
2A
330
5
100
AcDbSymbolTableRecord
100
AcDbLinetypeTableRecord
  2
PHANTOM2
 70
     0
  3
--------  -  -  --------  -  -  
 72
    65
 73
     6
 40
20.0
 49
10.0
 74
     0
 49
-2.5
 74
     0
 49
1.25
 74
     0
 49
-2.5
 74
     0
 49
1.25
 74
     0
 49
-2.5
 74
     0
  0
LTYPE
  5
2B
330
5
100
AcDbSymbolTableRecord
100
AcDbLinetypeTableRecord
  2
DOT
 70
     0
  3
-   -   -   -   -   -   -   -   
 72
    65
 73
     2
 40
2.5
 49
0.625
 74
     0
 49
-1.875
 74
     0
  0
LTYPE
  5
2C
330
5
100
AcDbSymbolTableRecord
100
AcDbLinetypeTableRecord
  2
DUMMY
 70
     0
  3
ダミー
 72
    65
 73
     0
 40
0.0
  0
LTYPE
  5
2D
330
5
100
AcDbSymbolTableRecord
100
AcDbLinetypeTableRecord
  2
RAND1
 70
     0
  3
ランダム線1
 72
    65
 73
     4
 40
10.0
 49
1.0
 74
     0
 49
-2.0
 74
     0
 49
3.0
 74
     0
 49
-4.0
 74
     0
  0
LTYPE
  5
2E
330
5
100
AcDbSymbolTableRecord
100
AcDbLinetypeTableRecord
  2
RAND2
 70
     0
  3
ランダム線2
 72
    65
 73
     4
 40
14.0
 49
2.0
 74
     0
 49
-3.0
 74
     0
 49
4.0
 74
     0
 49
-5.0
 74
     0
  0
LTYPE
  5
2F
330
5
100
AcDbSymbolTableRecord
100
AcDbLinetypeTableRecord
  2
RAND3
 70
     0
  3
ランダム線3
 72
    65
 73
     4
 40
18.0
 49
3.0
 74
     0
 49
-4.0
 74
     0
 49
5.0
 74
     0
 49
-6.0
 74
     0
  0
LTYPE
  5
30
330
5
100
AcDbSymbolTableRecord
100
AcDbLinetypeTableRecord
  2
RAND4
 70
     0
  3
ランダム線4
 72
    65
 73
     4
 40
22.0
 49
4.0
 74
     0
 49
-5.0
 74
     0
 49
6.0
 74
     0
 49
-7.0
 74
     0
  0
LTYPE
  5
31
330
5
100
AcDbSymbolTableRecord
100
AcDbLinetypeTableRecord
  2
RAND5
 70
     0
  3
ランダム線5
 72
    65
 73
     4
 40
26.0
 49
5.0
 74
     0
 49
-6.0
 74
     0
 49
7.0
 74
     0
 49
-8.0
 74
     0
  0
LTYPE
  5
32
330
5
100
AcDbSymbolTableRecord
100
AcDbLinetypeTableRecord
  2
LONG1
 70
     0
  3
----------  --  ----------  --  
 72
    65
 73
     4
 40
40.0
 49
32.5
 74
     0
 49
-2.5
 74
     0
 49
2.5
 74
     0
 49
-2.5
 74
     0
  0
LTYPE
  5
33
330
5
100
AcDbSymbolTableRecord
100
AcDbLinetypeTableRecord
  2
LONG2
 70
     0
  3
--------  -  -  --------  -  -  
 72
    65
 73
     6
 40
40.0
 49
30.0
 74
     0
 49
-2.5
 74
     0
 49
1.25
 74
     0
 49
-2.5
 74
     0
 49
1.25
 74
     0
 49
-2.5
 74
     0
  0
LTYPE
  5
34
330
5
100
AcDbSymbolTableRecord
100
AcDbLinetypeTableRecord
  2
LONG3
 70
     0
  3
+++++++++++++++..+++++++++++++++
 72
    65
 73
     2
 40
40.0
 49
37.5
 74
     0
 49
-2.5
 74
     0
  0
LTYPE
  5
35
330
5
100
AcDbSymbolTableRecord
100
AcDbLinetypeTableRecord
  2
LONG4
 70
     0
  3
+++++++++++++++..+++++++++++++++
 72
    65
 73
     2
 40
80.0
 49
75.0
 74
     0
 49
-5.0
 74
     0
  0
LTYPE
  5
36
330
5
100
AcDbSymbolTableRecord
100
AcDbLinetypeTableRecord
  2
LONG5
 70
     0
  3
----------  --  ----------  --  
 72
    65
 73
     4
 40
60.0
 49
37.5
 74
     0
 49
-7.5
 74
     0
 49
7.5
 74
     0
 49
-7.5
 74
     0
  0
LTYPE
  5
37
330
5
100
AcDbSymbolTableRecord
100
AcDbLinetypeTableRecord
  2
DASHED
 70
     0
  3
-------   -------------   ------
 72
    65
 73
     2
 40
7.5
 49
6.0
 74
     0
 49
-1.5
 74
     0
  0
LTYPE
  5
38
330
5
100
AcDbSymbolTableRecord
100
AcDbLinetypeTableRecord
  2
DASHED_SPACED
 70
     0
  3
----        --------        ----
 72
    65
 73
     2
 40
12.0
 49
6.0
 74
     0
 49
-6.0
 74
     0
  0
LTYPE
  5
39
330
5
100
AcDbSymbolTableRecord
100
AcDbLinetypeTableRecord
  2
LONG_DASHED_DOTTED
 70
     0
  3
------------- --- --------------
 72
    65
 73
     4
 40
15.25
 49
12.0
 74
     0
 49
-1.5
 74
     0
 49
0.25
 74
     0
 49
-1.5
 74
     0
  0
LTYPE
  5
3A
330
5
100
AcDbSymbolTableRecord
100
AcDbLinetypeTableRecord
  2
LONG_DASHED_DOUBLE-DOTTED
 70
     0
  3
----------- --- --- ------------
 72
    65
 73
     6
 40
17.0
 49
12.0
 74
     0
 49
-1.5
 74
     0
 49
0.25
 74
     0
 49
-1.5
 74
     0
 49
0.25
 74
     0
 49
-1.5
 74
     0
  0
LTYPE
  5
3B
330
5
100
AcDbSymbolTableRecord
100
AcDbLinetypeTableRecord
  2
LONG_DASHED_TRIPLICATE-DOTTED
 70
     0
  3
--------- --- --- --- ----------
 72
    65
 73
     8
 40
18.75
 49
12.0
 74
     0
 49
-1.5
 74
     0
 49
0.25
 74
     0
 49
-1.5
 74
     0
 49
0.25
 74
     0
 49
-1.5
 74
     0
 49
0.25
 74
     0
 49
-1.5
 74
     0
  0
LTYPE
  5
3C
330
5
100
AcDbSymbolTableRecord
100
AcDbLinetypeTableRecord
  2
DOTTED
 70
     0
  3
   -       -       -       -    
 72
    65
 73
     2
 40
1.75
 49
0.25
 74
     0
 49
-1.5
 74
     0
  0
LTYPE
  5
3D
330
5
100
AcDbSymbolTableRecord
100
AcDbLinetypeTableRecord
  2
CHAIN
 70
     0
  3
-------------- -- --------------
 72
    65
 73
     4
 40
18.5
 49
12.0
 74
     0
 49
-1.5
 74
     0
 49
3.5
 74
     0
 49
-1.5
 74
     0
  0
LTYPE
  5
3E
330
5
100
AcDbSymbolTableRecord
100
AcDbLinetypeTableRecord
  2
CHAIN_DOUBLE_DASH
 70
     0
  3
------------ -- -- -------------
 72
    65
 73
     6
 40
23.5
 49
12.0
 74
     0
 49
-1.5
 74
     0
 49
3.5
 74
     0
 49
-1.5
 74
     0
 49
3.5
 74
     0
 49
-1.5
 74
     0
  0
LTYPE
  5
3F
330
5
100
AcDbSymbolTableRecord
100
AcDbLinetypeTableRecord
  2
DASHED_DOTTED
 70
     0
  3
-----------     -     ----------
 72
    65
 73
     4
 40
9.25
 49
6.0
 74
     0
 49
-1.5
 74
     0
 49
0.25
 74
     0
 49
-1.5
 74
     0
  0
LTYPE
  5
40
330
5
100
AcDbSymbolTableRecord
100
AcDbLinetypeTableRecord
  2
DOUBLE-DASHED_DOTTED
 70
     0
  3
------   -----------   -   -----
 72
    65
 73
     6
 40
16.75
 49
6.0
 74
     0
 49
-1.5
 74
     0
 49
6.0
 74
     0
 49
-1.5
 74
     0
 49
0.25
 74
     0
 49
-1.5
 74
     0
  0
LTYPE
  5
41
330
5
100
AcDbSymbolTableRecord
100
AcDbLinetypeTableRecord
  2
DASHED_DOUBLE-DOTTED
 70
     0
  3
---------    -    -    ---------
 72
    65
 73
     6
 40
11.0
 49
6.0
 74
     0
 49
-1.5
 74
     0
 49
0.25
 74
     0
 49
-1.5
 74
     0
 49
0.25
 74
     0
 49
-1.5
 74
     0
  0
LTYPE
  5
42
330
5
100
AcDbSymbolTableRecord
100
AcDbLinetypeTableRecord
  2
DOUBLE-DASHED_DOUBLE-DOTTED
 70
     0
  3
-----   ---------   -   -   ----
 72
    65
 73
     8
 40
18.5
 49
6.0
 74
     0
 49
-1.5
 74
     0
 49
6.0
 74
     0
 49
-1.5
 74
     0
 49
0.25
 74
     0
 49
-1.5
 74
     0
 49
0.25
 74
     0
 49
-1.5
 74
     0
  0
LTYPE
  5
43
330
5
100
AcDbSymbolTableRecord
100
AcDbLinetypeTableRecord
  2
DASHED_TRIPLICATE-DOTTED
 70
     0
  3
-------    -    -    -    ------
 72
    65
 73
     8
 40
12.75
 49
6.0
 74
     0
 49
-1.5
 74
     0
 49
0.25
 74
     0
 49
-1.5
 74
     0
 49
0.25
 74
     0
 49
-1.5
 74
     0
 49
0.25
 74
     0
 49
-1.5
 74
     0
  0
LTYPE
  5
44
330
5
100
AcDbSymbolTableRecord
100
AcDbLinetypeTableRecord
  2
DOUBLE-DASHED_TRIPLICATE-DOTTED
 70
     0
  3
-----  ---------  -  -  -  -----
 72
    65
 73
    10
 40
20.25
 49
6.0
 74
     0
 49
-1.5
 74
     0
 49
6.0
 74
     0
 49
-1.5
 74
     0
 49
0.25
 74
     0
 49
-1.5
 74
     0
 49
0.25
 74
     0
 49
-1.5
 74
     0
 49
0.25
 74
     0
 49
-1.5
 74
     0
  0
LTYPE
  5
45
330
5
100
AcDbSymbolTableRecord
100
AcDbLinetypeTableRecord
  2
UNDEFINED
 70
     0
  3
--------------------------------
 72
    65
 73
     0
 40
0.0
  0
ENDTAB
  0
TABLE
  2
LAYER
  5
2
330
0
100
AcDbSymbolTable
 70
     3
  0
LAYER
  5
10
102
{ACAD_XDICTIONARY
360
4EA
102
}
330
2
100
AcDbSymbolTableRecord
100
AcDbLayerTableRecord
  2
0
 70
     0
 62
     7
  6
CONTINUOUS
370
    -3
390
F
347
4A8
348
0
  0
LAYER
  5
47
102
{ACAD_XDICTIONARY
360
4EC
102
}
330
2
100
AcDbSymbolTableRecord
100
AcDbLayerTableRecord
  2
_0-0_
 70
     0
 62
     7
  6
CONTINUOUS
370
    -3
390
F
347
4A8
348
0
  0
LAYER
  5
48
102
{ACAD_XDICTIONARY
360
4EE
102
}
330
2
100
AcDbSymbolTableRecord
100
AcDbLayerTableRecord
  2
ADD_LINE
 70
     0
 62
     7
  6
CONTINUOUS
370
    -3
390
F
347
4A8
348
0
  0
ENDTAB
  0
TABLE
  2
STYLE
  5
3
330
0
100
AcDbSymbolTable
 70
     3
  0
STYLE
  5
11
330
3
100
AcDbSymbolTableRecord
100
AcDbTextStyleTableRecord
  2
STANDARD
 70
     0
 40
0.0
 41
1.0
 50
0.0
 71
     0
 42
0.2
  3
txt
  4
bigfont.shx
  0
STYLE
  5
46
330
3
100
AcDbSymbolTableRecord
100
AcDbTextStyleTableRecord
  2
TATEGAKI
 70
     4
 40
0.0
 41
1.0
 50
0.0
 71
     0
 42
1.0
  3
txt
  4
bigfont.shx
  0
STYLE
  5
269
330
3
100
AcDbSymbolTableRecord
100
AcDbTextStyleTableRecord
  2
MSゴシック
 70
     0
 40
0.0
 41
0.8
 50
0.0
 71
     0
 42
0.2
  3

  4

1001
ACAD
1000
MS Gothic
1071
    32817
  0
ENDTAB
  0
TABLE
  2
VIEW
  5
6
330
0
100
AcDbSymbolTable
 70
     0
  0
ENDTAB
  0
TABLE
  2
UCS
  5
7
330
0
100
AcDbSymbolTable
 70
     0
  0
ENDTAB
  0
TABLE
  2
APPID
  5
9
330
0
100
AcDbSymbolTable
 70
     2
  0
APPID
  5
12
330
9
100
AcDbSymbolTableRecord
100
AcDbRegAppTableRecord
  2
ACAD
 70
     0
  0
APPID
  5
4F9
330
9
100
AcDbSymbolTableRecord
100
AcDbRegAppTableRecord
  2
ACAD_NAV_VCDISPLAY
 70
     0
  0
ENDTAB
  0
TABLE
  2
DIMSTYLE
  5
A
330
0
100
AcDbSymbolTable
 70
     1
100
AcDbDimStyleTable
 71
     0
  0
DIMSTYLE
105
25C
330
A
100
AcDbSymbolTableRecord
100
AcDbDimStyleTableRecord
  2
Standard
 70
     0
340
11
  0
ENDTAB
  0
TABLE
  2
BLOCK_RECORD
  5
1
330
0
100
AcDbSymbolTable
 70
     0
  0
BLOCK_RECORD
  5
20
330
1
100
AcDbSymbolTableRecord
100
AcDbBlockTableRecord
  2
*Model_Space
340
23
 70
     0
280
     1
281
     0
  0
BLOCK_RECORD
  5
1C
330
1
100
AcDbSymbolTableRecord
100
AcDbBlockTableRecord
  2
*Paper_Space
340
1F
 70
     0
280
     1
281
     0
  0
ENDTAB
  0
ENDSEC
  0
SECTION
  2
BLOCKS
  0
BLOCK
  5
21
330
20
100
AcDbEntity
  8
0
100
AcDbBlockBegin
  2
*Model_Space
 70
     0
 10
0.0
 20
0.0
 30
0.0
  3
*Model_Space
  1

  0
ENDBLK
  5
22
330
20
100
AcDbEntity
  8
0
100
AcDbBlockEnd
  0
BLOCK
  5
1D
330
1C
100
AcDbEntity
 67
     1
  8
0
100
AcDbBlockBegin
  2
*Paper_Space
 70
     0
 10
0.0
 20
0.0
 30
0.0
  3
*Paper_Space
  1

  0
ENDBLK
  5
1E
330
1C
100
AcDbEntity
 67
     1
  8
0
100
AcDbBlockEnd
  0
ENDSEC
  0
SECTION
  2
ENTITIES
  0
LINE
  5
4D
330
20
100
AcDbEntity
  8
_0-0_
  6
Continuous
 62
     4
100
AcDbLine
 10
649.3363498718841
 20
466.9999999999999
 30
0.0
 11
649.3363498718841
 21
308.9999999999999
 31
0.0
  0
ARC
  5
4E
330
20
100
AcDbEntity
  8
_0-0_
  6
Continuous
 62
     2
100
AcDbCircle
 10
905.9394661946097
 20
1412.949348665368
 30
0.0
 40
2.0
100
AcDbArc
 50
230.7391704772681
 51
234.7139637988223
  0
LINE
  5
4F
330
20
100
AcDbEntity
  8
_0-0_
  6
Continuous
 62
     3
100
AcDbLine
 10
869.1466300258349
 20
1415.502262711581
 30
0.0
 11
866.5479023037022
 21
1416.448122249399
 31
0.0
  0
LINE
  5
50
330
20
100
AcDbEntity
  8
_0-0_
  6
Continuous
 62
     3
100
AcDbLine
 10
869.6254582264909
 20
1416.817832380681
 30
0.0
 11
867.026730504358
 21
1417.7636919185
 31
0.0
  0
ARC
  5
51
330
20
100
AcDbEntity
  8
_0-0_
  6
Continuous
 62
     3
100
AcDbCircle
 10
866.7873164040303
 20
1417.10590708395
 30
0.0
 40
0.7000000000000454
100
AcDbArc
 50
70.0
 51
250.0
  0
LINE
  5
52
330
20
100
AcDbEntity
  8
_0-0_
  6
Continuous
 62
     3
100
AcDbLine
 10
872.9467940153092
 20
1415.608965015548
 30
0.0
 11
869.6254582264909
 21
1416.817832380681
 31
0.0
  0
ARC
  5
53
330
20
100
AcDbEntity
  8
_0-0_
  6
Continuous
 62
     3
100
AcDbCircle
 10
872.7042261078089
 20
1414.952328072933
 30
0.0
 40
0.7033562114915342
100
AcDbArc
 50
249.0127257529922
 51
69.72529245696556
  0
ARC
  5
54
330
20
100
AcDbEntity
  8
_0-0_
  6
Continuous
 62
     3
100
AcDbCircle
 10
873.858564527851
 20
1414.87973738652
 30
0.0
 40
1.199999999999999
100
AcDbArc
 50
69.99999999999999
 51
141.8701482395206
  0
ARC
  5
55
330
20
100
AcDbEntity
  8
_0-0_
  6
Continuous
 62
     3
100
AcDbCircle
 10
873.7390300323593
 20
1415.136079939342
 30
0.0
 40
2.0
100
AcDbArc
 50
69.99999999999999
 51
154.2608295227318
  0
LINE
  5
56
330
20
100
AcDbEntity
  8
_0-0_
  6
Continuous
 62
     3
100
AcDbLine
 10
873.242928269865
 20
1413.188290669106
 30
0.0
 11
876.6258217046942
 21
1411.957018153133
 31
0.0
  0
ARC
  5
57
330
20
100
AcDbEntity
  8
_0-0_
  6
Continuous
 62
     3
100
AcDbCircle
 10
873.6533524418556
 20
1414.315921814049
 30
0.0
 40
1.199999999999999
100
AcDbArc
 50
180.8237878701924
 51
250.0
  0
ARC
  5
58
330
20
100
AcDbEntity
  8
_0-0_
  6
Continuous
 62
     3
100
AcDbCircle
 10
873.3970098890333
 20
1414.196387318557
 30
0.0
 40
2.0
100
AcDbArc
 50
169.7139637988223
 51
250.0
  0
ARC
  5
59
330
20
100
AcDbEntity
  8
_0-0_
  6
Continuous
 62
     3
100
AcDbCircle
 10
873.3970098890333
 20
1414.196387318557
 30
0.0
 40
2.0
100
AcDbArc
 50
165.7391704772681
 51
169.7139637988222
  0
LINE
  5
5A
330
20
100
AcDbEntity
  8
_0-0_
  6
Continuous
 62
     3
100
AcDbLine
 10
872.4679658146534
 20
1414.293395346448
 30
0.0
 11
869.1466300258349
 21
1415.502262711581
 31
0.0
  0
LINE
  5
5B
330
20
100
AcDbEntity
  8
_0-0_
  6
Continuous
 62
     3
100
AcDbLine
 10
872.7129696023821
 20
1412.317002076985
 30
0.0
 11
876.4717400855257
 21
1410.948921503683
 31
0.0
  0
ARC
  5
5C
330
20
100
AcDbEntity
  8
_0-0_
  6
Continuous
 62
     3
100
AcDbCircle
 10
877.1557803721771
 20
1412.828306745254
 30
0.0
 40
2.0
100
AcDbArc
 50
250.0
 51
334.2608295227318
  0
ARC
  5
5D
330
20
100
AcDbEntity
  8
_0-0_
  6
Continuous
 62
     3
100
AcDbCircle
 10
877.0362458766852
 20
1413.084649298076
 30
0.0
 40
1.199999999999999
100
AcDbArc
 50
250.0
 51
320.6938060799083
  0
LINE
  5
5E
330
20
100
AcDbEntity
  8
_0-0_
  6
Continuous
 62
     3
100
AcDbLine
 10
881.0317019029465
 20
1412.654639572989
 30
0.0
 11
878.4329741808138
 21
1413.600499110808
 31
0.0
  0
LINE
  5
5F
330
20
100
AcDbEntity
  8
_0-0_
  6
Continuous
 62
     3
100
AcDbLine
 10
880.5528737022905
 20
1411.339069903889
 30
0.0
 11
877.9541459801578
 21
1412.284929441708
 31
0.0
  0
LINE
  5
60
330
20
100
AcDbEntity
  8
_0-0_
  6
Continuous
 62
     3
100
AcDbLine
 10
874.2689886998421
 20
1416.007368531464
 30
0.0
 11
877.6518821346714
 21
1414.776096015491
 31
0.0
  0
ARC
  5
61
330
20
100
AcDbEntity
  8
_0-0_
  6
Continuous
 62
     3
100
AcDbCircle
 10
878.1935600804857
 20
1412.942714276258
 30
0.0
 40
0.7000000000000454
100
AcDbArc
 50
70.0
 51
250.0
  0
ARC
  5
62
330
20
100
AcDbEntity
  8
_0-0_
  6
Continuous
 62
     3
100
AcDbCircle
 10
877.2414579626802
 20
1413.648464870548
 30
0.0
 40
1.199999999999999
100
AcDbArc
 50
358.4349488229277
 51
69.99999999999999
  0
LINE
  5
63
330
20
100
AcDbEntity
  8
_0-0_
  6
Continuous
 62
     3
100
AcDbLine
 10
874.4230703190103
 20
1417.015465180914
 30
0.0
 11
878.1818408021539
 21
1415.647384607612
 31
0.0
  0
ARC
  5
64
330
20
100
AcDbEntity
  8
_0-0_
  6
Continuous
 62
     3
100
AcDbCircle
 10
877.4978005155029
 20
1413.76799936604
 30
0.0
 40
2.0
100
AcDbArc
 50
345.7391704772681
 51
69.99999999999999
  0
LINE
  5
65
330
20
100
AcDbEntity
  8
_0-0_
  6
Continuous
 62
     3
100
AcDbLine
 10
884.353037691765
 20
1411.445772207856
 30
0.0
 11
881.0317019029465
 21
1412.654639572989
 31
0.0
  0
ARC
  5
66
330
20
100
AcDbEntity
  8
_0-0_
  6
Continuous
 62
     3
100
AcDbCircle
 10
884.1104697842647
 20
1410.789135265241
 30
0.0
 40
0.7033562114915342
100
AcDbArc
 50
249.0127257529922
 51
69.72529245696556
  0
ARC
  5
67
330
20
100
AcDbEntity
  8
_0-0_
  6
Continuous
 62
     3
100
AcDbCircle
 10
884.8032535654891
 20
1410.033194510865
 30
0.0
 40
2.0
100
AcDbArc
 50
169.7139637988223
 51
250.0
  0
LINE
  5
68
330
20
100
AcDbEntity
  8
_0-0_
  6
Continuous
 62
     3
100
AcDbLine
 10
883.874209491109
 20
1410.130202538756
 30
0.0
 11
880.5528737022905
 21
1411.339069903889
 31
0.0
  0
ARC
  5
69
330
20
100
AcDbEntity
  8
_0-0_
  6
Continuous
 62
     3
100
AcDbCircle
 10
884.8032535654891
 20
1410.033194510865
 30
0.0
 40
2.0
100
AcDbArc
 50
165.7391704772681
 51
169.7139637988222
  0
ARC
  5
6A
330
20
100
AcDbEntity
  8
_0-0_
  6
Continuous
 62
     3
100
AcDbCircle
 10
885.1452737088145
 20
1410.972887131651
 30
0.0
 40
2.0
100
AcDbArc
 50
69.99999999999999
 51
154.2608295227318
  0
LINE
  5
6B
330
20
100
AcDbEntity
  8
_0-0_
  6
Continuous
 62
     3
100
AcDbLine
 10
885.8293139954659
 20
1412.852272373222
 30
0.0
 11
889.5880844786097
 21
1411.48419179992
 31
0.0
  0
LINE
  5
6C
330
20
100
AcDbEntity
  8
_0-0_
  6
Continuous
 62
     3
100
AcDbLine
 10
885.6752323762973
 20
1411.844175723771
 30
0.0
 11
889.0581258111266
 21
1410.612903207799
 31
0.0
  0
ARC
  5
6D
330
20
100
AcDbEntity
  8
_0-0_
  6
Continuous
 62
     3
100
AcDbCircle
 10
885.2648082043067
 20
1410.716544578829
 30
0.0
 40
1.199999999999999
100
AcDbArc
 50
69.99999999999999
 51
141.8701482395206
  0
ARC
  5
6E
330
20
100
AcDbEntity
  8
_0-0_
  6
Continuous
 62
     3
100
AcDbCircle
 10
885.0595961183113
 20
1410.152729006357
 30
0.0
 40
1.199999999999999
100
AcDbArc
 50
180.8237878701924
 51
250.0
  0
LINE
  5
6F
330
20
100
AcDbEntity
  8
_0-0_
  6
Continuous
 62
     3
100
AcDbLine
 10
884.6491719463205
 20
1409.025097861414
 30
0.0
 11
888.0320653811498
 21
1407.793825345441
 31
0.0
  0
LINE
  5
70
330
20
100
AcDbEntity
  8
_0-0_
  6
Continuous
 62
     3
100
AcDbLine
 10
884.1192132788377
 20
1408.153809269293
 30
0.0
 11
887.8779837619813
 21
1406.785728695991
 31
0.0
  0
ARC
  5
71
330
20
100
AcDbEntity
  8
_0-0_
  6
Continuous
 62
     3
100
AcDbCircle
 10
888.5620240486325
 20
1408.665113937562
 30
0.0
 40
2.0
100
AcDbArc
 50
250.0
 51
334.2608295227318
  0
ARC
  5
72
330
20
100
AcDbEntity
  8
_0-0_
  6
Continuous
 62
     3
100
AcDbCircle
 10
888.4424895531406
 20
1408.921456490385
 30
0.0
 40
1.199999999999999
100
AcDbArc
 50
250.0
 51
320.6938060799083
  0
ARC
  5
73
330
20
100
AcDbEntity
  8
_0-0_
  6
Continuous
 62
     3
100
AcDbCircle
 10
889.5384100365687
 20
1408.794330351335
 30
0.0
 40
0.7000000000000454
100
AcDbArc
 50
74.99999999999999
 51
255.0
  0
ARC
  5
74
330
20
100
AcDbEntity
  8
_0-0_
  6
Continuous
 62
     3
100
AcDbCircle
 10
888.647701639136
 20
1409.485272062856
 30
0.0
 40
1.199999999999999
100
AcDbArc
 50
358.4349488229277
 51
69.99999999999999
  0
ARC
  5
75
330
20
100
AcDbEntity
  8
_0-0_
  6
Continuous
 62
     3
100
AcDbCircle
 10
888.9040441919583
 20
1409.604806558348
 30
0.0
 40
2.0
100
AcDbArc
 50
345.7391704772681
 51
69.99999999999999
  0
LINE
  5
76
330
20
100
AcDbEntity
  8
_0-0_
  6
Continuous
 62
     3
100
AcDbLine
 10
892.390859237267
 20
1408.754712217844
 30
0.0
 11
889.7195833681406
 21
1409.470478429737
 31
0.0
  0
LINE
  5
77
330
20
100
AcDbEntity
  8
_0-0_
  6
Continuous
 62
     3
100
AcDbLine
 10
892.0285125741235
 20
1407.402416061039
 30
0.0
 11
889.3572367049971
 21
1408.118182272932
 31
0.0
  0
LINE
  5
78
330
20
100
AcDbEntity
  8
_0-0_
  6
Continuous
 62
     3
100
AcDbLine
 10
896.3183188480686
 20
1405.402405401944
 30
0.0
 11
900.0770893312125
 21
1406.770485975247
 31
0.0
  0
ARC
  5
79
330
20
100
AcDbEntity
  8
_0-0_
  6
Continuous
 62
     3
100
AcDbCircle
 10
895.6342785614175
 20
1407.281790643516
 30
0.0
 40
2.0
100
AcDbArc
 50
189.1020331253995
 51
290.0
  0
LINE
  5
7A
330
20
100
AcDbEntity
  8
_0-0_
  6
Continuous
 62
     3
100
AcDbLine
 10
895.4425694106182
 20
1406.487622288787
 30
0.0
 11
892.0285125741235
 21
1407.402416061039
 31
0.0
  0
ARC
  5
7B
330
20
100
AcDbEntity
  8
_0-0_
  6
Continuous
 62
     3
100
AcDbCircle
 10
895.7538130569094
 20
1407.538133196338
 30
0.0
 40
1.199999999999999
100
AcDbArc
 50
230.8848487083336
 51
290.0
  0
ARC
  5
7C
330
20
100
AcDbEntity
  8
_0-0_
  6
Continuous
 62
     3
100
AcDbCircle
 10
899.393049044561
 20
1408.649871216818
 30
0.0
 40
2.0
100
AcDbArc
 50
290.0
 51
22.54924396301797
  0
ARC
  5
7D
330
20
100
AcDbEntity
  8
_0-0_
  6
Continuous
 62
     3
100
AcDbCircle
 10
899.1367064917389
 20
1408.76940571231
 30
0.0
 40
1.199999999999999
100
AcDbArc
 50
290.0
 51
5.903091444192269
  0
LINE
  5
7E
330
20
100
AcDbEntity
  8
_0-0_
  6
Continuous
 62
     3
100
AcDbLine
 10
902.7598941281663
 20
1410.294250792951
 30
0.0
 11
900.3648937045129
 21
1408.911496653646
 31
0.0
  0
ARC
  5
7F
330
20
100
AcDbEntity
  8
_0-0_
  6
Continuous
 62
     3
100
AcDbCircle
 10
900.0148937045128
 20
1409.517714436295
 30
0.0
 40
0.7000000000000454
100
AcDbArc
 50
120.0
 51
300.0
  0
ARC
  5
80
330
20
100
AcDbEntity
  8
_0-0_
  6
Continuous
 62
     3
100
AcDbCircle
 10
898.9314944057433
 20
1409.333221284782
 30
0.0
 40
1.199999999999999
100
AcDbArc
 50
47.15349804060728
 51
110.0
  0
LINE
  5
81
330
20
100
AcDbEntity
  8
_0-0_
  6
Continuous
 62
     3
100
AcDbLine
 10
894.6082181314405
 20
1410.100868505873
 30
0.0
 11
898.3669886145841
 21
1411.468949079176
 31
0.0
  0
LINE
  5
82
330
20
100
AcDbEntity
  8
_0-0_
  6
Continuous
 62
     3
100
AcDbLine
 10
895.138176798923
 20
1409.229579913753
 30
0.0
 11
898.5210702337523
 21
1410.460852429725
 31
0.0
  0
LINE
  5
83
330
20
100
AcDbEntity
  8
_0-0_
  6
Continuous
 62
     3
100
AcDbLine
 10
896.1642372289
 20
1406.410502051395
 30
0.0
 11
899.5471306637297
 21
1407.641774567367
 31
0.0
  0
LINE
  5
84
330
20
100
AcDbEntity
  8
_0-0_
  6
Continuous
 62
     3
100
AcDbLine
 10
895.8049160737619
 20
1407.839918445591
 30
0.0
 11
892.390859237267
 21
1408.754712217844
 31
0.0
  0
ARC
  5
85
330
20
100
AcDbEntity
  8
_0-0_
  6
Continuous
 62
     3
100
AcDbCircle
 10
895.6205008908318
 20
1407.164639018643
 30
0.0
 40
0.7033562114915342
100
AcDbArc
 50
260.5994770874271
 51
69.40052291257295
  0
ARC
  5
86
330
20
100
AcDbEntity
  8
_0-0_
  6
Continuous
 62
     3
100
AcDbCircle
 10
895.5486009709142
 20
1408.101948768809
 30
0.0
 40
1.199999999999999
100
AcDbArc
 50
110.0
 51
173.9536562900991
  0
ARC
  5
87
330
20
100
AcDbEntity
  8
_0-0_
  6
Continuous
 62
     3
100
AcDbCircle
 10
895.2922584180916
 20
1408.221483264301
 30
0.0
 40
2.0
100
AcDbArc
 50
110.0
 51
171.7731640217038
  0
ARC
  5
88
330
20
100
AcDbEntity
  8
_0-0_
  6
Continuous
 62
     3
100
AcDbCircle
 10
899.0510289012354
 20
1409.589563837604
 30
0.0
 40
2.0
100
AcDbArc
 50
34.46913768242537
 51
110.0
  0
LINE
  5
89
330
20
100
AcDbEntity
  8
_0-0_
  6
Continuous
 62
     3
100
AcDbLine
 10
902.0598941281662
 20
1411.506686358249
 30
0.0
 11
899.6648937045129
 21
1410.123932218944
 31
0.0
  0
LINE
  5
8A
330
20
100
AcDbEntity
  8
_0-0_
  6
Continuous
 62
     3
100
AcDbLine
 10
905.1773817713705
 20
1413.306568688249
 30
0.0
 11
902.0598941281662
 21
1411.506686358249
 31
0.0
  0
ARC
  5
8B
330
20
100
AcDbEntity
  8
_0-0_
  6
Continuous
 62
     3
100
AcDbCircle
 10
905.9394661946097
 20
1412.949348665368
 30
0.0
 40
2.0
100
AcDbArc
 50
234.7139637988223
 51
315.0
  0
LINE
  5
8C
330
20
100
AcDbEntity
  8
_0-0_
  6
Continuous
 62
     3
100
AcDbLine
 10
905.8773817713708
 20
1412.094133122951
 30
0.0
 11
902.7598941281663
 21
1410.294250792951
 31
0.0
  0
ARC
  5
8D
330
20
100
AcDbEntity
  8
_0-0_
  6
Continuous
 62
     3
100
AcDbCircle
 10
905.9394661946097
 20
1413.232191377843
 30
0.0
 40
1.199999999999999
100
AcDbArc
 50
262.6981855639577
 51
315.0
  0
ARC
  5
8E
330
20
100
AcDbEntity
  8
_0-0_
  6
Continuous
 62
     3
100
AcDbCircle
 10
905.4679471839426
 20
1412.666036330549
 30
0.0
 40
0.7033562114915342
100
AcDbArc
 50
305.5994770874271
 51
114.4005229125729
  0
LINE
  5
8F
330
20
100
AcDbEntity
  8
_0-0_
  6
Continuous
 62
     3
100
AcDbLine
 10
906.7879943320336
 20
1412.383663240419
 30
0.0
 11
909.3335787443052
 21
1414.929247652691
 31
0.0
  0
ARC
  5
90
330
20
100
AcDbEntity
  8
_0-0_
  6
Continuous
 62
     3
100
AcDbCircle
 10
905.5152021258976
 20
1413.656455446555
 30
0.0
 40
1.199999999999999
100
AcDbArc
 50
135.0
 51
216.4162361830391
  0
LINE
  5
91
330
20
100
AcDbEntity
  8
_0-0_
  6
Continuous
 62
     3
100
AcDbLine
 10
904.6666739884738
 20
1414.504983583979
 30
0.0
 11
907.2122584007457
 21
1417.050567996251
 31
0.0
  0
LINE
  5
92
330
20
100
AcDbEntity
  8
_0-0_
  6
Continuous
 62
     3
100
AcDbLine
 10
903.81814585105
 20
1415.070669008928
 30
0.0
 11
906.6465729757963
 21
1417.899096133674
 31
0.0
  0
ARC
  5
93
330
20
100
AcDbEntity
  8
_0-0_
  6
Continuous
 62
     3
100
AcDbCircle
 10
905.2323594134232
 20
1413.656455446555
 30
0.0
 40
2.0
100
AcDbArc
 50
135.0
 51
219.2608295227318
  0
ARC
  5
94
330
20
100
AcDbEntity
  8
_0-0_
  6
Continuous
 62
     3
100
AcDbCircle
 10
908.0607865381695
 20
1416.484882571301
 30
0.0
 40
2.0
100
AcDbArc
 50
53.48773182817282
 51
135.0
  0
ARC
  5
95
330
20
100
AcDbEntity
  8
_0-0_
  6
Continuous
 62
     3
100
AcDbCircle
 10
908.0607865381695
 20
1416.202039858826
 30
0.0
 40
1.199999999999999
100
AcDbArc
 50
63.4349488229276
 51
135.0
  0
LINE
  5
96
330
20
100
AcDbEntity
  8
_0-0_
  6
Continuous
 62
     3
100
AcDbLine
 10
910.3733879319912
 20
1419.430217940871
 30
0.0
 11
908.5957534760147
 21
1417.311715691642
 31
0.0
  0
ARC
  5
97
330
20
100
AcDbEntity
  8
_0-0_
  6
Continuous
 62
     3
100
AcDbCircle
 10
909.1319845861983
 20
1416.861764364861
 30
0.0
 40
0.7000000000000454
100
AcDbArc
 50
140.0
 51
320.0
  0
LINE
  5
98
330
20
100
AcDbEntity
  8
_0-0_
  6
Continuous
 62
     3
100
AcDbLine
 10
911.445850152358
 20
1418.53031528731
 30
0.0
 11
909.6682156963817
 21
1416.41181303808
 31
0.0
  0
ARC
  5
99
330
20
100
AcDbEntity
  8
_0-0_
  6
Continuous
 62
     3
100
AcDbCircle
 10
908.767893319356
 20
1415.777775790114
 30
0.0
 40
2.0
100
AcDbArc
 50
315.0
 51
41.89035813259793
  0
ARC
  5
9A
330
20
100
AcDbEntity
  8
_0-0_
  6
Continuous
 62
     3
100
AcDbCircle
 10
908.4850506068812
 20
1415.777775790115
 30
0.0
 40
1.199999999999999
100
AcDbArc
 50
315.0
 51
25.69380607990829
  0
LINE
  5
9B
330
20
100
AcDbEntity
  8
_0-0_
  6
Continuous
 62
     3
100
AcDbLine
 10
907.3536797569827
 20
1411.535135102995
 30
0.0
 11
910.1821068817288
 21
1414.363562227741
 31
0.0
  0
LINE
  5
9C
330
20
100
AcDbEntity
  8
_0-0_
  6
Continuous
 62
     3
100
AcDbLine
 10
913.7177776374068
 20
1421.23789302973
 30
0.0
 11
911.445850152358
 21
1418.53031528731
 31
0.0
  0
LINE
  5
9D
330
20
100
AcDbEntity
  8
_0-0_
  6
Continuous
 62
     3
100
AcDbLine
 10
914.625381110916
 20
1421.968388484351
 30
0.0
 11
915.8566536268885
 21
1425.35128191918
 31
0.0
  0
ARC
  5
9E
330
20
100
AcDbEntity
  8
_0-0_
  6
Continuous
 62
     3
100
AcDbCircle
 10
913.617284461465
 20
1422.122470103519
 30
0.0
 40
2.0
100
AcDbArc
 50
248.8316584116536
 51
340.0
  0
ARC
  5
9F
330
20
100
AcDbEntity
  8
_0-0_
  6
Continuous
 62
     3
100
AcDbCircle
 10
913.4977499659731
 20
1422.378812656342
 30
0.0
 40
1.199999999999999
100
AcDbArc
 50
278.7291637143283
 51
340.0
  0
LINE
  5
A0
330
20
100
AcDbEntity
  8
_0-0_
  6
Continuous
 62
     3
100
AcDbLine
 10
912.6453154170398
 20
1422.137795683292
 30
0.0
 11
910.3733879319912
 21
1419.430217940871
 31
0.0
  0
ARC
  5
A1
330
20
100
AcDbEntity
  8
_0-0_
  6
Continuous
 62
     3
100
AcDbCircle
 10
912.6775918406792
 20
1422.464490246845
 30
0.0
 40
2.0
100
AcDbArc
 50
160.0
 51
235.3152161852671
  0
ARC
  5
A2
330
20
100
AcDbEntity
  8
_0-0_
  6
Continuous
 62
     3
100
AcDbCircle
 10
913.1815465272232
 20
1421.687844356511
 30
0.0
 40
0.7000000000000454
100
AcDbArc
 50
320.0
 51
140.0
  0
LINE
  5
A3
330
20
100
AcDbEntity
  8
_0-0_
  6
Continuous
 62
     3
100
AcDbLine
 10
911.8063032485585
 20
1422.994448914328
 30
0.0
 11
913.0375757645309
 21
1426.377342349157
 31
0.0
  0
ARC
  5
A4
330
20
100
AcDbEntity
  8
_0-0_
  6
Continuous
 62
     3
100
AcDbCircle
 10
912.9339343935015
 20
1422.584024742337
 30
0.0
 40
1.199999999999999
100
AcDbArc
 50
160.0
 51
233.1402130455168
  0
LINE
  5
A5
330
20
100
AcDbEntity
  8
_0-0_
  6
Continuous
 62
     3
100
AcDbLine
 10
910.7982065991073
 20
1423.148530533497
 30
0.0
 11
912.1662871724097
 21
1426.90730101664
 31
0.0
  0
ARC
  5
A6
330
20
100
AcDbEntity
  8
_0-0_
  6
Continuous
 62
     3
100
AcDbCircle
 10
914.045672413982
 20
1426.223260729988
 30
0.0
 40
2.0
100
AcDbArc
 50
80.84299078953577
 51
160.0
  0
ARC
  5
A7
330
20
100
AcDbEntity
  8
_0-0_
  6
Continuous
 62
     3
100
AcDbCircle
 10
914.1652069094739
 20
1425.966918177167
 30
0.0
 40
1.199999999999999
100
AcDbArc
 50
88.43494882292757
 51
160.0
  0
LINE
  5
A8
330
20
100
AcDbEntity
  8
_0-0_
  6
Continuous
 62
     3
100
AcDbLine
 10
914.6419397989971
 20
1429.774312171848
 30
0.0
 11
914.1617143260935
 21
1427.050818178052
 31
0.0
  0
ARC
  5
A9
330
20
100
AcDbEntity
  8
_0-0_
  6
Continuous
 62
     3
100
AcDbCircle
 10
914.8510797532019
 20
1426.929264453686
 30
0.0
 40
0.7000000000000454
100
AcDbArc
 50
170.0
 51
350.0
  0
ARC
  5
AA
330
20
100
AcDbEntity
  8
_0-0_
  6
Continuous
 62
     3
100
AcDbCircle
 10
914.7290224819455
 20
1425.761706091171
 30
0.0
 40
1.199999999999999
100
AcDbArc
 50
340.0
 51
50.69380607990829
  0
LINE
  5
AB
330
20
100
AcDbEntity
  8
_0-0_
  6
Continuous
 62
     3
100
AcDbLine
 10
915.4966697030367
 20
1421.438429816868
 30
0.0
 11
916.8647502763395
 21
1425.197200300012
 31
0.0
  0
ARC
  5
AC
330
20
100
AcDbEntity
  8
_0-0_
  6
Continuous
 62
     3
100
AcDbCircle
 10
914.9853650347679
 20
1425.881240586663
 30
0.0
 40
2.0
100
AcDbArc
 50
340.0
 51
68.87887893314399
  0
LINE
  5
AD
330
20
100
AcDbEntity
  8
_0-0_
  6
Continuous
 62
     3
100
AcDbLine
 10
916.0206706532141
 20
1429.531204723114
 30
0.0
 11
915.5404451803107
 21
1426.807710729319
 31
0.0
  0
LINE
  5
AE
330
20
100
AcDbEntity
  8
_0-0_
  6
Continuous
 62
     3
100
AcDbLine
 10
916.6344286996126
 20
1433.011999573296
 30
0.0
 11
916.0206706532141
 21
1429.531204723114
 31
0.0
  0
LINE
  5
AF
330
20
100
AcDbEntity
  8
_0-0_
  6
Continuous
 62
     3
100
AcDbLine
 10
915.2556978453951
 20
1433.255107022029
 30
0.0
 11
914.6419397989971
 21
1429.774312171848
 31
0.0
  0
ARC
  5
B0
330
20
100
AcDbEntity
  8
_0-0_
  6
Continuous
 62
     3
100
AcDbCircle
 10
915.9444804724943
 20
1433.130248074565
 30
0.0
 40
0.7033562114915342
100
AcDbArc
 50
355.5994770874271
 51
164.4005229125729
  0
ARC
  5
B1
330
20
100
AcDbEntity
  8
_0-0_
  6
Continuous
 62
     3
100
AcDbCircle
 10
916.5666169968705
 20
1434.11956251328
 30
0.0
 40
2.0
100
AcDbArc
 50
267.4438140021864
 51
0.0
  0
LINE
  5
B2
330
20
100
AcDbEntity
  8
_0-0_
  6
Continuous
 62
     3
100
AcDbLine
 10
917.5666169968705
 20
1434.31956251328
 30
0.0
 11
917.5666169968705
 21
1437.91956251328
 31
0.0
  0
LINE
  5
B3
330
20
100
AcDbEntity
  8
_0-0_
  6
Continuous
 62
     3
100
AcDbLine
 10
918.5666169968706
 20
1434.11956251328
 30
0.0
 11
918.5666169968706
 21
1438.11956251328
 31
0.0
  0
ARC
  5
B4
330
20
100
AcDbEntity
  8
_0-0_
  6
Continuous
 62
     3
100
AcDbCircle
 10
916.3666169968704
 20
1434.31956251328
 30
0.0
 40
1.199999999999999
100
AcDbArc
 50
283.5353893462023
 51
0.0
  0
ARC
  5
B5
330
20
100
AcDbEntity
  8
_0-0_
  6
Continuous
 62
     3
100
AcDbCircle
 10
915.5666169968705
 20
1434.11956251328
 30
0.0
 40
2.0
100
AcDbArc
 50
180.0
 51
255.5239578161818
  0
ARC
  5
B6
330
20
100
AcDbEntity
  8
_0-0_
  6
Continuous
 62
     3
100
AcDbCircle
 10
915.7666169968704
 20
1434.31956251328
 30
0.0
 40
1.199999999999999
100
AcDbArc
 50
180.0
 51
244.6173802313127
  0
LINE
  5
B7
330
20
100
AcDbEntity
  8
_0-0_
  6
Continuous
 62
     3
100
AcDbLine
 10
914.5666169968706
 20
1434.31956251328
 30
0.0
 11
914.5666169968706
 21
1437.91956251328
 31
0.0
  0
LINE
  5
B8
330
20
100
AcDbEntity
  8
_0-0_
  6
Continuous
 62
     3
100
AcDbLine
 10
913.5666169968706
 20
1434.11956251328
 30
0.0
 11
913.5666169968706
 21
1438.11956251328
 31
0.0
  0
ARC
  5
B9
330
20
100
AcDbEntity
  8
_0-0_
  6
Continuous
 62
     3
100
AcDbCircle
 10
915.5666169968705
 20
1438.11956251328
 30
0.0
 40
2.0
100
AcDbArc
 50
95.73917047726808
 51
180.0
  0
ARC
  5
BA
330
20
100
AcDbEntity
  8
_0-0_
  6
Continuous
 62
     3
100
AcDbCircle
 10
916.0666169968706
 20
1439.11956251328
 30
0.0
 40
0.7000000000000454
100
AcDbArc
 50
180.0
 51
0.0
  0
ARC
  5
BB
330
20
100
AcDbEntity
  8
_0-0_
  6
Continuous
 62
     3
100
AcDbCircle
 10
916.5666169968705
 20
1438.11956251328
 30
0.0
 40
2.0
100
AcDbArc
 50
0.0
 51
84.26082952273189
  0
ARC
  5
BC
330
20
100
AcDbEntity
  8
_0-0_
  6
Continuous
 62
     3
100
AcDbCircle
 10
916.3666169968704
 20
1437.91956251328
 30
0.0
 40
1.199999999999999
100
AcDbArc
 50
0.0
 51
70.69380607990829
  0
ARC
  5
BD
330
20
100
AcDbEntity
  8
_0-0_
  6
Continuous
 62
     3
100
AcDbCircle
 10
915.7666169968704
 20
1437.91956251328
 30
0.0
 40
1.199999999999999
100
AcDbArc
 50
108.4349488229276
 51
180.0
  0
LINE
  5
BE
330
20
100
AcDbEntity
  8
_0-0_
  6
Continuous
 62
     3
100
AcDbLine
 10
915.3666169968705
 20
1441.885070791891
 30
0.0
 11
915.3666169968705
 21
1439.11956251328
 31
0.0
  0
LINE
  5
BF
330
20
100
AcDbEntity
  8
_0-0_
  6
Continuous
 62
     3
100
AcDbLine
 10
916.7666169968706
 20
1441.885070791891
 30
0.0
 11
916.7666169968706
 21
1439.11956251328
 31
0.0
  0
ARC
  5
C0
330
20
100
AcDbEntity
  8
_0-0_
  6
Continuous
 62
     3
100
AcDbCircle
 10
916.5666169968705
 20
1446.416206301788
 30
0.0
 40
2.0
100
AcDbArc
 50
279.7139637988223
 51
0.0
  0
ARC
  5
C1
330
20
100
AcDbEntity
  8
_0-0_
  6
Continuous
 62
     3
100
AcDbCircle
 10
916.5666169968705
 20
1446.416206301788
 30
0.0
 40
2.0
100
AcDbArc
 50
275.7391704772681
 51
279.7139637988223
  0
LINE
  5
C2
330
20
100
AcDbEntity
  8
_0-0_
  6
Continuous
 62
     3
100
AcDbLine
 10
916.7666169968706
 20
1445.41956251328
 30
0.0
 11
916.7666169968706
 21
1441.885070791891
 31
0.0
  0
ARC
  5
C3
330
20
100
AcDbEntity
  8
_0-0_
  6
Continuous
 62
     3
100
AcDbCircle
 10
915.5666169968705
 20
1446.416206301788
 30
0.0
 40
2.0
100
AcDbArc
 50
180.0
 51
264.2608295227319
  0
LINE
  5
C4
330
20
100
AcDbEntity
  8
_0-0_
  6
Continuous
 62
     3
100
AcDbLine
 10
915.3666169968705
 20
1445.41956251328
 30
0.0
 11
915.3666169968705
 21
1441.885070791891
 31
0.0
  0
ARC
  5
C5
330
20
100
AcDbEntity
  8
_0-0_
  6
Continuous
 62
     3
100
AcDbCircle
 10
915.7666169968704
 20
1446.616206301788
 30
0.0
 40
1.199999999999999
100
AcDbArc
 50
180.0
 51
250.5287793655048
  0
ARC
  5
C6
330
20
100
AcDbEntity
  8
_0-0_
  6
Continuous
 62
     3
100
AcDbCircle
 10
916.0666169968706
 20
1445.416206301788
 30
0.0
 40
0.7033562114915342
100
AcDbArc
 50
5.599477087427056
 51
174.4005229125729
  0
ARC
  5
C7
330
20
100
AcDbEntity
  8
_0-0_
  6
Continuous
 62
     3
100
AcDbCircle
 10
916.3666169968704
 20
1446.616206301788
 30
0.0
 40
1.199999999999999
100
AcDbArc
 50
289.4712206344952
 51
0.0
  0
LINE
  5
C8
330
20
100
AcDbEntity
  8
_0-0_
  6
Continuous
 62
     3
100
AcDbLine
 10
917.5666169968705
 20
1446.616206301788
 30
0.0
 11
917.5666169968705
 21
1450.216206301788
 31
0.0
  0
LINE
  5
C9
330
20
100
AcDbEntity
  8
_0-0_
  6
Continuous
 62
     3
100
AcDbLine
 10
918.5666169968706
 20
1446.416206301788
 30
0.0
 11
918.5666169968706
 21
1450.416206301788
 31
0.0
  0
ARC
  5
CA
330
20
100
AcDbEntity
  8
_0-0_
  6
Continuous
 62
     3
100
AcDbCircle
 10
916.5666169968705
 20
1450.416206301788
 30
0.0
 40
2.0
100
AcDbArc
 50
0.0
 51
84.26082952273189
  0
ARC
  5
CB
330
20
100
AcDbEntity
  8
_0-0_
  6
Continuous
 62
     3
100
AcDbCircle
 10
916.3666169968704
 20
1450.216206301788
 30
0.0
 40
1.199999999999999
100
AcDbArc
 50
0.0
 51
70.69380607990829
  0
ARC
  5
CC
330
20
100
AcDbEntity
  8
_0-0_
  6
Continuous
 62
     3
100
AcDbCircle
 10
916.0666169968706
 20
1451.416206301789
 30
0.0
 40
0.7000000000000454
100
AcDbArc
 50
180.0
 51
0.0
  0
LINE
  5
CD
330
20
100
AcDbEntity
  8
_0-0_
  6
Continuous
 62
     3
100
AcDbLine
 10
914.5666169968706
 20
1446.616206301788
 30
0.0
 11
914.5666169968706
 21
1450.216206301788
 31
0.0
  0
LINE
  5
CE
330
20
100
AcDbEntity
  8
_0-0_
  6
Continuous
 62
     3
100
AcDbLine
 10
913.5666169968706
 20
1446.416206301788
 30
0.0
 11
913.5666169968706
 21
1450.416206301788
 31
0.0
  0
ARC
  5
CF
330
20
100
AcDbEntity
  8
_0-0_
  6
Continuous
 62
     3
100
AcDbCircle
 10
915.5666169968705
 20
1450.416206301788
 30
0.0
 40
2.0
100
AcDbArc
 50
95.73917047726808
 51
180.0
  0
LINE
  5
D0
330
20
100
AcDbEntity
  8
_0-0_
  6
Continuous
 62
     3
100
AcDbLine
 10
915.3666169968705
 20
1454.181714580399
 30
0.0
 11
915.3666169968705
 21
1451.416206301789
 31
0.0
  0
LINE
  5
D1
330
20
100
AcDbEntity
  8
_0-0_
  6
Continuous
 62
     3
100
AcDbLine
 10
916.7666169968706
 20
1454.181714580399
 30
0.0
 11
916.7666169968706
 21
1451.416206301789
 31
0.0
  0
ARC
  5
D2
330
20
100
AcDbEntity
  8
_0-0_
  6
Continuous
 62
     3
100
AcDbCircle
 10
915.7666169968704
 20
1450.216206301788
 30
0.0
 40
1.199999999999999
100
AcDbArc
 50
109.3061939200917
 51
180.0
  0
LINE
  5
D3
330
20
100
AcDbEntity
  8
_0-0_
  6
Continuous
 62
     3
100
AcDbLine
 10
915.3666169968705
 20
1457.716206301788
 30
0.0
 11
915.3666169968705
 21
1454.181714580399
 31
0.0
  0
LINE
  5
D4
330
20
100
AcDbEntity
  8
_0-0_
  6
Continuous
 62
     3
100
AcDbLine
 10
916.7666169968706
 20
1457.716206301788
 30
0.0
 11
916.7666169968706
 21
1454.181714580399
 31
0.0
  0
ARC
  5
D5
330
20
100
AcDbEntity
  8
_0-0_
  6
Continuous
 62
     3
100
AcDbCircle
 10
916.0666169968706
 20
1457.716206301788
 30
0.0
 40
0.7000000000000454
100
AcDbArc
 50
0.0
 51
180.0
  0
LINE
  5
D6
330
20
100
AcDbEntity
  8
_0-0_
  6
DASHED3
 62
     1
100
AcDbLine
 10
1044.336349871884
 20
514.9999999999998
 30
0.0
 11
1044.336349871884
 21
1035.0
 31
0.0
  0
LINE
  5
D7
330
20
100
AcDbEntity
  8
_0-0_
  6
Continuous
 62
   136
100
AcDbLine
 10
1592.0
 20
2188.0
 30
0.0
 11
144.0
 21
2188.0
 31
0.0
  0
LINE
  5
D8
330
20
100
AcDbEntity
  8
_0-0_
  6
Continuous
 62
   136
100
AcDbLine
 10
1592.0
 20
108.0
 30
0.0
 11
1592.0
 21
2188.0
 31
0.0
  0
LINE
  5
D9
330
20
100
AcDbEntity
  8
_0-0_
  6
Continuous
 62
   136
100
AcDbLine
 10
144.0
 20
2188.0
 30
0.0
 11
144.0
 21
108.0
 31
0.0
  0
LINE
  5
DA
330
20
100
AcDbEntity
  8
_0-0_
  6
Continuous
 62
   136
100
AcDbLine
 10
144.0
 20
108.0
 30
0.0
 11
1592.0
 21
108.0
 31
0.0
  0
LINE
  5
DB
330
20
100
AcDbEntity
  8
_0-0_
  6
Continuous
 62
     4
100
AcDbLine
 10
1295.336349871884
 20
474.9999999999999
 30
0.0
 11
1077.336349871884
 21
474.9999999999999
 31
0.0
  0
LINE
  5
DC
330
20
100
AcDbEntity
  8
_0-0_
  6
Continuous
 62
     4
100
AcDbLine
 10
1155.336349871884
 20
494.9999999999999
 30
0.0
 11
959.336349871884
 21
494.9999999999999
 31
0.0
  0
LINE
  5
DD
330
20
100
AcDbEntity
  8
_0-0_
  6
Continuous
 62
     6
100
AcDbLine
 10
694.3363498718839
 20
474.9999999999999
 30
0.0
 11
694.3363498718839
 21
1075.0
 31
0.0
  0
LINE
  5
DE
330
20
100
AcDbEntity
  8
_0-0_
  6
Continuous
 62
     4
100
AcDbLine
 10
1225.336349871884
 20
623.9999999999999
 30
0.0
 11
1077.336349871884
 21
623.9999999999999
 31
0.0
  0
LINE
  5
DF
330
20
100
AcDbEntity
  8
_0-0_
  6
Continuous
 62
     4
100
AcDbLine
 10
694.3363498718839
 20
387.0
 30
0.0
 11
705.9274597873527
 21
390.1058285412302
 31
0.0
  0
LINE
  5
E0
330
20
100
AcDbEntity
  8
_0-0_
  6
Continuous
 62
     4
100
AcDbLine
 10
694.3363498718839
 20
387.0
 30
0.0
 11
705.9274597873527
 21
383.8941714587696
 31
0.0
  0
LINE
  5
E1
330
20
100
AcDbEntity
  8
_0-0_
  6
Continuous
 62
     4
100
AcDbLine
 10
694.3363498718839
 20
387.0
 30
0.0
 11
682.7452399564152
 21
383.8941714587696
 31
0.0
  0
LINE
  5
E2
330
20
100
AcDbEntity
  8
_0-0_
  6
Continuous
 62
     4
100
AcDbLine
 10
694.3363498718839
 20
387.0
 30
0.0
 11
682.7452399564152
 21
390.1058285412302
 31
0.0
  0
LINE
  5
E3
330
20
100
AcDbEntity
  8
_0-0_
  6
Continuous
 62
     4
100
AcDbLine
 10
694.3363498718839
 20
1617.027603074773
 30
0.0
 11
682.745239956415
 21
1613.921774533542
 31
0.0
  0
LINE
  5
E4
330
20
100
AcDbEntity
  8
_0-0_
  6
Continuous
 62
     4
100
AcDbLine
 10
694.3363498718839
 20
1617.027603074773
 30
0.0
 11
682.745239956415
 21
1620.133431616003
 31
0.0
  0
LINE
  5
E5
330
20
100
AcDbEntity
  8
_0-0_
  6
Continuous
 62
     4
100
AcDbLine
 10
694.3363498718839
 20
1617.027603074773
 30
0.0
 11
874.3363498718839
 21
1617.027603074773
 31
0.0
  0
LINE
  5
E6
330
20
100
AcDbEntity
  8
_0-0_
  6
Continuous
 62
     4
100
AcDbLine
 10
949.3363498718839
 20
1617.027603074773
 30
0.0
 11
874.3363498718839
 21
1617.027603074773
 31
0.0
  0
LINE
  5
E7
330
20
100
AcDbEntity
  8
_0-0_
  6
Continuous
 62
     4
100
AcDbLine
 10
949.3363498718839
 20
1617.027603074773
 30
0.0
 11
937.7452399564148
 21
1613.921774533542
 31
0.0
  0
LINE
  5
E8
330
20
100
AcDbEntity
  8
_0-0_
  6
Continuous
 62
     4
100
AcDbLine
 10
949.3363498718839
 20
1617.027603074773
 30
0.0
 11
937.7452399564148
 21
1620.133431616003
 31
0.0
  0
LINE
  5
E9
330
20
100
AcDbEntity
  8
_0-0_
  6
Continuous
 62
     4
100
AcDbLine
 10
949.3363498718839
 20
1617.027603074773
 30
0.0
 11
937.7452399564148
 21
1613.921774533542
 31
0.0
  0
LINE
  5
EA
330
20
100
AcDbEntity
  8
_0-0_
  6
Continuous
 62
     4
100
AcDbLine
 10
949.3363498718839
 20
1617.027603074773
 30
0.0
 11
937.7452399564148
 21
1620.133431616003
 31
0.0
  0
LINE
  5
EB
330
20
100
AcDbEntity
  8
_0-0_
  6
Continuous
 62
     4
100
AcDbLine
 10
874.3363498718839
 20
1617.027603074773
 30
0.0
 11
885.9274597873525
 21
1620.133431616003
 31
0.0
  0
LINE
  5
EC
330
20
100
AcDbEntity
  8
_0-0_
  6
Continuous
 62
     4
100
AcDbLine
 10
874.3363498718839
 20
1617.027603074773
 30
0.0
 11
885.9274597873525
 21
1613.921774533542
 31
0.0
  0
LINE
  5
ED
330
20
100
AcDbEntity
  8
_0-0_
  6
Continuous
 62
     4
100
AcDbLine
 10
874.3363498718839
 20
1617.027603074773
 30
0.0
 11
862.7452399564148
 21
1613.921774533542
 31
0.0
  0
LINE
  5
EE
330
20
100
AcDbEntity
  8
_0-0_
  6
Continuous
 62
     4
100
AcDbLine
 10
874.3363498718839
 20
1617.027603074773
 30
0.0
 11
862.7452399564148
 21
1620.133431616003
 31
0.0
  0
LINE
  5
EF
330
20
100
AcDbEntity
  8
_0-0_
  6
Continuous
 62
     4
100
AcDbLine
 10
694.3363498718839
 20
1617.027603074773
 30
0.0
 11
705.9274597873528
 21
1620.133431616003
 31
0.0
  0
LINE
  5
F0
330
20
100
AcDbEntity
  8
_0-0_
  6
Continuous
 62
     4
100
AcDbLine
 10
694.3363498718839
 20
1617.027603074773
 30
0.0
 11
705.9274597873528
 21
1613.921774533542
 31
0.0
  0
LINE
  5
F1
330
20
100
AcDbEntity
  8
_0-0_
  6
Continuous
 62
     4
100
AcDbLine
 10
694.3363498718839
 20
1625.027603074773
 30
0.0
 11
694.3363498718839
 21
1547.027603074773
 31
0.0
  0
TEXT
  5
F2
330
20
100
AcDbEntity
  8
_0-0_
 62
     7
100
AcDbText
 10
755.6465277777776
 20
1619.061689814815
 30
0.0
 40
32.0
  1
180
 41
0.8
  7
MSゴシック
100
AcDbText
  0
TEXT
  5
F3
330
20
100
AcDbEntity
  8
_0-0_
 62
     7
100
AcDbText
 10
892.7751766441495
 20
1618.887995962419
 30
0.0
 40
32.0
  1
75
 41
0.8
  7
MSゴシック
100
AcDbText
  0
LINE
  5
F4
330
20
100
AcDbEntity
  8
_0-0_
  6
Continuous
 62
     4
100
AcDbLine
 10
1069.336349871884
 20
1695.027603074773
 30
0.0
 11
1069.336349871884
 21
1521.027603074773
 31
0.0
  0
LINE
  5
F5
330
20
100
AcDbEntity
  8
_0-0_
  6
Continuous
 62
     4
100
AcDbLine
 10
949.3363498718839
 20
1617.027603074773
 30
0.0
 11
1069.336349871884
 21
1617.027603074773
 31
0.0
  0
LINE
  5
F6
330
20
100
AcDbEntity
  8
_0-0_
  6
Continuous
 62
     4
100
AcDbLine
 10
1069.336349871884
 20
1617.027603074773
 30
0.0
 11
1057.745239956415
 21
1613.921774533542
 31
0.0
  0
LINE
  5
F7
330
20
100
AcDbEntity
  8
_0-0_
  6
Continuous
 62
     4
100
AcDbLine
 10
1069.336349871884
 20
1617.027603074773
 30
0.0
 11
1057.745239956415
 21
1620.133431616003
 31
0.0
  0
LINE
  5
F8
330
20
100
AcDbEntity
  8
_0-0_
  6
Continuous
 62
     4
100
AcDbLine
 10
949.3363498718839
 20
1617.027603074773
 30
0.0
 11
960.9274597873527
 21
1620.133431616003
 31
0.0
  0
LINE
  5
F9
330
20
100
AcDbEntity
  8
_0-0_
  6
Continuous
 62
     4
100
AcDbLine
 10
949.3363498718839
 20
1617.027603074773
 30
0.0
 11
960.9274597873527
 21
1613.921774533542
 31
0.0
  0
LINE
  5
FA
330
20
100
AcDbEntity
  8
_0-0_
  6
Continuous
 62
     4
100
AcDbLine
 10
949.3363498718839
 20
1625.027603074773
 30
0.0
 11
949.3363498718839
 21
1521.027603074773
 31
0.0
  0
LINE
  5
FB
330
20
100
AcDbEntity
  8
_0-0_
  6
Continuous
 62
     4
100
AcDbLine
 10
1069.336349871884
 20
1687.027603074773
 30
0.0
 11
1057.745239956415
 21
1683.921774533543
 31
0.0
  0
LINE
  5
FC
330
20
100
AcDbEntity
  8
_0-0_
  6
Continuous
 62
     4
100
AcDbLine
 10
1069.336349871884
 20
1687.027603074773
 30
0.0
 11
1057.745239956415
 21
1690.133431616003
 31
0.0
  0
LINE
  5
FD
330
20
100
AcDbEntity
  8
_0-0_
  6
Continuous
 62
     4
100
AcDbLine
 10
1287.336349871884
 20
1354.027603074773
 30
0.0
 11
1287.336349871884
 21
1513.027603074773
 31
0.0
  0
LINE
  5
FE
330
20
100
AcDbEntity
  8
_0-0_
  6
Continuous
 62
     4
100
AcDbLine
 10
1287.336349871884
 20
1354.027603074773
 30
0.0
 11
1284.230521330654
 21
1365.618712990241
 31
0.0
  0
LINE
  5
FF
330
20
100
AcDbEntity
  8
_0-0_
  6
Continuous
 62
     4
100
AcDbLine
 10
1287.336349871884
 20
1354.027603074773
 30
0.0
 11
1290.442178413114
 21
1365.618712990241
 31
0.0
  0
LINE
  5
100
330
20
100
AcDbEntity
  8
_0-0_
  6
Continuous
 62
     4
100
AcDbLine
 10
1217.336349871884
 20
1354.027603074773
 30
0.0
 11
1214.230521330653
 21
1365.618712990241
 31
0.0
  0
LINE
  5
101
330
20
100
AcDbEntity
  8
_0-0_
  6
Continuous
 62
     4
100
AcDbLine
 10
1217.336349871884
 20
1354.027603074773
 30
0.0
 11
1220.442178413114
 21
1365.618712990241
 31
0.0
  0
LINE
  5
102
330
20
100
AcDbEntity
  8
_0-0_
  6
Continuous
 62
     4
100
AcDbLine
 10
1217.336349871884
 20
1354.027603074773
 30
0.0
 11
1217.336349871884
 21
1509.027603074773
 31
0.0
  0
LINE
  5
103
330
20
100
AcDbEntity
  8
_0-0_
  6
Continuous
 62
     4
100
AcDbLine
 10
1287.336349871884
 20
1513.027603074773
 30
0.0
 11
1290.442178413114
 21
1501.436493159304
 31
0.0
  0
LINE
  5
104
330
20
100
AcDbEntity
  8
_0-0_
  6
Continuous
 62
     4
100
AcDbLine
 10
1287.336349871884
 20
1513.027603074773
 30
0.0
 11
1284.230521330654
 21
1501.436493159304
 31
0.0
  0
LINE
  5
105
330
20
100
AcDbEntity
  8
_0-0_
  6
Continuous
 62
     4
100
AcDbLine
 10
1217.336349871884
 20
1509.027603074773
 30
0.0
 11
1220.442178413114
 21
1497.436493159304
 31
0.0
  0
LINE
  5
106
330
20
100
AcDbEntity
  8
_0-0_
  6
Continuous
 62
     4
100
AcDbLine
 10
1217.336349871884
 20
1509.027603074773
 30
0.0
 11
1214.230521330653
 21
1497.436493159304
 31
0.0
  0
TEXT
  5
107
330
20
100
AcDbEntity
  8
_0-0_
 62
     7
100
AcDbText
 10
1215.521136914443
 20
1402.438316381869
 30
0.0
 40
32.0
  1
155
 50
90.0
 41
0.8
  7
MSゴシック
100
AcDbText
  0
TEXT
  5
108
330
20
100
AcDbEntity
  8
_0-0_
 62
     7
100
AcDbText
 10
1285.4733663227
 20
1404.077821758625
 30
0.0
 40
32.0
  1
159
 50
90.0
 41
0.8
  7
MSゴシック
100
AcDbText
  0
LINE
  5
109
330
20
100
AcDbEntity
  8
_0-0_
  6
Continuous
 62
     4
100
AcDbLine
 10
1077.336349871884
 20
1513.027603074773
 30
0.0
 11
1295.336349871884
 21
1513.027603074773
 31
0.0
  0
LINE
  5
10A
330
20
100
AcDbEntity
  8
_0-0_
  6
Continuous
 62
     4
100
AcDbLine
 10
1077.336349871884
 20
1354.027603074773
 30
0.0
 11
1295.336349871884
 21
1354.027603074773
 31
0.0
  0
LINE
  5
10B
330
20
100
AcDbEntity
  8
_0-0_
  6
Continuous
 62
     5
100
AcDbLine
 10
1069.336349871884
 20
1513.027603074773
 30
0.0
 11
1069.336349871884
 21
1354.027603074773
 31
0.0
  0
LINE
  5
10C
330
20
100
AcDbEntity
  8
_0-0_
  6
Continuous
 62
     5
100
AcDbLine
 10
1069.336349871884
 20
1513.027603074773
 30
0.0
 11
949.3363498718839
 21
1513.027603074773
 31
0.0
  0
LINE
  5
10D
330
20
100
AcDbEntity
  8
_0-0_
  6
Continuous
 62
     5
100
AcDbLine
 10
949.3363498718839
 20
1513.027603074773
 30
0.0
 11
874.3363498718839
 21
1509.027603074773
 31
0.0
  0
ARC
  5
10E
330
20
100
AcDbEntity
  8
_0-0_
  6
Continuous
 62
     5
100
AcDbCircle
 10
674.3363498718839
 20
1519.027603074773
 30
0.0
 40
20.0
100
AcDbArc
 50
0.0
 51
90.00000000000003
  0
LINE
  5
10F
330
20
100
AcDbEntity
  8
_0-0_
  6
Continuous
 62
     5
100
AcDbLine
 10
694.3363498718839
 20
1489.643131202861
 30
0.0
 11
694.3363498718839
 21
1519.027603074773
 31
0.0
  0
LINE
  5
110
330
20
100
AcDbEntity
  8
_0-0_
  6
Continuous
 62
     5
100
AcDbLine
 10
719.1870623726105
 20
1470.240281199954
 30
0.0
 11
874.3363498718839
 21
1509.027603074773
 31
0.0
  0
ARC
  5
111
330
20
100
AcDbEntity
  8
_0-0_
  6
Continuous
 62
     5
100
AcDbCircle
 10
714.3363498718839
 20
1489.643131202861
 30
0.0
 40
20.0
100
AcDbArc
 50
180.0
 51
284.0362434679264
  0
LINE
  5
112
330
20
100
AcDbEntity
  8
_0-0_
  6
Continuous
 62
     4
100
AcDbLine
 10
688.4784854956149
 20
1533.169738698504
 30
0.0
 11
682.4784854956149
 21
1522.777433853091
 31
0.0
  0
LINE
  5
113
330
20
100
AcDbEntity
  8
_0-0_
  6
Continuous
 62
     4
100
AcDbLine
 10
688.4784854956149
 20
1533.169738698504
 30
0.0
 11
678.0861806502016
 21
1527.169738698504
 31
0.0
  0
LINE
  5
114
330
20
100
AcDbEntity
  8
_0-0_
  6
Continuous
 62
     4
100
AcDbLine
 10
688.4784854956149
 20
1533.169738698504
 30
0.0
 11
671.6992920903769
 21
1516.390545293266
 31
0.0
  0
LINE
  5
115
330
20
100
AcDbEntity
  8
_0-0_
  6
Continuous
 62
     4
100
AcDbLine
 10
874.3363498718839
 20
1625.027603074773
 30
0.0
 11
874.3363498718839
 21
1517.027603074773
 31
0.0
  0
LINE
  5
116
330
20
100
AcDbEntity
  8
_0-0_
  6
Continuous
 62
     5
100
AcDbLine
 10
1069.336349871884
 20
1075.0
 30
0.0
 11
1069.336349871884
 21
474.9999999999999
 31
0.0
  0
LINE
  5
117
330
20
100
AcDbEntity
  8
_0-0_
  6
Continuous
 62
     4
100
AcDbLine
 10
1069.336349871884
 20
466.9999999999999
 30
0.0
 11
1069.336349871884
 21
308.9999999999999
 31
0.0
  0
LINE
  5
118
330
20
100
AcDbEntity
  8
_0-0_
  6
Continuous
 62
     4
100
AcDbLine
 10
999.3363498718839
 20
387.0
 30
0.0
 11
694.3363498718839
 21
387.0
 31
0.0
  0
LINE
  5
119
330
20
100
AcDbEntity
  8
_0-0_
  6
Continuous
 62
     4
100
AcDbLine
 10
694.3363498718839
 20
466.9999999999999
 30
0.0
 11
694.3363498718839
 21
379.0
 31
0.0
  0
LINE
  5
11A
330
20
100
AcDbEntity
  8
_0-0_
  6
Continuous
 62
     4
100
AcDbLine
 10
999.3363498718839
 20
466.9999999999999
 30
0.0
 11
999.3363498718839
 21
379.0
 31
0.0
  0
LINE
  5
11B
330
20
100
AcDbEntity
  8
_0-0_
  6
Continuous
 62
     4
100
AcDbLine
 10
999.3363498718839
 20
387.0
 30
0.0
 11
1069.336349871884
 21
387.0
 31
0.0
  0
LINE
  5
11C
330
20
100
AcDbEntity
  8
_0-0_
  6
Continuous
 62
     4
100
AcDbLine
 10
999.3363498718839
 20
387.0
 30
0.0
 11
987.7452399564152
 21
383.8941714587696
 31
0.0
  0
LINE
  5
11D
330
20
100
AcDbEntity
  8
_0-0_
  6
Continuous
 62
     4
100
AcDbLine
 10
999.3363498718839
 20
387.0
 30
0.0
 11
987.7452399564152
 21
390.1058285412302
 31
0.0
  0
LINE
  5
11E
330
20
100
AcDbEntity
  8
_0-0_
  6
Continuous
 62
     4
100
AcDbLine
 10
999.3363498718839
 20
387.0
 30
0.0
 11
1010.927459787352
 21
390.1058285412302
 31
0.0
  0
LINE
  5
11F
330
20
100
AcDbEntity
  8
_0-0_
  6
Continuous
 62
     4
100
AcDbLine
 10
999.3363498718839
 20
387.0
 30
0.0
 11
1010.927459787352
 21
383.8941714587696
 31
0.0
  0
LINE
  5
120
330
20
100
AcDbEntity
  8
_0-0_
  6
Continuous
 62
     4
100
AcDbLine
 10
1069.336349871884
 20
387.0
 30
0.0
 11
1057.745239956415
 21
383.8941714587696
 31
0.0
  0
LINE
  5
121
330
20
100
AcDbEntity
  8
_0-0_
  6
Continuous
 62
     4
100
AcDbLine
 10
1069.336349871884
 20
387.0
 30
0.0
 11
1057.745239956415
 21
390.1058285412302
 31
0.0
  0
TEXT
  5
122
330
20
100
AcDbEntity
  8
_0-0_
 62
     7
100
AcDbText
 10
1015.227314814815
 20
388.8246523410203
 30
0.0
 40
32.0
  1
70
 41
0.8
  7
MSゴシック
100
AcDbText
  0
TEXT
  5
123
330
20
100
AcDbEntity
  8
_0-0_
 62
     7
100
AcDbText
 10
817.7039659413377
 20
388.8677663067127
 30
0.0
 40
32.0
  1
305
 41
0.8
  7
MSゴシック
100
AcDbText
  0
LINE
  5
124
330
20
100
AcDbEntity
  8
_0-0_
  6
Continuous
 62
     4
100
AcDbLine
 10
1069.336349871884
 20
316.9999999999999
 30
0.0
 11
1057.745239956415
 21
313.8941714587696
 31
0.0
  0
LINE
  5
125
330
20
100
AcDbEntity
  8
_0-0_
  6
Continuous
 62
     4
100
AcDbLine
 10
1069.336349871884
 20
316.9999999999999
 30
0.0
 11
1057.745239956415
 21
320.1058285412301
 31
0.0
  0
LINE
  5
126
330
20
100
AcDbEntity
  8
_0-0_
  6
Continuous
 62
     4
100
AcDbLine
 10
1287.336349871884
 20
1075.0
 30
0.0
 11
1287.336349871884
 21
474.9999999999999
 31
0.0
  0
LINE
  5
127
330
20
100
AcDbEntity
  8
_0-0_
  6
Continuous
 62
     4
100
AcDbLine
 10
1077.336349871884
 20
1075.0
 30
0.0
 11
1295.336349871884
 21
1075.0
 31
0.0
  0
LINE
  5
128
330
20
100
AcDbEntity
  8
_0-0_
  6
Continuous
 62
     4
100
AcDbLine
 10
1077.336349871884
 20
926.0
 30
0.0
 11
1225.336349871884
 21
926.0
 31
0.0
  0
LINE
  5
129
330
20
100
AcDbEntity
  8
_0-0_
  6
Continuous
 62
     4
100
AcDbLine
 10
1217.336349871884
 20
1075.0
 30
0.0
 11
1217.336349871884
 21
926.0
 31
0.0
  0
LINE
  5
12A
330
20
100
AcDbEntity
  8
_0-0_
  6
Continuous
 62
     4
100
AcDbLine
 10
1217.336349871884
 20
623.9999999999999
 30
0.0
 11
1217.336349871884
 21
474.9999999999999
 31
0.0
  0
LINE
  5
12B
330
20
100
AcDbEntity
  8
_0-0_
  6
Continuous
 62
     4
100
AcDbLine
 10
1217.336349871884
 20
926.0
 30
0.0
 11
1217.336349871884
 21
623.9999999999999
 31
0.0
  0
LINE
  5
12C
330
20
100
AcDbEntity
  8
_0-0_
  6
Continuous
 62
     4
100
AcDbLine
 10
1217.336349871884
 20
1075.0
 30
0.0
 11
1220.442178413114
 21
1063.408890084531
 31
0.0
  0
LINE
  5
12D
330
20
100
AcDbEntity
  8
_0-0_
  6
Continuous
 62
     4
100
AcDbLine
 10
1217.336349871884
 20
1075.0
 30
0.0
 11
1214.230521330653
 21
1063.408890084531
 31
0.0
  0
LINE
  5
12E
330
20
100
AcDbEntity
  8
_0-0_
  6
Continuous
 62
     4
100
AcDbLine
 10
1217.336349871884
 20
1075.0
 30
0.0
 11
1220.442178413114
 21
1063.408890084531
 31
0.0
  0
LINE
  5
12F
330
20
100
AcDbEntity
  8
_0-0_
  6
Continuous
 62
     4
100
AcDbLine
 10
1217.336349871884
 20
1075.0
 30
0.0
 11
1214.230521330653
 21
1063.408890084531
 31
0.0
  0
LINE
  5
130
330
20
100
AcDbEntity
  8
_0-0_
  6
Continuous
 62
     4
100
AcDbLine
 10
1217.336349871884
 20
926.0
 30
0.0
 11
1214.230521330653
 21
937.591109915469
 31
0.0
  0
LINE
  5
131
330
20
100
AcDbEntity
  8
_0-0_
  6
Continuous
 62
     4
100
AcDbLine
 10
1217.336349871884
 20
926.0
 30
0.0
 11
1220.442178413114
 21
937.591109915469
 31
0.0
  0
LINE
  5
132
330
20
100
AcDbEntity
  8
_0-0_
  6
Continuous
 62
     4
100
AcDbLine
 10
1217.336349871884
 20
926.0
 30
0.0
 11
1220.442178413114
 21
914.4088900845313
 31
0.0
  0
LINE
  5
133
330
20
100
AcDbEntity
  8
_0-0_
  6
Continuous
 62
     4
100
AcDbLine
 10
1217.336349871884
 20
926.0
 30
0.0
 11
1214.230521330653
 21
914.4088900845313
 31
0.0
  0
LINE
  5
134
330
20
100
AcDbEntity
  8
_0-0_
  6
Continuous
 62
     4
100
AcDbLine
 10
1217.336349871884
 20
623.9999999999999
 30
0.0
 11
1214.230521330653
 21
635.5911099154687
 31
0.0
  0
LINE
  5
135
330
20
100
AcDbEntity
  8
_0-0_
  6
Continuous
 62
     4
100
AcDbLine
 10
1217.336349871884
 20
623.9999999999999
 30
0.0
 11
1220.442178413114
 21
635.5911099154687
 31
0.0
  0
LINE
  5
136
330
20
100
AcDbEntity
  8
_0-0_
  6
Continuous
 62
     4
100
AcDbLine
 10
1217.336349871884
 20
623.9999999999999
 30
0.0
 11
1220.442178413114
 21
612.408890084531
 31
0.0
  0
LINE
  5
137
330
20
100
AcDbEntity
  8
_0-0_
  6
Continuous
 62
     4
100
AcDbLine
 10
1217.336349871884
 20
623.9999999999999
 30
0.0
 11
1214.230521330653
 21
612.408890084531
 31
0.0
  0
LINE
  5
138
330
20
100
AcDbEntity
  8
_0-0_
  6
Continuous
 62
     4
100
AcDbLine
 10
1217.336349871884
 20
474.9999999999999
 30
0.0
 11
1214.230521330653
 21
486.5911099154687
 31
0.0
  0
LINE
  5
139
330
20
100
AcDbEntity
  8
_0-0_
  6
Continuous
 62
     4
100
AcDbLine
 10
1217.336349871884
 20
474.9999999999999
 30
0.0
 11
1220.442178413114
 21
486.5911099154687
 31
0.0
  0
LINE
  5
13A
330
20
100
AcDbEntity
  8
_0-0_
  6
Continuous
 62
     4
100
AcDbLine
 10
1287.336349871884
 20
474.9999999999999
 30
0.0
 11
1284.230521330653
 21
486.5911099154687
 31
0.0
  0
LINE
  5
13B
330
20
100
AcDbEntity
  8
_0-0_
  6
Continuous
 62
     4
100
AcDbLine
 10
1287.336349871884
 20
474.9999999999999
 30
0.0
 11
1290.442178413114
 21
486.5911099154687
 31
0.0
  0
LINE
  5
13C
330
20
100
AcDbEntity
  8
_0-0_
  6
Continuous
 62
     4
100
AcDbLine
 10
1287.336349871884
 20
1075.0
 30
0.0
 11
1290.442178413114
 21
1063.408890084531
 31
0.0
  0
LINE
  5
13D
330
20
100
AcDbEntity
  8
_0-0_
  6
Continuous
 62
     4
100
AcDbLine
 10
1287.336349871884
 20
1075.0
 30
0.0
 11
1284.230521330653
 21
1063.408890084531
 31
0.0
  0
LINE
  5
13E
330
20
100
AcDbEntity
  8
_0-0_
  6
Continuous
 62
     4
100
AcDbLine
 10
1147.336349871884
 20
1075.0
 30
0.0
 11
1144.230521330653
 21
1086.591109915469
 31
0.0
  0
LINE
  5
13F
330
20
100
AcDbEntity
  8
_0-0_
  6
Continuous
 62
     4
100
AcDbLine
 10
1147.336349871884
 20
1075.0
 30
0.0
 11
1150.442178413114
 21
1086.591109915469
 31
0.0
  0
LINE
  5
140
330
20
100
AcDbEntity
  8
_0-0_
  6
Continuous
 62
     4
100
AcDbLine
 10
1147.336349871884
 20
1055.0
 30
0.0
 11
1150.442178413114
 21
1043.408890084531
 31
0.0
  0
LINE
  5
141
330
20
100
AcDbEntity
  8
_0-0_
  6
Continuous
 62
     4
100
AcDbLine
 10
1147.336349871884
 20
1055.0
 30
0.0
 11
1144.230521330653
 21
1043.408890084531
 31
0.0
  0
LINE
  5
142
330
20
100
AcDbEntity
  8
_0-0_
  6
Continuous
 62
     4
100
AcDbLine
 10
1147.336349871884
 20
494.9999999999999
 30
0.0
 11
1144.230521330653
 21
506.5911099154687
 31
0.0
  0
LINE
  5
143
330
20
100
AcDbEntity
  8
_0-0_
  6
Continuous
 62
     4
100
AcDbLine
 10
1147.336349871884
 20
494.9999999999999
 30
0.0
 11
1150.442178413114
 21
506.5911099154687
 31
0.0
  0
LINE
  5
144
330
20
100
AcDbEntity
  8
_0-0_
  6
Continuous
 62
     4
100
AcDbLine
 10
1147.336349871884
 20
474.9999999999999
 30
0.0
 11
1150.442178413114
 21
463.4088900845311
 31
0.0
  0
LINE
  5
145
330
20
100
AcDbEntity
  8
_0-0_
  6
Continuous
 62
     4
100
AcDbLine
 10
1147.336349871884
 20
474.9999999999999
 30
0.0
 11
1144.230521330653
 21
463.4088900845311
 31
0.0
  0
TEXT
  5
146
330
20
100
AcDbEntity
  8
_0-0_
 62
     7
100
AcDbText
 10
1215.496584511682
 20
971.8566424776152
 30
0.0
 40
32.0
  1
149
 50
90.0
 41
0.8
  7
MSゴシック
100
AcDbText
  0
TEXT
  5
147
330
20
100
AcDbEntity
  8
_0-0_
 62
     7
100
AcDbText
 10
1215.496584511682
 20
520.856642477615
 30
0.0
 40
32.0
  1
149
 50
90.0
 41
0.8
  7
MSゴシック
100
AcDbText
  0
TEXT
  5
148
330
20
100
AcDbEntity
  8
_0-0_
 62
     7
100
AcDbText
 10
1215.473070785927
 20
745.236365879704
 30
0.0
 40
32.0
  1
302
 50
90.0
 41
0.8
  7
MSゴシック
100
AcDbText
  0
TEXT
  5
149
330
20
100
AcDbEntity
  8
_0-0_
 62
     7
100
AcDbText
 10
1285.473070785927
 20
745.236365879704
 30
0.0
 40
32.0
  1
600
 50
90.0
 41
0.8
  7
MSゴシック
100
AcDbText
  0
TEXT
  5
14A
330
20
100
AcDbEntity
  8
_0-0_
 62
     7
100
AcDbText
 10
1145.66123812374
 20
512.2337330086971
 30
0.0
 40
32.0
  1
20
 50
90.0
 41
0.8
  7
MSゴシック
100
AcDbText
  0
LINE
  5
14B
330
20
100
AcDbEntity
  8
_0-0_
  6
Continuous
 62
     4
100
AcDbLine
 10
1147.336349871884
 20
494.9999999999999
 30
0.0
 11
1147.336349871884
 21
549.9999999999999
 31
0.0
  0
TEXT
  5
14C
330
20
100
AcDbEntity
  8
_0-0_
 62
     7
100
AcDbText
 10
1145.66123812374
 20
1092.233733008697
 30
0.0
 40
32.0
  1
20
 50
90.0
 41
0.8
  7
MSゴシック
100
AcDbText
  0
LINE
  5
14D
330
20
100
AcDbEntity
  8
_0-0_
  6
Continuous
 62
     4
100
AcDbLine
 10
1147.336349871884
 20
1075.0
 30
0.0
 11
1147.336349871884
 21
1130.0
 31
0.0
  0
LINE
  5
14E
330
20
100
AcDbEntity
  8
_0-0_
  6
Continuous
 62
     6
100
AcDbLine
 10
674.3363498718839
 20
474.9999999999999
 30
0.0
 11
674.3363498718839
 21
1075.0
 31
0.0
  0
LINE
  5
14F
330
20
100
AcDbEntity
  8
_0-0_
  6
Continuous
 62
     6
100
AcDbLine
 10
681.0030165385504
 20
474.9999999999999
 30
0.0
 11
681.0030165385504
 21
1075.0
 31
0.0
  0
LINE
  5
150
330
20
100
AcDbEntity
  8
_0-0_
  6
Continuous
 62
     6
100
AcDbLine
 10
687.6696832052173
 20
474.9999999999999
 30
0.0
 11
687.6696832052173
 21
1075.0
 31
0.0
  0
LINE
  5
151
330
20
100
AcDbEntity
  8
_0-0_
  6
DASHED1
 62
     5
100
AcDbLine
 10
999.3363498718839
 20
1468.519109903295
 30
0.0
 11
999.3363498718839
 21
1354.027603074773
 31
0.0
  0
TEXT
  5
152
330
20
100
AcDbEntity
  8
_0-0_
 62
     7
100
AcDbText
 10
980.2047813522507
 20
1619.043549841347
 30
0.0
 40
32.0
  1
120
 41
0.8
  7
MSゴシック
100
AcDbText
  0
LINE
  5
153
330
20
100
AcDbEntity
  8
_0-0_
  6
Continuous
 62
     5
100
AcDbLine
 10
999.3363498718839
 20
623.9999999999999
 30
0.0
 11
999.3363498718839
 21
747.1567711769297
 31
0.0
  0
LINE
  5
154
330
20
100
AcDbEntity
  8
_0-0_
  6
Continuous
 62
     5
100
AcDbLine
 10
999.3363498718839
 20
623.9999999999999
 30
0.0
 11
1023.336349871884
 21
604.9999999999998
 31
0.0
  0
LINE
  5
155
330
20
100
AcDbEntity
  8
_0-0_
  6
DASHED1
 62
     5
100
AcDbLine
 10
999.3363498718839
 20
926.0
 30
0.0
 11
999.3363498718839
 21
747.1567711769297
 31
0.0
  0
LINE
  5
156
330
20
100
AcDbEntity
  8
_0-0_
  6
DASHED1
 62
     5
100
AcDbLine
 10
999.3363498718839
 20
926.0
 30
0.0
 11
705.3363498718839
 21
926.0
 31
0.0
  0
LINE
  5
157
330
20
100
AcDbEntity
  8
_0-0_
  6
Continuous
 62
     5
100
AcDbLine
 10
999.3363498718839
 20
623.9999999999999
 30
0.0
 11
705.3363498718839
 21
623.9999999999999
 31
0.0
  0
LINE
  5
158
330
20
100
AcDbEntity
  8
_0-0_
  6
Continuous
 62
     4
100
AcDbLine
 10
999.3363498718839
 20
673.9999999999999
 30
0.0
 11
849.3363498718839
 21
673.9999999999999
 31
0.0
  0
LINE
  5
159
330
20
100
AcDbEntity
  8
_0-0_
  6
Continuous
 62
     4
100
AcDbLine
 10
849.3363498718839
 20
623.9999999999999
 30
0.0
 11
849.3363498718839
 21
681.9999999999999
 31
0.0
  0
LINE
  5
15A
330
20
100
AcDbEntity
  8
_0-0_
  6
Continuous
 62
     4
100
AcDbLine
 10
999.3363498718839
 20
673.9999999999999
 30
0.0
 11
987.7452399564152
 21
670.8941714587695
 31
0.0
  0
LINE
  5
15B
330
20
100
AcDbEntity
  8
_0-0_
  6
Continuous
 62
     4
100
AcDbLine
 10
999.3363498718839
 20
673.9999999999999
 30
0.0
 11
987.7452399564152
 21
677.10582854123
 31
0.0
  0
LINE
  5
15C
330
20
100
AcDbEntity
  8
_0-0_
  6
Continuous
 62
     4
100
AcDbLine
 10
849.3363498718839
 20
673.9999999999999
 30
0.0
 11
860.9274597873525
 21
677.10582854123
 31
0.0
  0
LINE
  5
15D
330
20
100
AcDbEntity
  8
_0-0_
  6
Continuous
 62
     4
100
AcDbLine
 10
849.3363498718839
 20
673.9999999999999
 30
0.0
 11
860.9274597873525
 21
670.8941714587695
 31
0.0
  0
TEXT
  5
15E
330
20
100
AcDbEntity
  8
_0-0_
 62
     7
100
AcDbText
 10
895.4145522841777
 20
676.0692278053932
 30
0.0
 40
32.0
  1
150
 41
0.8
  7
MSゴシック
100
AcDbText
  0
LINE
  5
15F
330
20
100
AcDbEntity
  8
_0-0_
  6
Continuous
 62
     4
100
AcDbLine
 10
959.336349871884
 20
1055.0
 30
0.0
 11
1155.336349871884
 21
1055.0
 31
0.0
  0
LINE
  5
160
330
20
100
AcDbEntity
  8
_0-0_
  6
Continuous
 62
     5
100
AcDbLine
 10
874.3363498718839
 20
1075.0
 30
0.0
 11
874.3363498718839
 21
1055.0
 31
0.0
  0
LINE
  5
161
330
20
100
AcDbEntity
  8
_0-0_
  6
Continuous
 62
     5
100
AcDbLine
 10
949.3363498718839
 20
1075.0
 30
0.0
 11
949.3363498718839
 21
1055.0
 31
0.0
  0
LINE
  5
162
330
20
100
AcDbEntity
  8
_0-0_
  6
Continuous
 62
     5
100
AcDbLine
 10
874.3363498718839
 20
1055.0
 30
0.0
 11
949.3363498718839
 21
1055.0
 31
0.0
  0
LINE
  5
163
330
20
100
AcDbEntity
  8
_0-0_
  6
Continuous
 62
     5
100
AcDbLine
 10
874.3363498718839
 20
1055.0
 30
0.0
 11
694.3363498718839
 21
956.0
 31
0.0
  0
LINE
  5
164
330
20
100
AcDbEntity
  8
_0-0_
  6
Continuous
 62
     5
100
AcDbLine
 10
949.3363498718839
 20
1055.0
 30
0.0
 11
1034.336349871884
 21
956.0
 31
0.0
  0
LINE
  5
165
330
20
100
AcDbEntity
  8
_0-0_
  6
Continuous
 62
     5
100
AcDbLine
 10
949.3363498718839
 20
494.9999999999999
 30
0.0
 11
949.3363498718839
 21
474.9999999999999
 31
0.0
  0
LINE
  5
166
330
20
100
AcDbEntity
  8
_0-0_
  6
Continuous
 62
     5
100
AcDbLine
 10
874.3363498718839
 20
494.9999999999999
 30
0.0
 11
874.3363498718839
 21
474.9999999999999
 31
0.0
  0
LINE
  5
167
330
20
100
AcDbEntity
  8
_0-0_
  6
Continuous
 62
     5
100
AcDbLine
 10
949.3363498718839
 20
494.9999999999999
 30
0.0
 11
874.3363498718839
 21
494.9999999999999
 31
0.0
  0
LINE
  5
168
330
20
100
AcDbEntity
  8
_0-0_
  6
Continuous
 62
     5
100
AcDbLine
 10
949.3363498718839
 20
494.9999999999999
 30
0.0
 11
1034.336349871884
 21
593.9999999999998
 31
0.0
  0
LINE
  5
169
330
20
100
AcDbEntity
  8
_0-0_
  6
Continuous
 62
     5
100
AcDbLine
 10
874.3363498718839
 20
494.9999999999999
 30
0.0
 11
694.3363498718839
 21
593.9999999999998
 31
0.0
  0
LINE
  5
16A
330
20
100
AcDbEntity
  8
_0-0_
  6
Continuous
 62
     4
100
AcDbLine
 10
754.143334109791
 20
725.0267586769158
 30
0.0
 11
845.8363498718838
 21
610.7837292054646
 31
0.0
  0
LINE
  5
16B
330
20
100
AcDbEntity
  8
_0-0_
  6
Continuous
 62
     4
100
AcDbLine
 10
845.8363498718838
 20
610.7837292054646
 30
0.0
 11
836.1588903037233
 21
617.8792754357855
 31
0.0
  0
LINE
  5
16C
330
20
100
AcDbEntity
  8
_0-0_
  6
Continuous
 62
     4
100
AcDbLine
 10
845.8363498718838
 20
610.7837292054646
 30
0.0
 11
841.0031971569207
 21
621.7673822787296
 31
0.0
  0
LINE
  5
16D
330
20
100
AcDbEntity
  8
_0-0_
  6
Continuous
 62
     4
100
AcDbLine
 10
1147.336349871884
 20
1055.0
 30
0.0
 11
1147.336349871884
 21
1015.0
 31
0.0
  0
LINE
  5
16E
330
20
100
AcDbEntity
  8
_0-0_
  6
Continuous
 62
     4
100
AcDbLine
 10
1147.336349871884
 20
474.9999999999999
 30
0.0
 11
1147.336349871884
 21
434.9999999999999
 31
0.0
  0
ARC
  5
16F
330
20
100
AcDbEntity
  8
_0-0_
  6
DASHED3
 62
     1
100
AcDbCircle
 10
1034.336349871884
 20
514.9999999999998
 30
0.0
 40
10.0
100
AcDbArc
 50
270.0
 51
0.0
  0
LINE
  5
170
330
20
100
AcDbEntity
  8
_0-0_
  6
DASHED3
 62
     1
100
AcDbLine
 10
844.3363498718838
 20
563.9999999999998
 30
0.0
 11
844.3363498718838
 21
504.9999999999999
 31
0.0
  0
ARC
  5
171
330
20
100
AcDbEntity
  8
_0-0_
  6
DASHED3
 62
     1
100
AcDbCircle
 10
1034.336349871884
 20
1035.0
 30
0.0
 40
10.0
100
AcDbArc
 50
0.0
 51
90.00000000000003
  0
LINE
  5
172
330
20
100
AcDbEntity
  8
_0-0_
  6
DASHED3
 62
     1
100
AcDbLine
 10
844.3363498718838
 20
986.0
 30
0.0
 11
844.3363498718838
 21
1045.0
 31
0.0
  0
LINE
  5
173
330
20
100
AcDbEntity
  8
_0-0_
  6
DASHED3
 62
     1
100
AcDbLine
 10
1044.336349871884
 20
1488.027603074773
 30
0.0
 11
1044.336349871884
 21
1370.694269741439
 31
0.0
  0
TEXT
  5
174
330
20
100
AcDbEntity
  8
_0-0_
 62
     7
100
AcDbText
 10
1043.817750930514
 20
1479.956874138314
 30
0.0
 40
9.599999999999999
  1
●
100
AcDbText
  0
TEXT
  5
175
330
20
100
AcDbEntity
  8
_0-0_
 62
     7
100
AcDbText
 10
839.636987375246
 20
1379.836267547216
 30
0.0
 40
9.599999999999999
  1
●
100
AcDbText
  0
TEXT
  5
176
330
20
100
AcDbEntity
  8
_0-0_
 62
     7
100
AcDbText
 10
1035.501502958597
 20
1009.583942201588
 30
0.0
 40
9.599999999999999
  1
●
100
AcDbText
  0
TEXT
  5
177
330
20
100
AcDbEntity
  8
_0-0_
 62
     7
100
AcDbText
 10
1035.927132080834
 20
533.1805939755663
 30
0.0
 40
9.599999999999999
  1
●
100
AcDbText
  0
LINE
  5
178
330
20
100
AcDbEntity
  8
_0-0_
  6
Continuous
 62
     4
100
AcDbLine
 10
714.5070738235565
 20
1153.243938135358
 30
0.0
 11
844.3363498718838
 21
1008.377713512039
 31
0.0
  0
LINE
  5
179
330
20
100
AcDbEntity
  8
_0-0_
  6
Continuous
 62
     4
100
AcDbLine
 10
714.5070738235565
 20
986.0
 30
0.0
 11
711.4012452823263
 21
997.5911099154689
 31
0.0
  0
LINE
  5
17A
330
20
100
AcDbEntity
  8
_0-0_
  6
Continuous
 62
     4
100
AcDbLine
 10
714.5070738235565
 20
986.0
 30
0.0
 11
717.6129023647867
 21
997.5911099154689
 31
0.0
  0
LINE
  5
17B
330
20
100
AcDbEntity
  8
_0-0_
  6
Continuous
 62
     4
100
AcDbLine
 10
844.3363498718838
 20
1008.377713512039
 30
0.0
 11
834.2875320299201
 21
1014.936772894224
 31
0.0
  0
LINE
  5
17C
330
20
100
AcDbEntity
  8
_0-0_
  6
Continuous
 62
     4
100
AcDbLine
 10
844.3363498718838
 20
1008.377713512039
 30
0.0
 11
838.9133480338335
 21
1019.082434482924
 31
0.0
  0
LINE
  5
17D
330
20
100
AcDbEntity
  8
_0-0_
  6
Continuous
 62
     4
100
AcDbLine
 10
714.5070738235565
 20
986.0
 30
0.0
 11
714.5070738235565
 21
1045.0
 31
0.0
  0
LINE
  5
17E
330
20
100
AcDbEntity
  8
_0-0_
  6
Continuous
 62
     4
100
AcDbLine
 10
714.5070738235565
 20
1045.0
 30
0.0
 11
711.4012452823263
 21
1056.591109915469
 31
0.0
  0
LINE
  5
17F
330
20
100
AcDbEntity
  8
_0-0_
  6
Continuous
 62
     4
100
AcDbLine
 10
714.5070738235565
 20
1045.0
 30
0.0
 11
717.6129023647867
 21
1056.591109915469
 31
0.0
  0
TEXT
  5
180
330
20
100
AcDbEntity
  8
_0-0_
 62
     7
100
AcDbText
 10
733.724022646836
 20
1158.879006851874
 30
0.0
 40
32.0
  1
φ4.0
 41
0.8
  7
MSゴシック
100
AcDbText
  0
LINE
  5
181
330
20
100
AcDbEntity
  8
_0-0_
  6
Continuous
 62
     4
100
AcDbLine
 10
714.5070738235565
 20
1153.243938135358
 30
0.0
 11
821.0125582474264
 21
1153.243938135358
 31
0.0
  0
LINE
  5
182
330
20
100
AcDbEntity
  8
_0-0_
  6
Continuous
 62
     4
100
AcDbLine
 10
714.5070738235565
 20
1045.0
 30
0.0
 11
714.5070738235565
 21
1153.243938135358
 31
0.0
  0
LINE
  5
183
330
20
100
AcDbEntity
  8
_0-0_
  6
Continuous
 62
     2
100
AcDbLine
 10
852.8363498718839
 20
617.6551441695342
 30
0.0
 11
852.8363498718839
 21
623.9999999999999
 31
0.0
  0
LINE
  5
184
330
20
100
AcDbEntity
  8
_0-0_
  6
Continuous
 62
     2
100
AcDbLine
 10
852.8363498718839
 20
606.9654325086024
 30
0.0
 11
852.8363498718839
 21
614.3102883390682
 31
0.0
  0
LINE
  5
185
330
20
100
AcDbEntity
  8
_0-0_
  6
Continuous
 62
     2
100
AcDbLine
 10
852.8363498718839
 20
600.7774061313711
 30
0.0
 11
852.8363498718839
 21
603.6205766781367
 31
0.0
  0
LINE
  5
186
330
20
100
AcDbEntity
  8
_0-0_
  6
Continuous
 62
     2
100
AcDbLine
 10
845.8363498718838
 20
617.6551441695342
 30
0.0
 11
845.8363498718838
 21
623.9999999999999
 31
0.0
  0
LINE
  5
187
330
20
100
AcDbEntity
  8
_0-0_
  6
Continuous
 62
     2
100
AcDbLine
 10
845.8363498718838
 20
600.7774061313711
 30
0.0
 11
845.8363498718838
 21
603.6205766781367
 31
0.0
  0
LINE
  5
188
330
20
100
AcDbEntity
  8
_0-0_
  6
Continuous
 62
     2
100
AcDbLine
 10
845.8363498718838
 20
606.9654325086024
 30
0.0
 11
845.8363498718838
 21
614.3102883390682
 31
0.0
  0
ARC
  5
189
330
20
100
AcDbEntity
  8
_0-0_
  6
Continuous
 62
     2
100
AcDbCircle
 10
849.3363498718839
 20
600.7774061313711
 30
0.0
 40
3.5
100
AcDbArc
 50
350.0581280865147
 51
0.0
  0
ARC
  5
18A
330
20
100
AcDbEntity
  8
_0-0_
  6
Continuous
 62
     2
100
AcDbCircle
 10
849.3363498718839
 20
600.7774061313711
 30
0.0
 40
3.5
100
AcDbArc
 50
180.0
 51
189.9418719134853
  0
ARC
  5
18B
330
20
100
AcDbEntity
  8
_0-0_
  6
Continuous
 62
     2
100
AcDbCircle
 10
849.3363498718839
 20
600.7774061313711
 30
0.0
 40
3.5
100
AcDbArc
 50
229.3885163750988
 51
310.6114836249
  0
LINE
  5
18C
330
20
100
AcDbEntity
  8
_0-0_
  6
Continuous
 62
     4
100
AcDbLine
 10
932.1420125786163
 20
1509.027603074773
 30
0.0
 11
1225.336349871884
 21
1509.027603074773
 31
0.0
  0
LINE
  5
18D
330
20
100
AcDbEntity
  8
_0-0_
  6
Continuous
 62
     5
100
AcDbLine
 10
704.6346043710733
 20
1459.012031893947
 30
0.0
 11
703.7438965249286
 21
1465.349747533893
 31
0.0
  0
LINE
  5
18E
330
20
100
AcDbEntity
  8
_0-0_
  6
Continuous
 62
     5
100
AcDbLine
 10
708.197435755651
 20
1433.661169334163
 30
0.0
 11
707.3067279095063
 21
1439.998884974109
 31
0.0
  0
LINE
  5
18F
330
20
100
AcDbEntity
  8
_0-0_
  6
Continuous
 62
     5
100
AcDbLine
 10
706.4160200633621
 20
1446.336600614055
 30
0.0
 11
705.5253122172175
 21
1452.674316254001
 31
0.0
  0
LINE
  5
190
330
20
100
AcDbEntity
  8
_0-0_
  6
Continuous
 62
     5
100
AcDbLine
 10
717.1515927599665
 20
1460.771179890083
 30
0.0
 11
716.2608849138222
 21
1467.108895530028
 31
0.0
  0
LINE
  5
191
330
20
100
AcDbEntity
  8
_0-0_
  6
Continuous
 62
     5
100
AcDbLine
 10
720.7144241445444
 20
1435.420317330298
 30
0.0
 11
719.8237162984
 21
1441.758032970244
 31
0.0
  0
LINE
  5
192
330
20
100
AcDbEntity
  8
_0-0_
  6
Continuous
 62
     5
100
AcDbLine
 10
718.9330084522555
 20
1448.09574861019
 30
0.0
 11
718.042300606111
 21
1454.433464250137
 31
0.0
  0
LINE
  5
193
330
20
100
AcDbEntity
  8
_0-0_
  6
Continuous
 62
     5
100
AcDbLine
 10
729.6685811488601
 20
1462.530327886218
 30
0.0
 11
728.7778733027153
 21
1468.868043526164
 31
0.0
  0
LINE
  5
194
330
20
100
AcDbEntity
  8
_0-0_
  6
Continuous
 62
     5
100
AcDbLine
 10
733.2314125334378
 20
1437.179465326433
 30
0.0
 11
732.3407046872934
 21
1443.51718096638
 31
0.0
  0
LINE
  5
195
330
20
100
AcDbEntity
  8
_0-0_
  6
Continuous
 62
     5
100
AcDbLine
 10
731.4499968411489
 20
1449.854896606325
 30
0.0
 11
730.5592889950044
 21
1456.192612246272
 31
0.0
  0
LINE
  5
196
330
20
100
AcDbEntity
  8
_0-0_
  6
Continuous
 62
     5
100
AcDbLine
 10
742.1855695377534
 20
1464.289475882353
 30
0.0
 11
741.2948616916091
 21
1470.627191522299
 31
0.0
  0
LINE
  5
197
330
20
100
AcDbEntity
  8
_0-0_
  6
Continuous
 62
     5
100
AcDbLine
 10
745.7484009223312
 20
1438.938613322569
 30
0.0
 11
744.8576930761868
 21
1445.276328962515
 31
0.0
  0
LINE
  5
198
330
20
100
AcDbEntity
  8
_0-0_
  6
Continuous
 62
     5
100
AcDbLine
 10
743.9669852300422
 20
1451.614044602461
 30
0.0
 11
743.0762773838978
 21
1457.951760242407
 31
0.0
  0
LINE
  5
199
330
20
100
AcDbEntity
  8
_0-0_
  6
Continuous
 62
     5
100
AcDbLine
 10
758.2653893112246
 20
1440.697761318704
 30
0.0
 11
757.3746814650801
 21
1447.03547695865
 31
0.0
  0
LINE
  5
19A
330
20
100
AcDbEntity
  8
_0-0_
  6
Continuous
 62
     5
100
AcDbLine
 10
756.4839736189358
 20
1453.373192598596
 30
0.0
 11
755.5932657727915
 21
1459.710908238542
 31
0.0
  0
LINE
  5
19B
330
20
100
AcDbEntity
  8
_0-0_
  6
Continuous
 62
     5
100
AcDbLine
 10
754.7025579266469
 20
1466.048623878488
 30
0.0
 11
753.8118500805024
 21
1472.386339518434
 31
0.0
  0
LINE
  5
19C
330
20
100
AcDbEntity
  8
_0-0_
  6
Continuous
 62
     5
100
AcDbLine
 10
767.2195463155404
 20
1467.807771874623
 30
0.0
 11
766.328838469396
 21
1474.145487514569
 31
0.0
  0
LINE
  5
19D
330
20
100
AcDbEntity
  8
_0-0_
  6
Continuous
 62
     5
100
AcDbLine
 10
770.7823777001181
 20
1442.456909314839
 30
0.0
 11
769.8916698539736
 21
1448.794624954785
 31
0.0
  0
LINE
  5
19E
330
20
100
AcDbEntity
  8
_0-0_
  6
Continuous
 62
     5
100
AcDbLine
 10
769.0009620078291
 20
1455.132340594731
 30
0.0
 11
768.1102541616846
 21
1461.470056234677
 31
0.0
  0
LINE
  5
19F
330
20
100
AcDbEntity
  8
_0-0_
  6
Continuous
 62
     5
100
AcDbLine
 10
779.7365347044339
 20
1469.566919870759
 30
0.0
 11
778.8458268582894
 21
1475.904635510704
 31
0.0
  0
LINE
  5
1A0
330
20
100
AcDbEntity
  8
_0-0_
  6
Continuous
 62
     5
100
AcDbLine
 10
783.2993660890115
 20
1444.216057310974
 30
0.0
 11
782.4086582428673
 21
1450.553772950921
 31
0.0
  0
LINE
  5
1A1
330
20
100
AcDbEntity
  8
_0-0_
  6
Continuous
 62
     5
100
AcDbLine
 10
781.5179503967225
 20
1456.891488590867
 30
0.0
 11
780.6272425505783
 21
1463.229204230812
 31
0.0
  0
LINE
  5
1A2
330
20
100
AcDbEntity
  8
_0-0_
  6
Continuous
 62
     5
100
AcDbLine
 10
792.2535230933273
 20
1471.326067866894
 30
0.0
 11
791.3628152471828
 21
1477.66378350684
 31
0.0
  0
LINE
  5
1A3
330
20
100
AcDbEntity
  8
_0-0_
  6
Continuous
 62
     5
100
AcDbLine
 10
795.8163544779049
 20
1445.975205307109
 30
0.0
 11
794.9256466317605
 21
1452.312920947056
 31
0.0
  0
LINE
  5
1A4
330
20
100
AcDbEntity
  8
_0-0_
  6
Continuous
 62
     5
100
AcDbLine
 10
794.0349387856159
 20
1458.650636587002
 30
0.0
 11
793.1442309394716
 21
1464.988352226948
 31
0.0
  0
LINE
  5
1A5
330
20
100
AcDbEntity
  8
_0-0_
  6
Continuous
 62
     5
100
AcDbLine
 10
808.3333428667984
 20
1447.734353303245
 30
0.0
 11
807.4426350206538
 21
1454.072068943191
 31
0.0
  0
LINE
  5
1A6
330
20
100
AcDbEntity
  8
_0-0_
  6
Continuous
 62
     5
100
AcDbLine
 10
806.5519271745094
 20
1460.409784583137
 30
0.0
 11
805.6612193283651
 21
1466.747500223083
 31
0.0
  0
LINE
  5
1A7
330
20
100
AcDbEntity
  8
_0-0_
  6
Continuous
 62
     5
100
AcDbLine
 10
804.7705114822205
 20
1473.08521586303
 30
0.0
 11
803.8798036360761
 21
1479.422931502975
 31
0.0
  0
LINE
  5
1A8
330
20
100
AcDbEntity
  8
_0-0_
  6
Continuous
 62
     5
100
AcDbLine
 10
817.2874998711142
 20
1474.844363859164
 30
0.0
 11
816.3967920249698
 21
1481.18207949911
 31
0.0
  0
LINE
  5
1A9
330
20
100
AcDbEntity
  8
_0-0_
  6
Continuous
 62
     5
100
AcDbLine
 10
820.8503312556917
 20
1449.493501299381
 30
0.0
 11
819.9596234095475
 21
1455.831216939326
 31
0.0
  0
LINE
  5
1AA
330
20
100
AcDbEntity
  8
_0-0_
  6
Continuous
 62
     5
100
AcDbLine
 10
819.068915563403
 20
1462.168932579272
 30
0.0
 11
818.1782077172586
 21
1468.506648219218
 31
0.0
  0
LINE
  5
1AB
330
20
100
AcDbEntity
  8
_0-0_
  6
Continuous
 62
     5
100
AcDbLine
 10
829.8044882600075
 20
1476.6035118553
 30
0.0
 11
828.9137804138629
 21
1482.941227495246
 31
0.0
  0
LINE
  5
1AC
330
20
100
AcDbEntity
  8
_0-0_
  6
Continuous
 62
     5
100
AcDbLine
 10
833.3673196445852
 20
1451.252649295515
 30
0.0
 11
832.4766117984408
 21
1457.590364935461
 31
0.0
  0
LINE
  5
1AD
330
20
100
AcDbEntity
  8
_0-0_
  6
Continuous
 62
     5
100
AcDbLine
 10
831.5859039522964
 20
1463.928080575407
 30
0.0
 11
830.6951961061519
 21
1470.265796215353
 31
0.0
  0
LINE
  5
1AE
330
20
100
AcDbEntity
  8
_0-0_
  6
Continuous
 62
     5
100
AcDbLine
 10
842.321476648901
 20
1478.362659851435
 30
0.0
 11
841.4307688027564
 21
1484.700375491381
 31
0.0
  0
LINE
  5
1AF
330
20
100
AcDbEntity
  8
_0-0_
  6
Continuous
 62
     5
100
AcDbLine
 10
845.8843080334785
 20
1453.01179729165
 30
0.0
 11
844.9936001873343
 21
1459.349512931597
 31
0.0
  0
LINE
  5
1B0
330
20
100
AcDbEntity
  8
_0-0_
  6
Continuous
 62
     5
100
AcDbLine
 10
844.1028923411899
 20
1465.687228571542
 30
0.0
 11
843.2121844950454
 21
1472.024944211488
 31
0.0
  0
LINE
  5
1B1
330
20
100
AcDbEntity
  8
_0-0_
  6
Continuous
 62
     5
100
AcDbLine
 10
854.8384650377943
 20
1480.12180784757
 30
0.0
 11
853.9477571916499
 21
1486.459523487516
 31
0.0
  0
LINE
  5
1B2
330
20
100
AcDbEntity
  8
_0-0_
  6
Continuous
 62
     5
100
AcDbLine
 10
858.4012964223722
 20
1454.770945287786
 30
0.0
 11
857.5105885762274
 21
1461.108660927732
 31
0.0
  0
LINE
  5
1B3
330
20
100
AcDbEntity
  8
_0-0_
  6
Continuous
 62
     5
100
AcDbLine
 10
856.6198807300834
 20
1467.446376567678
 30
0.0
 11
855.7291728839388
 21
1473.784092207624
 31
0.0
  0
LINE
  5
1B4
330
20
100
AcDbEntity
  8
_0-0_
  6
Continuous
 62
     5
100
AcDbLine
 10
870.9182848112655
 20
1456.530093283921
 30
0.0
 11
870.0275769651211
 21
1462.867808923867
 31
0.0
  0
LINE
  5
1B5
330
20
100
AcDbEntity
  8
_0-0_
  6
Continuous
 62
     5
100
AcDbLine
 10
869.1368691189765
 20
1469.205524563813
 30
0.0
 11
868.2461612728321
 21
1475.543240203759
 31
0.0
  0
LINE
  5
1B6
330
20
100
AcDbEntity
  8
_0-0_
  6
Continuous
 62
     5
100
AcDbLine
 10
867.355453426688
 20
1481.880955843705
 30
0.0
 11
866.4647455805434
 21
1488.218671483651
 31
0.0
  0
LINE
  5
1B7
330
20
100
AcDbEntity
  8
_0-0_
  6
Continuous
 62
     5
100
AcDbLine
 10
879.8724418155813
 20
1483.640103839841
 30
0.0
 11
878.9817339694369
 21
1489.977819479786
 31
0.0
  0
LINE
  5
1B8
330
20
100
AcDbEntity
  8
_0-0_
  6
Continuous
 62
     5
100
AcDbLine
 10
883.435273200159
 20
1458.289241280056
 30
0.0
 11
882.5445653540146
 21
1464.626956920002
 31
0.0
  0
LINE
  5
1B9
330
20
100
AcDbEntity
  8
_0-0_
  6
Continuous
 62
     5
100
AcDbLine
 10
881.6538575078702
 20
1470.964672559949
 30
0.0
 11
880.7631496617258
 21
1477.302388199895
 31
0.0
  0
LINE
  5
1BA
330
20
100
AcDbEntity
  8
_0-0_
  6
Continuous
 62
     5
100
AcDbLine
 10
895.9522615890524
 20
1460.048389276192
 30
0.0
 11
895.0615537429079
 21
1466.386104916137
 31
0.0
  0
LINE
  5
1BB
330
20
100
AcDbEntity
  8
_0-0_
  6
Continuous
 62
     5
100
AcDbLine
 10
894.1708458967635
 20
1472.723820556084
 30
0.0
 11
893.2801380506189
 21
1479.06153619603
 31
0.0
  0
LINE
  5
1BC
330
20
100
AcDbEntity
  8
_0-0_
  6
Continuous
 62
     5
100
AcDbLine
 10
892.3894302044748
 20
1485.399251835976
 30
0.0
 11
891.4987223583302
 21
1491.736967475922
 31
0.0
  0
LINE
  5
1BD
330
20
100
AcDbEntity
  8
_0-0_
  6
Continuous
 62
     5
100
AcDbLine
 10
904.906418593368
 20
1487.158399832111
 30
0.0
 11
904.0157107472237
 21
1493.496115472057
 31
0.0
  0
LINE
  5
1BE
330
20
100
AcDbEntity
  8
_0-0_
  6
Continuous
 62
     5
100
AcDbLine
 10
908.4692499779459
 20
1461.807537272327
 30
0.0
 11
907.5785421318014
 21
1468.145252912273
 31
0.0
  0
LINE
  5
1BF
330
20
100
AcDbEntity
  8
_0-0_
  6
Continuous
 62
     5
100
AcDbLine
 10
906.6878342856572
 20
1474.482968552219
 30
0.0
 11
905.7971264395122
 21
1480.820684192165
 31
0.0
  0
LINE
  5
1C0
330
20
100
AcDbEntity
  8
_0-0_
  6
Continuous
 62
     5
100
AcDbLine
 10
917.4234069822617
 20
1488.917547828246
 30
0.0
 11
916.5326991361171
 21
1495.255263468192
 31
0.0
  0
LINE
  5
1C1
330
20
100
AcDbEntity
  8
_0-0_
  6
Continuous
 62
     5
100
AcDbLine
 10
920.9862383668392
 20
1463.566685268462
 30
0.0
 11
920.0955305206948
 21
1469.904400908408
 31
0.0
  0
LINE
  5
1C2
330
20
100
AcDbEntity
  8
_0-0_
  6
Continuous
 62
     5
100
AcDbLine
 10
919.2048226745503
 20
1476.242116548354
 30
0.0
 11
918.3141148284063
 21
1482.5798321883
 31
0.0
  0
LINE
  5
1C3
330
20
100
AcDbEntity
  8
_0-0_
  6
Continuous
 62
     5
100
AcDbLine
 10
929.9403953711552
 20
1490.676695824381
 30
0.0
 11
929.0496875250106
 21
1497.014411464327
 31
0.0
  0
LINE
  5
1C4
330
20
100
AcDbEntity
  8
_0-0_
  6
Continuous
 62
     5
100
AcDbLine
 10
933.5032267557327
 20
1465.325833264597
 30
0.0
 11
932.6125189095883
 21
1471.663548904543
 31
0.0
  0
LINE
  5
1C5
330
20
100
AcDbEntity
  8
_0-0_
  6
Continuous
 62
     5
100
AcDbLine
 10
931.721811063444
 20
1478.001264544489
 30
0.0
 11
930.8311032172994
 21
1484.338980184435
 31
0.0
  0
LINE
  5
1C6
330
20
100
AcDbEntity
  8
_0-0_
  6
Continuous
 62
     5
100
AcDbLine
 10
942.4573837600483
 20
1492.435843820517
 30
0.0
 11
941.5666759139039
 21
1498.773559460462
 31
0.0
  0
LINE
  5
1C7
330
20
100
AcDbEntity
  8
_0-0_
  6
Continuous
 62
     5
100
AcDbLine
 10
946.0202151446262
 20
1467.084981260732
 30
0.0
 11
945.1295072984816
 21
1473.422696900678
 31
0.0
  0
LINE
  5
1C8
330
20
100
AcDbEntity
  8
_0-0_
  6
Continuous
 62
     5
100
AcDbLine
 10
944.2387994523375
 20
1479.760412540624
 30
0.0
 11
943.3480916061927
 21
1486.098128180571
 31
0.0
  0
LINE
  5
1C9
330
20
100
AcDbEntity
  8
_0-0_
  6
Continuous
 62
     5
100
AcDbLine
 10
954.974372148942
 20
1494.194991816652
 30
0.0
 11
954.0836643027978
 21
1500.532707456598
 31
0.0
  0
LINE
  5
1CA
330
20
100
AcDbEntity
  8
_0-0_
  6
Continuous
 62
     5
100
AcDbLine
 10
958.5372035335199
 20
1468.844129256867
 30
0.0
 11
957.6464956873751
 21
1475.181844896813
 31
0.0
  0
LINE
  5
1CB
330
20
100
AcDbEntity
  8
_0-0_
  6
Continuous
 62
     5
100
AcDbLine
 10
956.7557878412308
 20
1481.51956053676
 30
0.0
 11
955.8650799950864
 21
1487.857276176706
 31
0.0
  0
LINE
  5
1CC
330
20
100
AcDbEntity
  8
_0-0_
  6
Continuous
 62
     5
100
AcDbLine
 10
967.4913605378351
 20
1495.954139812787
 30
0.0
 11
966.6006526916909
 21
1502.291855452733
 31
0.0
  0
LINE
  5
1CD
330
20
100
AcDbEntity
  8
_0-0_
  6
Continuous
 62
     5
100
AcDbLine
 10
971.0541919224132
 20
1470.603277253003
 30
0.0
 11
970.1634840762684
 21
1476.940992892949
 31
0.0
  0
LINE
  5
1CE
330
20
100
AcDbEntity
  8
_0-0_
  6
Continuous
 62
     5
100
AcDbLine
 10
969.272776230124
 20
1483.278708532895
 30
0.0
 11
968.3820683839797
 21
1489.616424172841
 31
0.0
  0
LINE
  5
1CF
330
20
100
AcDbEntity
  8
_0-0_
  6
Continuous
 62
     5
100
AcDbLine
 10
980.008348926729
 20
1497.713287808922
 30
0.0
 11
979.1176410805844
 21
1504.051003448868
 31
0.0
  0
LINE
  5
1D0
330
20
100
AcDbEntity
  8
_0-0_
  6
Continuous
 62
     5
100
AcDbLine
 10
983.5711803113063
 20
1472.362425249138
 30
0.0
 11
982.6804724651619
 21
1478.700140889084
 31
0.0
  0
LINE
  5
1D1
330
20
100
AcDbEntity
  8
_0-0_
  6
Continuous
 62
     5
100
AcDbLine
 10
981.7897646190177
 20
1485.03785652903
 30
0.0
 11
980.8990567728733
 21
1491.375572168976
 31
0.0
  0
LINE
  5
1D2
330
20
100
AcDbEntity
  8
_0-0_
  6
Continuous
 62
     5
100
AcDbLine
 10
992.5253373156222
 20
1499.472435805057
 30
0.0
 11
991.6346294694779
 21
1505.810151445003
 31
0.0
  0
LINE
  5
1D3
330
20
100
AcDbEntity
  8
_0-0_
  6
Continuous
 62
     5
100
AcDbLine
 10
996.0881687002
 20
1474.121573245273
 30
0.0
 11
995.1974608540552
 21
1480.459288885219
 31
0.0
  0
LINE
  5
1D4
330
20
100
AcDbEntity
  8
_0-0_
  6
Continuous
 62
     5
100
AcDbLine
 10
994.306753007911
 20
1486.797004525165
 30
0.0
 11
993.4160451617666
 21
1493.134720165111
 31
0.0
  0
LINE
  5
1D5
330
20
100
AcDbEntity
  8
_0-0_
  6
Continuous
 62
     5
100
AcDbLine
 10
1008.638558633323
 20
1475.643056904911
 30
0.0
 11
1007.714449242949
 21
1482.218436881354
 31
0.0
  0
LINE
  5
1D6
330
20
100
AcDbEntity
  8
_0-0_
  6
Continuous
 62
     5
100
AcDbLine
 10
1006.823741396804
 20
1488.5561525213
 30
0.0
 11
1005.93303355066
 21
1494.893868161247
 31
0.0
  0
LINE
  5
1D7
330
20
100
AcDbEntity
  8
_0-0_
  6
Continuous
 62
     5
100
AcDbLine
 10
1005.042325704516
 20
1501.231583801193
 30
0.0
 11
1004.151617858371
 21
1507.569299441138
 31
0.0
  0
LINE
  5
1D8
330
20
100
AcDbEntity
  8
_0-0_
  6
Continuous
 62
     5
100
AcDbLine
 10
1016.668606247265
 20
1509.328447437274
 30
0.0
 11
1017.559314093409
 21
1502.990731797328
 31
0.0
  0
LINE
  5
1D9
330
20
100
AcDbEntity
  8
_0-0_
  6
Continuous
 62
     5
100
AcDbLine
 10
1018.450021939554
 20
1496.653016157382
 30
0.0
 11
1019.340729785698
 21
1490.315300517436
 31
0.0
  0
LINE
  5
1DA
330
20
100
AcDbEntity
  8
_0-0_
  6
Continuous
 62
     5
100
AcDbLine
 10
1020.231437631843
 20
1483.97758487749
 30
0.0
 11
1021.122145477987
 21
1477.639869237544
 31
0.0
  0
LINE
  5
1DB
330
20
100
AcDbEntity
  8
_0-0_
  6
DASHED1
 62
     5
100
AcDbLine
 10
694.3363498718839
 20
1425.701550957793
 30
0.0
 11
694.3363498718839
 21
1354.027603074773
 31
0.0
  0
LINE
  5
1DC
330
20
100
AcDbEntity
  8
_0-0_
  6
Continuous
 62
     2
100
AcDbLine
 10
1023.336349871884
 20
875.0
 30
0.0
 11
705.3363498718839
 21
875.0
 31
0.0
  0
LINE
  5
1DD
330
20
100
AcDbEntity
  8
_0-0_
  6
Continuous
 62
     2
100
AcDbLine
 10
1023.336349871884
 20
775.0
 30
0.0
 11
885.7963498718836
 21
775.0
 31
0.0
  0
LINE
  5
1DE
330
20
100
AcDbEntity
  8
_0-0_
  6
Continuous
 62
     4
100
AcDbLine
 10
575.8793322316427
 20
967.7940048301536
 30
0.0
 11
734.1163498718838
 21
829.7426086091512
 31
0.0
  0
LINE
  5
1DF
330
20
100
AcDbEntity
  8
_0-0_
  6
Continuous
 62
     4
100
AcDbLine
 10
734.1163498718838
 20
829.7426086091512
 30
0.0
 11
723.3402547906385
 21
835.0223600048099
 31
0.0
  0
LINE
  5
1E0
330
20
100
AcDbEntity
  8
_0-0_
  6
Continuous
 62
     4
100
AcDbLine
 10
734.1163498718838
 20
829.7426086091512
 30
0.0
 11
727.4238534757584
 21
839.7030549840808
 31
0.0
  0
LINE
  5
1E1
330
20
100
AcDbEntity
  8
_0-0_
  6
Continuous
 62
     5
100
AcDbLine
 10
694.3363498718839
 20
821.8506487279503
 30
0.0
 11
1034.336349871884
 21
738.5853426055013
 31
0.0
  0
LINE
  5
1E2
330
20
100
AcDbEntity
  8
_0-0_
  6
Continuous
 62
   136
100
AcDbLine
 10
1034.336349871884
 20
956.0
 30
0.0
 11
694.3363498718839
 21
956.0
 31
0.0
  0
LINE
  5
1E3
330
20
100
AcDbEntity
  8
_0-0_
  6
Continuous
 62
   136
100
AcDbLine
 10
1023.336349871884
 20
945.0
 30
0.0
 11
705.3363498718839
 21
945.0
 31
0.0
  0
LINE
  5
1E4
330
20
100
AcDbEntity
  8
_0-0_
  6
Continuous
 62
   136
100
AcDbLine
 10
1023.336349871884
 20
604.9999999999998
 30
0.0
 11
1023.336349871884
 21
945.0
 31
0.0
  0
LINE
  5
1E5
330
20
100
AcDbEntity
  8
_0-0_
  6
Continuous
 62
   136
100
AcDbLine
 10
1034.336349871884
 20
593.9999999999998
 30
0.0
 11
1034.336349871884
 21
956.0
 31
0.0
  0
LINE
  5
1E6
330
20
100
AcDbEntity
  8
_0-0_
  6
Continuous
 62
   136
100
AcDbLine
 10
1034.336349871884
 20
593.9999999999998
 30
0.0
 11
694.3363498718839
 21
593.9999999999998
 31
0.0
  0
LINE
  5
1E7
330
20
100
AcDbEntity
  8
_0-0_
  6
Continuous
 62
   136
100
AcDbLine
 10
1023.336349871884
 20
604.9999999999998
 30
0.0
 11
705.3363498718839
 21
604.9999999999998
 31
0.0
  0
LINE
  5
1E8
330
20
100
AcDbEntity
  8
_0-0_
  6
Continuous
 62
   136
100
AcDbLine
 10
705.3363498718839
 20
604.9999999999998
 30
0.0
 11
705.3363498718839
 21
945.0
 31
0.0
  0
LINE
  5
1E9
330
20
100
AcDbEntity
  8
_0-0_
  6
DASHED1
 62
   136
100
AcDbLine
 10
694.3363498718839
 20
1464.027603074773
 30
0.0
 11
694.6735873646584
 21
1425.701550957793
 31
0.0
  0
LINE
  5
1EA
330
20
100
AcDbEntity
  8
_0-0_
  6
DASHED1
 62
   136
100
AcDbLine
 10
700.3361176091313
 20
1464.080396058062
 30
0.0
 11
700.6664086567363
 21
1426.543787064404
 31
0.0
  0
LINE
  5
1EB
330
20
100
AcDbEntity
  8
_0-0_
  6
DASHED1
 62
   136
100
AcDbLine
 10
700.6131606315614
 20
1432.595268977611
 30
0.0
 11
1024.588083718583
 21
1478.126975090904
 31
0.0
  0
LINE
  5
1EC
330
20
100
AcDbEntity
  8
_0-0_
  6
DASHED1
 62
   136
100
AcDbLine
 10
694.6735873646584
 20
1425.701550957793
 30
0.0
 11
1031.364730736792
 21
1473.020405284215
 31
0.0
  0
LINE
  5
1ED
330
20
100
AcDbEntity
  8
_0-0_
  6
DASHED1
 62
   136
100
AcDbLine
 10
1020.13454448786
 20
1509.815553290634
 30
0.0
 11
1024.588083718583
 21
1478.126975090904
 31
0.0
  0
LINE
  5
1EE
330
20
100
AcDbEntity
  8
_0-0_
  6
DASHED1
 62
   136
100
AcDbLine
 10
1026.076152900309
 20
1510.650591896395
 30
0.0
 11
1031.364730736792
 21
1473.020405284215
 31
0.0
  0
LINE
  5
1EF
330
20
100
AcDbEntity
  8
_0-0_
  6
Continuous
 62
   136
100
AcDbLine
 10
694.3363498718839
 20
1464.027603074773
 30
0.0
 11
1026.076152900309
 21
1510.650591896395
 31
0.0
  0
LINE
  5
1F0
330
20
100
AcDbEntity
  8
_0-0_
  6
Continuous
 62
     4
100
AcDbLine
 10
649.3363498718841
 20
1695.027603074773
 30
0.0
 11
649.3363498718841
 21
1547.027603074773
 31
0.0
  0
LINE
  5
1F1
330
20
100
AcDbEntity
  8
_0-0_
  6
Continuous
 62
     4
100
AcDbLine
 10
649.3363498718841
 20
1687.027603074773
 30
0.0
 11
1069.336349871884
 21
1687.027603074773
 31
0.0
  0
LINE
  5
1F2
330
20
100
AcDbEntity
  8
_0-0_
  6
Continuous
 62
     4
100
AcDbLine
 10
649.3363498718841
 20
1687.027603074773
 30
0.0
 11
660.9274597873528
 21
1690.133431616003
 31
0.0
  0
LINE
  5
1F3
330
20
100
AcDbEntity
  8
_0-0_
  6
Continuous
 62
     4
100
AcDbLine
 10
649.3363498718841
 20
1687.027603074773
 30
0.0
 11
660.9274597873528
 21
1683.921774533543
 31
0.0
  0
LINE
  5
1F4
330
20
100
AcDbEntity
  8
_0-0_
  6
Continuous
 62
     4
100
AcDbLine
 10
649.3363498718841
 20
1617.027603074773
 30
0.0
 11
694.3363498718839
 21
1617.027603074773
 31
0.0
  0
LINE
  5
1F5
330
20
100
AcDbEntity
  8
_0-0_
  6
Continuous
 62
     4
100
AcDbLine
 10
694.3363498718839
 20
1617.027603074773
 30
0.0
 11
682.7452399564152
 21
1613.921774533542
 31
0.0
  0
LINE
  5
1F6
330
20
100
AcDbEntity
  8
_0-0_
  6
Continuous
 62
     4
100
AcDbLine
 10
694.3363498718839
 20
1617.027603074773
 30
0.0
 11
682.7452399564152
 21
1620.133431616003
 31
0.0
  0
LINE
  5
1F7
330
20
100
AcDbEntity
  8
_0-0_
  6
Continuous
 62
     4
100
AcDbLine
 10
649.3363498718841
 20
1617.027603074773
 30
0.0
 11
660.9274597873528
 21
1620.133431616003
 31
0.0
  0
LINE
  5
1F8
330
20
100
AcDbEntity
  8
_0-0_
  6
Continuous
 62
     4
100
AcDbLine
 10
649.3363498718841
 20
1617.027603074773
 30
0.0
 11
660.9274597873528
 21
1613.921774533542
 31
0.0
  0
TEXT
  5
1F9
330
20
100
AcDbEntity
  8
_0-0_
 62
     7
100
AcDbText
 10
652.7656763999512
 20
1618.641156497482
 30
0.0
 40
32.0
  1
45
 41
0.8
  7
MSゴシック
100
AcDbText
  0
LINE
  5
1FA
330
20
100
AcDbEntity
  8
_0-0_
  6
Continuous
 62
     4
100
AcDbLine
 10
571.3363498718841
 20
1539.027603074773
 30
0.0
 11
574.4421784131144
 21
1527.436493159304
 31
0.0
  0
LINE
  5
1FB
330
20
100
AcDbEntity
  8
_0-0_
  6
Continuous
 62
     4
100
AcDbLine
 10
571.3363498718841
 20
1539.027603074773
 30
0.0
 11
568.230521330654
 21
1527.436493159304
 31
0.0
  0
LINE
  5
1FC
330
20
100
AcDbEntity
  8
_0-0_
  6
Continuous
 62
     4
100
AcDbLine
 10
501.336349871884
 20
1354.027603074773
 30
0.0
 11
498.2305213306536
 21
1365.618712990241
 31
0.0
  0
LINE
  5
1FD
330
20
100
AcDbEntity
  8
_0-0_
  6
Continuous
 62
     4
100
AcDbLine
 10
501.336349871884
 20
1354.027603074773
 30
0.0
 11
504.4421784131141
 21
1365.618712990241
 31
0.0
  0
LINE
  5
1FE
330
20
100
AcDbEntity
  8
_0-0_
  6
Continuous
 62
     4
100
AcDbLine
 10
641.3363498718841
 20
1354.027603074773
 30
0.0
 11
493.336349871884
 21
1354.027603074773
 31
0.0
  0
LINE
  5
1FF
330
20
100
AcDbEntity
  8
_0-0_
  6
Continuous
 62
     4
100
AcDbLine
 10
641.3363498718841
 20
1539.027603074773
 30
0.0
 11
493.336349871884
 21
1539.027603074773
 31
0.0
  0
LINE
  5
200
330
20
100
AcDbEntity
  8
_0-0_
  6
Continuous
 62
     4
100
AcDbLine
 10
571.3363498718841
 20
1354.027603074773
 30
0.0
 11
568.230521330654
 21
1365.618712990241
 31
0.0
  0
LINE
  5
201
330
20
100
AcDbEntity
  8
_0-0_
  6
Continuous
 62
     4
100
AcDbLine
 10
571.3363498718841
 20
1354.027603074773
 30
0.0
 11
574.4421784131144
 21
1365.618712990241
 31
0.0
  0
LINE
  5
202
330
20
100
AcDbEntity
  8
_0-0_
  6
Continuous
 62
     4
100
AcDbLine
 10
571.3363498718841
 20
1354.027603074773
 30
0.0
 11
571.3363498718841
 21
1464.027603074773
 31
0.0
  0
LINE
  5
203
330
20
100
AcDbEntity
  8
_0-0_
  6
Continuous
 62
     4
100
AcDbLine
 10
571.3363498718841
 20
1464.027603074773
 30
0.0
 11
571.3363498718841
 21
1539.027603074773
 31
0.0
  0
LINE
  5
204
330
20
100
AcDbEntity
  8
_0-0_
  6
Continuous
 62
     4
100
AcDbLine
 10
571.3363498718841
 20
1464.027603074773
 30
0.0
 11
568.230521330654
 21
1475.618712990242
 31
0.0
  0
LINE
  5
205
330
20
100
AcDbEntity
  8
_0-0_
  6
Continuous
 62
     4
100
AcDbLine
 10
571.3363498718841
 20
1464.027603074773
 30
0.0
 11
574.4421784131144
 21
1475.618712990242
 31
0.0
  0
LINE
  5
206
330
20
100
AcDbEntity
  8
_0-0_
  6
Continuous
 62
     4
100
AcDbLine
 10
501.336349871884
 20
1354.027603074773
 30
0.0
 11
501.336349871884
 21
1539.027603074773
 31
0.0
  0
LINE
  5
207
330
20
100
AcDbEntity
  8
_0-0_
  6
Continuous
 62
     4
100
AcDbLine
 10
501.336349871884
 20
1539.027603074773
 30
0.0
 11
504.4421784131145
 21
1527.436493159304
 31
0.0
  0
LINE
  5
208
330
20
100
AcDbEntity
  8
_0-0_
  6
Continuous
 62
     4
100
AcDbLine
 10
501.336349871884
 20
1539.027603074773
 30
0.0
 11
498.2305213306539
 21
1527.436493159304
 31
0.0
  0
LINE
  5
209
330
20
100
AcDbEntity
  8
_0-0_
  6
Continuous
 62
     4
100
AcDbLine
 10
571.3363498718841
 20
1464.027603074773
 30
0.0
 11
574.4421784131144
 21
1452.436493159304
 31
0.0
  0
LINE
  5
20A
330
20
100
AcDbEntity
  8
_0-0_
  6
Continuous
 62
     4
100
AcDbLine
 10
571.3363498718841
 20
1464.027603074773
 30
0.0
 11
568.230521330654
 21
1452.436493159304
 31
0.0
  0
TEXT
  5
20B
330
20
100
AcDbEntity
  8
_0-0_
 62
     7
100
AcDbText
 10
499.3460214480183
 20
1417.581435390644
 30
0.0
 40
32.0
  1
185
 50
90.0
 41
0.8
  7
MSゴシック
100
AcDbText
  0
TEXT
  5
20C
330
20
100
AcDbEntity
  8
_0-0_
 62
     7
100
AcDbText
 10
569.0279918703295
 20
1380.71670866698
 30
0.0
 40
32.0
  1
110
 50
90.0
 41
0.8
  7
MSゴシック
100
AcDbText
  0
TEXT
  5
20D
330
20
100
AcDbEntity
  8
_0-0_
 62
     7
100
AcDbText
 10
568.8825242015595
 20
1482.682506986254
 30
0.0
 40
32.0
  1
75
 50
90.0
 41
0.8
  7
MSゴシック
100
AcDbText
  0
LINE
  5
20E
330
20
100
AcDbEntity
  8
_0-0_
  6
DASHED3
 62
     1
100
AcDbLine
 10
674.3363498718841
 20
1514.027603074773
 30
0.0
 11
674.3363498718841
 21
1370.694269741439
 31
0.0
  0
TEXT
  5
20F
330
20
100
AcDbEntity
  8
_0-0_
 62
     7
100
AcDbText
 10
665.7614746600935
 20
1504.970749432002
 30
0.0
 40
9.599999999999999
  1
●
100
AcDbText
  0
LINE
  5
210
330
20
100
AcDbEntity
  8
_0-0_
  6
Continuous
 62
     5
100
AcDbLine
 10
649.3363498718841
 20
1354.027603074773
 30
0.0
 11
1069.336349871884
 21
1354.027603074773
 31
0.0
  0
LINE
  5
211
330
20
100
AcDbEntity
  8
_0-0_
  6
Continuous
 62
     5
100
AcDbLine
 10
674.3363498718839
 20
1539.027603074773
 30
0.0
 11
649.3363498718841
 21
1539.027603074773
 31
0.0
  0
LINE
  5
212
330
20
100
AcDbEntity
  8
_0-0_
  6
Continuous
 62
     5
100
AcDbLine
 10
649.3363498718841
 20
1354.027603074773
 30
0.0
 11
649.3363498718841
 21
1539.027603074773
 31
0.0
  0
LINE
  5
213
330
20
100
AcDbEntity
  8
_0-0_
  6
DASHED3
 62
     1
100
AcDbLine
 10
1054.336349871884
 20
1380.694269741439
 30
0.0
 11
664.3363498718842
 21
1380.694269741439
 31
0.0
  0
LINE
  5
214
330
20
100
AcDbEntity
  8
_0-0_
  6
Continuous
 62
     4
100
AcDbLine
 10
649.3363498718841
 20
316.9999999999999
 30
0.0
 11
1069.336349871884
 21
316.9999999999999
 31
0.0
  0
LINE
  5
215
330
20
100
AcDbEntity
  8
_0-0_
  6
Continuous
 62
     4
100
AcDbLine
 10
649.3363498718841
 20
387.0
 30
0.0
 11
694.3363498718839
 21
387.0
 31
0.0
  0
LINE
  5
216
330
20
100
AcDbEntity
  8
_0-0_
  6
Continuous
 62
     4
100
AcDbLine
 10
649.3363498718841
 20
387.0
 30
0.0
 11
660.9274597873528
 21
390.1058285412302
 31
0.0
  0
LINE
  5
217
330
20
100
AcDbEntity
  8
_0-0_
  6
Continuous
 62
     4
100
AcDbLine
 10
649.3363498718841
 20
387.0
 30
0.0
 11
660.9274597873528
 21
383.8941714587696
 31
0.0
  0
LINE
  5
218
330
20
100
AcDbEntity
  8
_0-0_
  6
Continuous
 62
     4
100
AcDbLine
 10
649.3363498718841
 20
316.9999999999999
 30
0.0
 11
660.9274597873528
 21
320.1058285412301
 31
0.0
  0
LINE
  5
219
330
20
100
AcDbEntity
  8
_0-0_
  6
Continuous
 62
     4
100
AcDbLine
 10
649.3363498718841
 20
316.9999999999999
 30
0.0
 11
660.9274597873528
 21
313.8941714587696
 31
0.0
  0
TEXT
  5
21A
330
20
100
AcDbEntity
  8
_0-0_
 62
     7
100
AcDbText
 10
653.0153629182827
 20
389.0319868825346
 30
0.0
 40
32.0
  1
45
 41
0.8
  7
MSゴシック
100
AcDbText
  0
ARC
  5
21B
330
20
100
AcDbEntity
  8
_0-0_
  6
DASHED3
 62
     1
100
AcDbCircle
 10
674.3363498718839
 20
514.9999999999998
 30
0.0
 40
10.0
100
AcDbArc
 50
180.0
 51
270.0
  0
LINE
  5
21C
330
20
100
AcDbEntity
  8
_0-0_
  6
DASHED3
 62
     1
100
AcDbLine
 10
664.3363498718839
 20
514.9999999999998
 30
0.0
 11
664.3363498718839
 21
1035.0
 31
0.0
  0
ARC
  5
21D
330
20
100
AcDbEntity
  8
_0-0_
  6
DASHED3
 62
     1
100
AcDbCircle
 10
674.3363498718839
 20
1035.0
 30
0.0
 40
10.0
100
AcDbArc
 50
90.0
 51
180.0
  0
TEXT
  5
21E
330
20
100
AcDbEntity
  8
_0-0_
 62
     7
100
AcDbText
 10
663.5363498718837
 20
1009.9
 30
0.0
 40
9.599999999999999
  1
●
100
AcDbText
  0
TEXT
  5
21F
330
20
100
AcDbEntity
  8
_0-0_
 62
     7
100
AcDbText
 10
663.5363498718837
 20
533.2383104278281
 30
0.0
 40
9.599999999999999
  1
●
100
AcDbText
  0
LINE
  5
220
330
20
100
AcDbEntity
  8
_0-0_
  6
DASHED3
 62
     1
100
AcDbLine
 10
1034.336349871884
 20
504.9999999999999
 30
0.0
 11
674.3363498718839
 21
504.9999999999999
 31
0.0
  0
LINE
  5
221
330
20
100
AcDbEntity
  8
_0-0_
  6
DASHED3
 62
     1
100
AcDbLine
 10
1044.336349871884
 20
563.9999999999998
 30
0.0
 11
664.3363498718839
 21
563.9999999999998
 31
0.0
  0
LINE
  5
222
330
20
100
AcDbEntity
  8
_0-0_
  6
DASHED3
 62
     1
100
AcDbLine
 10
1034.336349871884
 20
1045.0
 30
0.0
 11
674.3363498718839
 21
1045.0
 31
0.0
  0
LINE
  5
223
330
20
100
AcDbEntity
  8
_0-0_
  6
DASHED3
 62
     1
100
AcDbLine
 10
1044.336349871884
 20
986.0
 30
0.0
 11
664.3363498718839
 21
986.0
 31
0.0
  0
LINE
  5
224
330
20
100
AcDbEntity
  8
_0-0_
  6
Continuous
 62
     5
100
AcDbLine
 10
649.3363498718841
 20
474.9999999999999
 30
0.0
 11
1069.336349871884
 21
474.9999999999999
 31
0.0
  0
LINE
  5
225
330
20
100
AcDbEntity
  8
_0-0_
  6
Continuous
 62
     5
100
AcDbLine
 10
649.3363498718841
 20
1075.0
 30
0.0
 11
1069.336349871884
 21
1075.0
 31
0.0
  0
LINE
  5
226
330
20
100
AcDbEntity
  8
_0-0_
  6
Continuous
 62
     5
100
AcDbLine
 10
649.3363498718841
 20
1075.0
 30
0.0
 11
649.3363498718841
 21
474.9999999999999
 31
0.0
  0
TEXT
  5
227
330
20
100
AcDbEntity
  8
_0-0_
 62
     7
100
AcDbText
 10
329.9199717032409
 20
970.5880532811203
 30
0.0
 40
28.0
  1
316×340×38・
 41
0.8
  7
MSゴシック
100
AcDbText
  0
TEXT
  5
228
330
20
100
AcDbEntity
  8
_0-0_
 62
     7
100
AcDbText
 10
313.5481163573288
 20
1002.926889759107
 30
0.0
 40
28.0
  1
グレーチング(T-14)
 41
0.8
  7
MSゴシック
100
AcDbText
  0
LINE
  5
229
330
20
100
AcDbEntity
  8
_0-0_
  6
Continuous
 62
     4
100
AcDbLine
 10
306.5270800645192
 20
967.7940048301536
 30
0.0
 11
575.8793322316427
 21
967.7940048301536
 31
0.0
  0
LINE
  5
22A
330
20
100
AcDbEntity
  8
_0-0_
  6
Continuous
 62
     4
100
AcDbLine
 10
714.5070738235565
 20
1153.243938135358
 30
0.0
 11
670.1154108849161
 21
1018.777485730739
 31
0.0
  0
LINE
  5
22B
330
20
100
AcDbEntity
  8
_0-0_
  6
Continuous
 62
     4
100
AcDbLine
 10
670.1154108849161
 20
1018.777485730739
 30
0.0
 11
670.7998444261946
 21
1030.757951110998
 31
0.0
  0
LINE
  5
22C
330
20
100
AcDbEntity
  8
_0-0_
  6
Continuous
 62
     4
100
AcDbLine
 10
670.1154108849161
 20
1018.777485730739
 30
0.0
 11
676.6983804089947
 21
1028.810656328564
 31
0.0
  0
TEXT
  5
22D
330
20
100
AcDbEntity
  8
_0-0_
 62
     2
100
AcDbText
 10
416.8162436548223
 20
1997.0
 30
0.0
 40
56.0
  1
Ｌ形側溝(１８０用)桝工 幅４２０
 41
0.8
  7
MSゴシック
 72
     1
 11
868.0
 21
1997.0
 31
0.0
100
AcDbText
  0
LINE
  5
239
330
20
100
AcDbEntity
  8
_0-0_
  6
Continuous
 62
     4
100
AcDbLine
 10
754.143334109791
 20
725.0267586769158
 30
0.0
 11
920.461678226002
 21
725.0267586769158
 31
0.0
  0
TEXT
  5
23A
330
20
100
AcDbEntity
  8
_0-0_
 62
     7
100
AcDbText
 10
758.0309352319293
 20
728.0446090759332
 30
0.0
 40
20.0
  1
インサート(W3/8)
 41
0.8
  7
MSゴシック
100
AcDbText
  0
LINE
  5
23B
330
20
100
AcDbEntity
  8
_0-0_
  6
Continuous
 62
     2
100
AcDbLine
 10
717.5671191026532
 20
816.1614807530678
 30
0.0
 11
717.5671191026532
 21
945.0
 31
0.0
  0
LINE
  5
23C
330
20
100
AcDbEntity
  8
_0-0_
  6
Continuous
 62
     2
100
AcDbLine
 10
729.7978883334224
 20
813.166190329206
 30
0.0
 11
729.7978883334224
 21
945.0
 31
0.0
  0
LINE
  5
23D
330
20
100
AcDbEntity
  8
_0-0_
  6
Continuous
 62
     2
100
AcDbLine
 10
742.0286575641917
 20
810.1708999053444
 30
0.0
 11
742.0286575641917
 21
945.0
 31
0.0
  0
LINE
  5
23E
330
20
100
AcDbEntity
  8
_0-0_
  6
Continuous
 62
     2
100
AcDbLine
 10
754.2594267949611
 20
807.1756094814825
 30
0.0
 11
754.2594267949611
 21
945.0
 31
0.0
  0
LINE
  5
23F
330
20
100
AcDbEntity
  8
_0-0_
  6
Continuous
 62
     2
100
AcDbLine
 10
766.4901960257302
 20
804.1803190576205
 30
0.0
 11
766.4901960257302
 21
945.0
 31
0.0
  0
LINE
  5
240
330
20
100
AcDbEntity
  8
_0-0_
  6
Continuous
 62
     2
100
AcDbLine
 10
778.7209652564994
 20
801.1850286337585
 30
0.0
 11
778.7209652564994
 21
945.0
 31
0.0
  0
LINE
  5
241
330
20
100
AcDbEntity
  8
_0-0_
  6
Continuous
 62
     2
100
AcDbLine
 10
790.9517344872689
 20
798.1897382098967
 30
0.0
 11
790.9517344872689
 21
945.0
 31
0.0
  0
LINE
  5
242
330
20
100
AcDbEntity
  8
_0-0_
  6
Continuous
 62
     2
100
AcDbLine
 10
803.1825037180382
 20
795.1944477860348
 30
0.0
 11
803.1825037180382
 21
945.0
 31
0.0
  0
LINE
  5
243
330
20
100
AcDbEntity
  8
_0-0_
  6
Continuous
 62
     2
100
AcDbLine
 10
815.4132729488075
 20
792.1991573621732
 30
0.0
 11
815.4132729488075
 21
945.0
 31
0.0
  0
LINE
  5
244
330
20
100
AcDbEntity
  8
_0-0_
  6
Continuous
 62
     2
100
AcDbLine
 10
827.6440421795767
 20
789.2038669383112
 30
0.0
 11
827.6440421795767
 21
945.0
 31
0.0
  0
LINE
  5
245
330
20
100
AcDbEntity
  8
_0-0_
  6
Continuous
 62
     2
100
AcDbLine
 10
839.874811410346
 20
786.2085765144493
 30
0.0
 11
839.874811410346
 21
945.0
 31
0.0
  0
LINE
  5
246
330
20
100
AcDbEntity
  8
_0-0_
  6
Continuous
 62
     2
100
AcDbLine
 10
852.1055806411155
 20
783.2132860905873
 30
0.0
 11
852.1055806411155
 21
945.0
 31
0.0
  0
LINE
  5
247
330
20
100
AcDbEntity
  8
_0-0_
  6
Continuous
 62
     2
100
AcDbLine
 10
864.3363498718846
 20
780.2179956667254
 30
0.0
 11
864.3363498718846
 21
945.0
 31
0.0
  0
LINE
  5
248
330
20
100
AcDbEntity
  8
_0-0_
  6
Continuous
 62
     2
100
AcDbLine
 10
876.5671191026537
 20
777.2227052428636
 30
0.0
 11
876.5671191026537
 21
945.0
 31
0.0
  0
LINE
  5
249
330
20
100
AcDbEntity
  8
_0-0_
  6
Continuous
 62
     2
100
AcDbLine
 10
888.7978883334232
 20
774.2274148190017
 30
0.0
 11
888.7978883334232
 21
945.0
 31
0.0
  0
LINE
  5
24A
330
20
100
AcDbEntity
  8
_0-0_
  6
Continuous
 62
     2
100
AcDbLine
 10
901.0286575641925
 20
771.2321243951399
 30
0.0
 11
901.0286575641925
 21
945.0
 31
0.0
  0
LINE
  5
24B
330
20
100
AcDbEntity
  8
_0-0_
  6
Continuous
 62
     2
100
AcDbLine
 10
913.2594267949617
 20
768.2368339712781
 30
0.0
 11
913.2594267949617
 21
945.0
 31
0.0
  0
LINE
  5
24C
330
20
100
AcDbEntity
  8
_0-0_
  6
Continuous
 62
     2
100
AcDbLine
 10
925.490196025731
 20
765.2415435474164
 30
0.0
 11
925.490196025731
 21
945.0
 31
0.0
  0
LINE
  5
24D
330
20
100
AcDbEntity
  8
_0-0_
  6
Continuous
 62
     2
100
AcDbLine
 10
937.7209652565005
 20
762.2462531235544
 30
0.0
 11
937.7209652565005
 21
945.0
 31
0.0
  0
LINE
  5
24E
330
20
100
AcDbEntity
  8
_0-0_
  6
Continuous
 62
     2
100
AcDbLine
 10
949.9517344872696
 20
759.2509626996925
 30
0.0
 11
949.9517344872696
 21
945.0
 31
0.0
  0
LINE
  5
24F
330
20
100
AcDbEntity
  8
_0-0_
  6
Continuous
 62
     2
100
AcDbLine
 10
974.4132729488079
 20
753.2603818519686
 30
0.0
 11
974.4132729488079
 21
945.0
 31
0.0
  0
LINE
  5
250
330
20
100
AcDbEntity
  8
_0-0_
  6
Continuous
 62
     2
100
AcDbLine
 10
962.1825037180387
 20
756.2556722758305
 30
0.0
 11
962.1825037180387
 21
945.0
 31
0.0
  0
LINE
  5
251
330
20
100
AcDbEntity
  8
_0-0_
  6
Continuous
 62
     2
100
AcDbLine
 10
986.6440421795774
 20
750.2650914281068
 30
0.0
 11
986.6440421795774
 21
945.0
 31
0.0
  0
LINE
  5
252
330
20
100
AcDbEntity
  8
_0-0_
  6
Continuous
 62
     2
100
AcDbLine
 10
1011.105580641116
 20
744.2745105803833
 30
0.0
 11
1011.105580641116
 21
945.0
 31
0.0
  0
LINE
  5
253
330
20
100
AcDbEntity
  8
_0-0_
  6
Continuous
 62
     2
100
AcDbLine
 10
998.8748114103469
 20
747.269801004245
 30
0.0
 11
998.8748114103469
 21
945.0
 31
0.0
  0
TEXT
  5
257
330
20
100
AcDbEntity
  8
_0-0_
 62
     7
100
AcDbText
 10
830.2266732299326
 20
318.8905941660184
 30
0.0
 40
32.0
  1
420
 41
0.8
  7
MSゴシック
100
AcDbText
  0
TEXT
  5
258
330
20
100
AcDbEntity
  8
_0-0_
 62
     7
100
AcDbText
 10
830.2266732299326
 20
1688.918197240792
 30
0.0
 40
32.0
  1
420
 41
0.8
  7
MSゴシック
100
AcDbText
  0
LINE
  5
25B
330
20
100
AcDbEntity
  8
_0-0_
  6
Continuous
 62
     4
100
AcDbLine
 10
686.336349871884
 20
1464.027603074773
 30
0.0
 11
563.3363498718842
 21
1464.027603074773
 31
0.0
  0
TEXT
  5
47D
330
20
100
AcDbEntity
  8
_0-0_
 62
     7
100
AcDbText
 10
1332.95178197065
 20
1907.962769141516
 30
0.0
 40
32.0
  1
単位 ｍｍ
 41
0.8
  7
MSゴシック
100
AcDbText
  0
LINE
  5
47F
330
20
100
AcDbEntity
  8
_0-0_
  6
Continuous
 62
     5
100
AcDbLine
 10
1323.516561338643
 20
1981.222222222223
 30
0.0
 11
416.117576567069
 21
1981.222222222223
 31
0.0
  0
TEXT
  5
480
330
20
100
AcDbEntity
  8
_0-0_
 62
     7
100
AcDbText
 10
698.8647658475013
 20
1534.907408332264
 30
0.0
 40
24.0
  1
20r
 41
0.8
  7
MSゴシック
100
AcDbText
  0
ENDSEC
  0
SECTION
  2
OBJECTS
  0
DICTIONARY
  5
C
330
0
100
AcDbDictionary
281
     1
  3
ACAD_CIP_PREVIOUS_PRODUCT_INFO
350
4E8
  3
ACAD_COLOR
350
1B
  3
ACAD_DETAILVIEWSTYLE
350
4E1
  3
ACAD_GROUP
350
D
  3
ACAD_LAYOUT
350
19
  3
ACAD_MATERIAL
350
1A
  3
ACAD_MLEADERSTYLE
350
4DD
  3
ACAD_MLINESTYLE
350
16
  3
ACAD_PLOTSETTINGS
350
18
  3
ACAD_PLOTSTYLENAME
350
E
  3
ACAD_SCALELIST
350
4CB
  3
ACAD_SECTIONVIEWSTYLE
350
4DF
  3
ACAD_TABLESTYLE
350
4C9
  3
ACAD_VISUALSTYLE
350
4B0
  3
ACDB_RECOMPOSE_DATA
350
4FC
  3
AcDbVariableDictionary
350
494
  0
DICTIONARY
  5
4EA
330
10
100
AcDbDictionary
280
     1
281
     1
  3
ADSK_XREC_LAYER_RECONCILED
360
4EB
  0
DICTIONARY
  5
4EC
330
47
100
AcDbDictionary
280
     1
281
     1
  3
ADSK_XREC_LAYER_RECONCILED
360
4ED
  0
DICTIONARY
  5
4EE
330
48
100
AcDbDictionary
280
     1
281
     1
  3
ADSK_XREC_LAYER_RECONCILED
360
4EF
  0
XRECORD
  5
4E8
102
{ACAD_REACTORS
330
C
102
}
330
C
100
AcDbXrecord
280
     1
300
ACD
300
2023
300

  0
DICTIONARY
  5
1B
102
{ACAD_REACTORS
330
C
102
}
330
C
100
AcDbDictionary
281
     1
  0
DICTIONARY
  5
4E1
102
{ACAD_REACTORS
330
C
102
}
330
C
100
AcDbDictionary
281
     1
  3
Imperial24
350
4E2
  0
DICTIONARY
  5
D
102
{ACAD_REACTORS
330
C
102
}
330
C
100
AcDbDictionary
281
     1
  0
DICTIONARY
  5
19
102
{ACAD_REACTORS
330
C
102
}
330
C
100
AcDbDictionary
281
     1
  3
Model
350
23
  3
レイアウト1
350
1F
  0
DICTIONARY
  5
1A
102
{ACAD_REACTORS
330
C
102
}
330
C
100
AcDbDictionary
281
     1
  3
ByBlock
350
4A0
  3
ByLayer
350
498
  3
Global
350
4A8
  0
DICTIONARY
  5
4DD
102
{ACAD_REACTORS
330
C
102
}
330
C
100
AcDbDictionary
281
     1
  3
Standard
350
4DE
  0
DICTIONARY
  5
16
102
{ACAD_REACTORS
330
C
102
}
330
C
100
AcDbDictionary
281
     1
  3
Standard
350
17
  0
DICTIONARY
  5
18
102
{ACAD_REACTORS
330
C
102
}
330
C
100
AcDbDictionary
281
     1
  0
ACDBDICTIONARYWDFLT
  5
E
102
{ACAD_REACTORS
330
C
102
}
330
C
100
AcDbDictionary
281
     1
  3
Normal
350
F
100
AcDbDictionaryWithDefault
340
F
  0
DICTIONARY
  5
4CB
102
{ACAD_REACTORS
330
C
102
}
330
C
100
AcDbDictionary
281
     1
  3
A0
350
4CC
  3
A1
350
4CD
  3
A2
350
4CE
  3
A3
350
4CF
  3
A4
350
4D0
  3
A5
350
4D1
  3
A6
350
4D2
  3
A7
350
4D3
  3
A8
350
4D4
  3
A9
350
4D5
  3
B0
350
4D6
  3
B1
350
4D7
  3
B2
350
4D8
  3
B3
350
4D9
  3
B4
350
4DA
  3
B5
350
4DB
  3
B6
350
4DC
  0
DICTIONARY
  5
4DF
102
{ACAD_REACTORS
330
C
102
}
330
C
100
AcDbDictionary
281
     1
  3
Imperial24
350
4E0
  0
DICTIONARY
  5
4C9
102
{ACAD_REACTORS
330
C
102
}
330
C
100
AcDbDictionary
281
     1
  3
Standard
350
4CA
  0
DICTIONARY
  5
4B0
102
{ACAD_REACTORS
330
C
102
}
330
C
100
AcDbDictionary
281
     1
  3
2dWireframe
350
4B6
  3
Basic
350
4B5
  3
Brighten
350
4BC
  3
ColorChange
350
4C0
  3
Conceptual
350
4B9
  3
Dim
350
4BB
  3
EdgeColorOff
350
4C8
  3
Facepattern
350
4BF
  3
Flat
350
4B1
  3
FlatWithEdges
350
4B2
  3
Gouraud
350
4B3
  3
GouraudWithEdges
350
4B4
  3
Hidden
350
4B8
  3
JitterOff
350
4C6
  3
Linepattern
350
4BE
  3
OverhangOff
350
4C7
  3
Realistic
350
4BA
  3
Shaded
350
4C5
  3
Shaded with edges
350
4C4
  3
Shades of Gray
350
4C1
  3
Sketchy
350
4C2
  3
Thicken
350
4BD
  3
Wireframe
350
4B7
  3
X-Ray
350
4C3
  0
XRECORD
  5
4FC
102
{ACAD_REACTORS
330
C
102
}
330
C
100
AcDbXrecord
280
     1
 90
        1
330
4CA
  0
DICTIONARY
  5
494
102
{ACAD_REACTORS
330
C
102
}
330
C
100
AcDbDictionary
281
     1
  3
CANNOSCALE
350
4F5
  3
CMLEADERSTYLE
350
4F1
  3
CTABLESTYLE
350
4F0
  3
CVIEWDETAILSTYLE
350
4F2
  3
CVIEWSECTIONSTYLE
350
4F3
  3
DIMASSOC
350
495
  3
LAYEREVAL
350
4F7
  3
LAYERNOTIFY
350
4F8
  3
LIGHTINGUNITS
350
4F6
  3
MSLTSCALE
350
4F4
  3
PROJECTNAME
350
496
  0
XRECORD
  5
4EB
102
{ACAD_REACTORS
330
4EA
102
}
330
4EA
100
AcDbXrecord
280
     1
290
     1
  0
XRECORD
  5
4ED
102
{ACAD_REACTORS
330
4EC
102
}
330
4EC
100
AcDbXrecord
280
     1
290
     1
  0
XRECORD
  5
4EF
102
{ACAD_REACTORS
330
4EE
102
}
330
4EE
100
AcDbXrecord
280
     1
290
     1
  0
ACDBDETAILVIEWSTYLE
  5
4E2
102
{ACAD_REACTORS
330
4E1
102
}
330
4E1
100
AcDbModelDocViewStyle
 70
     0
  3
Imperial24
290
     1
300
Imperial24
 90
        0
100
AcDbDetailViewStyle
 70
     0
 71
     0
 90
        3
 71
     1
340
11
 62
   256
 40
0.24
340
0
 62
   256
 40
0.24
300

 40
0.36
280
     3
 71
     2
340
15
 90
       25
 62
   256
 71
     3
340
11
 62
   256
 40
0.24
 90
        1
 40
0.75
 90
        1
300
%<\AcVar ViewType \f "%tc1">% %<\AcVar ViewDetailId>%\PSCALE %<\AcVar ViewScale \f "%sn">%
 71
     4
340
15
 90
       25
 62
   256
340
15
 90
       25
 62
   256
280
     0
  0
LAYOUT
  5
23
102
{ACAD_REACTORS
330
19
102
}
330
19
100
AcDbPlotSettings
  1

  2
EPSON LP-S5000
  4

  6

 40
0.0
 41
0.0
 42
0.0
 43
0.0
 44
0.0
 45
0.0
 46
0.0
 47
0.0
 48
0.0
 49
0.0
140
0.0
141
0.0
142
1.0
143
1.0
 70
  1712
 72
     0
 73
     0
 74
     0
  7

 75
     0
147
1.0
 76
     0
 77
     2
 78
   300
148
0.0
149
0.0
100
AcDbLayout
  1
Model
 70
     1
 71
     0
 10
0.0
 20
0.0
 11
12.0
 21
9.0
 12
0.0
 22
0.0
 32
0.0
 14
0.0
 24
0.0
 34
0.0
 15
0.0
 25
0.0
 35
0.0
146
0.0
 13
0.0
 23
0.0
 33
0.0
 16
1.0
 26
0.0
 36
0.0
 17
0.0
 27
1.0
 37
0.0
 76
     0
330
20
331
48C
  0
LAYOUT
  5
1F
102
{ACAD_REACTORS
330
19
102
}
330
19
100
AcDbPlotSettings
  1

  2
EPSON LP-S5000
  4

  6

 40
0.0
 41
0.0
 42
0.0
 43
0.0
 44
0.0
 45
0.0
 46
0.0
 47
0.0
 48
0.0
 49
0.0
140
0.0
141
0.0
142
1.0
143
1.0
 70
   688
 72
     0
 73
     0
 74
     5
  7

 75
    16
147
1.0
 76
     0
 77
     2
 78
   300
148
0.0
149
0.0
100
AcDbLayout
  1
レイアウト1
 70
     1
 71
     1
 10
0.0
 20
0.0
 11
12.0
 21
9.0
 12
0.0
 22
0.0
 32
0.0
 14
1.000000000000000E+20
 24
1.000000000000000E+20
 34
1.000000000000000E+20
 15
-1.000000000000000E+20
 25
-1.000000000000000E+20
 35
-1.000000000000000E+20
146
0.0
 13
0.0
 23
0.0
 33
0.0
 16
1.0
 26
0.0
 36
0.0
 17
0.0
 27
1.0
 37
0.0
 76
     0
330
1C
  0
MATERIAL
  5
4A0
102
{ACAD_XDICTIONARY
360
4A1
102
}
102
{ACAD_REACTORS
330
1A
102
}
330
1A
100
AcDbMaterial
  1
ByBlock
 72
     0
 43
0.0208333333333333
 43
0.0
 43
0.0
 43
0.0
 43
0.0
 43
0.0208333333333333
 43
0.0
 43
0.0
 43
0.0
 43
0.0
 43
1.0
 43
0.0
 43
0.0
 43
0.0
 43
0.0
 43
1.0
 77
     0
 47
0.0208333333333333
 47
0.0
 47
0.0
 47
0.0
 47
0.0
 47
0.0208333333333333
 47
0.0
 47
0.0
 47
0.0
 47
0.0
 47
1.0
 47
0.0
 47
0.0
 47
0.0
 47
0.0
 47
1.0
171
     0
 49
0.0208333333333333
 49
0.0
 49
0.0
 49
0.0
 49
0.0
 49
0.0208333333333333
 49
0.0
 49
0.0
 49
0.0
 49
0.0
 49
1.0
 49
0.0
 49
0.0
 49
0.0
 49
0.0
 49
1.0
175
     0
142
0.0208333333333333
142
0.0
142
0.0
142
0.0
142
0.0
142
0.0208333333333333
142
0.0
142
0.0
142
0.0
142
0.0
142
1.0
142
0.0
142
0.0
142
0.0
142
0.0
142
1.0
179
     0
144
0.0208333333333333
144
0.0
144
0.0
144
0.0
144
0.0
144
0.0208333333333333
144
0.0
144
0.0
144
0.0
144
0.0
144
1.0
144
0.0
144
0.0
144
0.0
144
0.0
144
1.0
147
0.0208333333333333
147
0.0
147
0.0
147
0.0
147
0.0
147
0.0208333333333333
147
0.0
147
0.0
147
0.0
147
0.0
147
1.0
147
0.0
147
0.0
147
0.0
147
0.0
147
1.0
  0
MATERIAL
  5
498
102
{ACAD_XDICTIONARY
360
499
102
}
102
{ACAD_REACTORS
330
1A
102
}
330
1A
100
AcDbMaterial
  1
ByLayer
 72
     0
 43
0.0208333333333333
 43
0.0
 43
0.0
 43
0.0
 43
0.0
 43
0.0208333333333333
 43
0.0
 43
0.0
 43
0.0
 43
0.0
 43
1.0
 43
0.0
 43
0.0
 43
0.0
 43
0.0
 43
1.0
 77
     0
 47
0.0208333333333333
 47
0.0
 47
0.0
 47
0.0
 47
0.0
 47
0.0208333333333333
 47
0.0
 47
0.0
 47
0.0
 47
0.0
 47
1.0
 47
0.0
 47
0.0
 47
0.0
 47
0.0
 47
1.0
171
     0
 49
0.0208333333333333
 49
0.0
 49
0.0
 49
0.0
 49
0.0
 49
0.0208333333333333
 49
0.0
 49
0.0
 49
0.0
 49
0.0
 49
1.0
 49
0.0
 49
0.0
 49
0.0
 49
0.0
 49
1.0
175
     0
142
0.0208333333333333
142
0.0
142
0.0
142
0.0
142
0.0
142
0.0208333333333333
142
0.0
142
0.0
142
0.0
142
0.0
142
1.0
142
0.0
142
0.0
142
0.0
142
0.0
142
1.0
179
     0
144
0.0208333333333333
144
0.0
144
0.0
144
0.0
144
0.0
144
0.0208333333333333
144
0.0
144
0.0
144
0.0
144
0.0
144
1.0
144
0.0
144
0.0
144
0.0
144
0.0
144
1.0
147
0.0208333333333333
147
0.0
147
0.0
147
0.0
147
0.0
147
0.0208333333333333
147
0.0
147
0.0
147
0.0
147
0.0
147
1.0
147
0.0
147
0.0
147
0.0
147
0.0
147
1.0
  0
MATERIAL
  5
4A8
102
{ACAD_XDICTIONARY
360
4A9
102
}
102
{ACAD_REACTORS
330
1A
102
}
330
1A
100
AcDbMaterial
  1
Global
 72
     0
 43
0.0208333333333333
 43
0.0
 43
0.0
 43
0.0
 43
0.0
 43
0.0208333333333333
 43
0.0
 43
0.0
 43
0.0
 43
0.0
 43
1.0
 43
0.0
 43
0.0
 43
0.0
 43
0.0
 43
1.0
 77
     0
 47
0.0208333333333333
 47
0.0
 47
0.0
 47
0.0
 47
0.0
 47
0.0208333333333333
 47
0.0
 47
0.0
 47
0.0
 47
0.0
 47
1.0
 47
0.0
 47
0.0
 47
0.0
 47
0.0
 47
1.0
171
     0
 49
0.0208333333333333
 49
0.0
 49
0.0
 49
0.0
 49
0.0
 49
0.0208333333333333
 49
0.0
 49
0.0
 49
0.0
 49
0.0
 49
1.0
 49
0.0
 49
0.0
 49
0.0
 49
0.0
 49
1.0
175
     0
142
0.0208333333333333
142
0.0
142
0.0
142
0.0
142
0.0
142
0.0208333333333333
142
0.0
142
0.0
142
0.0
142
0.0
142
1.0
142
0.0
142
0.0
142
0.0
142
0.0
142
1.0
179
     0
144
0.0208333333333333
144
0.0
144
0.0
144
0.0
144
0.0
144
0.0208333333333333
144
0.0
144
0.0
144
0.0
144
0.0
144
1.0
144
0.0
144
0.0
144
0.0
144
0.0
144
1.0
147
0.0208333333333333
147
0.0
147
0.0
147
0.0
147
0.0
147
0.0208333333333333
147
0.0
147
0.0
147
0.0
147
0.0
147
1.0
147
0.0
147
0.0
147
0.0
147
0.0
147
1.0
  0
MLEADERSTYLE
  5
4DE
102
{ACAD_REACTORS
330
4DD
102
}
330
4DD
100
AcDbMLeaderStyle
179
     2
170
     2
171
     1
172
     0
 90
        2
 40
0.0
 41
0.0
173
     1
 91
-1056964608
340
13
 92
       -2
290
     1
 42
0.09
291
     1
 43
0.36
  3
Standard
 44
0.18
300

342
11
174
     1
178
     6
175
     1
176
     0
 93
-1056964608
 45
0.18
292
     0
297
     0
 46
0.18
 94
-1056964608
 47
1.0
 49
1.0
140
1.0
293
     1
141
0.0
294
     1
177
     0
142
1.0
295
     1
296
     0
143
0.125
271
     0
272
     9
273
     9
298
     1
  0
MLINESTYLE
  5
17
102
{ACAD_REACTORS
330
16
102
}
330
16
100
AcDbMlineStyle
  2
STANDARD
 70
     0
  3

 62
   256
 51
90.0
 52
90.0
 71
     2
 49
0.5
 62
   256
  6
BYLAYER
 49
-0.5
 62
   256
  6
BYLAYER
  0
ACDBPLACEHOLDER
  5
F
102
{ACAD_REACTORS
330
E
102
}
330
E
  0
SCALE
  5
4CC
102
{ACAD_REACTORS
330
4CB
102
}
330
4CB
100
AcDbScale
 70
     0
300
1:1
140
1.0
141
1.0
290
     1
  0
SCALE
  5
4CD
102
{ACAD_REACTORS
330
4CB
102
}
330
4CB
100
AcDbScale
 70
     0
300
1/128" = 1'-0"
140
0.0078125
141
12.0
290
     0
  0
SCALE
  5
4CE
102
{ACAD_REACTORS
330
4CB
102
}
330
4CB
100
AcDbScale
 70
     0
300
1/64" = 1'-0"
140
0.015625
141
12.0
290
     0
  0
SCALE
  5
4CF
102
{ACAD_REACTORS
330
4CB
102
}
330
4CB
100
AcDbScale
 70
     0
300
1/32" = 1'-0"
140
0.03125
141
12.0
290
     0
  0
SCALE
  5
4D0
102
{ACAD_REACTORS
330
4CB
102
}
330
4CB
100
AcDbScale
 70
     0
300
1/16" = 1'-0"
140
0.0625
141
12.0
290
     0
  0
SCALE
  5
4D1
102
{ACAD_REACTORS
330
4CB
102
}
330
4CB
100
AcDbScale
 70
     0
300
3/32" = 1'-0"
140
0.09375
141
12.0
290
     0
  0
SCALE
  5
4D2
102
{ACAD_REACTORS
330
4CB
102
}
330
4CB
100
AcDbScale
 70
     0
300
1/8" = 1'-0"
140
0.125
141
12.0
290
     0
  0
SCALE
  5
4D3
102
{ACAD_REACTORS
330
4CB
102
}
330
4CB
100
AcDbScale
 70
     0
300
3/16" = 1'-0"
140
0.1875
141
12.0
290
     0
  0
SCALE
  5
4D4
102
{ACAD_REACTORS
330
4CB
102
}
330
4CB
100
AcDbScale
 70
     0
300
1/4" = 1'-0"
140
0.25
141
12.0
290
     0
  0
SCALE
  5
4D5
102
{ACAD_REACTORS
330
4CB
102
}
330
4CB
100
AcDbScale
 70
     0
300
3/8" = 1'-0"
140
0.375
141
12.0
290
     0
  0
SCALE
  5
4D6
102
{ACAD_REACTORS
330
4CB
102
}
330
4CB
100
AcDbScale
 70
     0
300
1/2" = 1'-0"
140
0.5
141
12.0
290
     0
  0
SCALE
  5
4D7
102
{ACAD_REACTORS
330
4CB
102
}
330
4CB
100
AcDbScale
 70
     0
300
3/4" = 1'-0"
140
0.75
141
12.0
290
     0
  0
SCALE
  5
4D8
102
{ACAD_REACTORS
330
4CB
102
}
330
4CB
100
AcDbScale
 70
     0
300
1" = 1'-0"
140
1.0
141
12.0
290
     0
  0
SCALE
  5
4D9
102
{ACAD_REACTORS
330
4CB
102
}
330
4CB
100
AcDbScale
 70
     0
300
1-1/2" = 1'-0"
140
1.5
141
12.0
290
     0
  0
SCALE
  5
4DA
102
{ACAD_REACTORS
330
4CB
102
}
330
4CB
100
AcDbScale
 70
     0
300
3" = 1'-0"
140
3.0
141
12.0
290
     0
  0
SCALE
  5
4DB
102
{ACAD_REACTORS
330
4CB
102
}
330
4CB
100
AcDbScale
 70
     0
300
6" = 1'-0"
140
6.0
141
12.0
290
     0
  0
SCALE
  5
4DC
102
{ACAD_REACTORS
330
4CB
102
}
330
4CB
100
AcDbScale
 70
     0
300
1'-0" = 1'-0"
140
12.0
141
12.0
290
     0
  0
ACDBSECTIONVIEWSTYLE
  5
4E0
102
{ACAD_REACTORS
330
4DF
102
}
330
4DF
100
AcDbModelDocViewStyle
 70
     0
  3
Imperial24
290
     1
300
Imperial24
 90
        0
100
AcDbSectionViewStyle
 70
     0
 71
     0
 90
       78
 71
     1
340
11
 62
   256
 40
0.24
340
0
340
0
 62
   256
 40
0.24
300
I, O, Q, S, X, Z
 40
0.48
 90
        3
 40
0.18
 90
        1
 71
     2
340
15
 90
       25
 62
   256
340
15
 90
       50
 62
   256
 40
0.24
 40
0.0
 40
0.24
 71
     3
340
11
 62
   256
 40
0.24
 90
        1
 40
0.75
 90
        1
300
%<\AcVar ViewType \f "%tc1">% %<\AcVar ViewSectionStartId>%-%<\AcVar ViewSectionEndId>%\PSCALE %<\AcVar ViewScale \f "%sn">%
 71
     4
 62
   256
 62
   257
300
ANSI31
 40
1.0
 90
        0
290
     0
290
     0
 90
        6
 40
0.0
 40
1.570796326794896
 40
0.2617993877991494
 40
1.308996938995747
 40
-0.2617993877991494
 40
1.832595714594046
  0
TABLESTYLE
  5
4CA
102
{ACAD_XDICTIONARY
360
4FA
102
}
102
{ACAD_REACTORS
330
4C9
102
}
330
4C9
100
AcDbTableStyle
280
     0
  3
Standard
 70
     0
 71
     0
 40
0.06
 41
0.06
280
     0
281
     0
  7
STANDARD
140
0.18
170
     2
 62
     0
 63
     7
283
     0
 90
      512
 91
        0
  1

274
    -2
284
     1
 64
     0
275
    -2
285
     1
 65
     0
276
    -2
286
     1
 66
     0
277
    -2
287
     1
 67
     0
278
    -2
288
     1
 68
     0
279
    -2
289
     1
 69
     0
  7
STANDARD
140
0.25
170
     5
 62
     0
 63
     7
283
     0
 90
      512
 91
        0
  1

274
    -2
284
     1
 64
     0
275
    -2
285
     1
 65
     0
276
    -2
286
     1
 66
     0
277
    -2
287
     1
 67
     0
278
    -2
288
     1
 68
     0
279
    -2
289
     1
 69
     0
  7
STANDARD
140
0.18
170
     5
 62
     0
 63
     7
283
     0
 90
      512
 91
        0
  1

274
    -2
284
     1
 64
     0
275
    -2
285
     1
 65
     0
276
    -2
286
     1
 66
     0
277
    -2
287
     1
 67
     0
278
    -2
288
     1
 68
     0
279
    -2
289
     1
 69
     0
  0
VISUALSTYLE
  5
4B6
102
{ACAD_REACTORS
330
4B0
102
}
330
4B0
100
AcDbVisualStyle
  2
2dWireframe
 70
     4
177
     3
291
     0
 70
    58
 90
        0
176
     1
 90
        2
176
     1
 90
        0
176
     1
 90
        0
176
     1
 40
0.6
176
     1
 40
30.0
176
     1
 62
     7
420
 16777215
176
     1
 90
        1
176
     1
 90
        4
176
     1
 62
     7
176
     1
 62
   257
176
     1
 90
        1
176
     1
 90
        1
176
     1
 40
1.0
176
     1
 90
        0
176
     1
 62
   257
176
     1
 40
1.0
176
     1
 90
        1
176
     1
 90
        6
176
     1
 90
        2
176
     1
 62
     7
176
     1
 90
        5
176
     1
 90
        0
176
     1
 90
        0
176
     1
290
     0
176
     1
 90
        1
176
     1
 40
0.0
176
     1
 90
        0
176
     1
290
     1
176
     1
290
     1
176
     1
290
     0
176
     1
290
     0
176
     1
290
     0
176
     1
290
     0
176
     1
290
     0
176
     1
290
     0
176
     1
290
     0
176
     1
 90
       50
176
     1
 40
0.0
176
     1
 40
1.0
176
     1
 90
        0
176
     1
 62
    18
420
        0
176
     1
 90
       50
176
     1
 90
        3
176
     1
 62
     5
420
      255
176
     1
290
     0
176
     1
 90
       50
176
     1
 90
       50
176
     1
 90
       50
176
     1
290
     0
176
     1
 90
       50
176
     1
 62
   256
176
     0
 40
1.0
176
     0
 90
        2
176
     1
  1
strokes_ogs.tif
176
     1
290
     0
176
     1
 40
1.0
176
     1
 40
1.0
176
     1
  0
VISUALSTYLE
  5
4B5
102
{ACAD_REACTORS
330
4B0
102
}
330
4B0
100
AcDbVisualStyle
  2
Basic
 70
     7
177
     3
291
     1
 70
    58
 90
        1
176
     1
 90
        0
176
     1
 90
        1
176
     1
 90
        0
176
     1
 40
0.6
176
     1
 40
30.0
176
     1
 62
     7
420
 16777215
176
     1
 90
        0
176
     1
 90
        4
176
     1
 62
     7
176
     1
 62
   257
176
     1
 90
        1
176
     1
 90
        1
176
     1
 40
1.0
176
     1
 90
        8
176
     1
 62
     7
176
     1
 40
1.0
176
     1
 90
        1
176
     1
 90
        6
176
     1
 90
        2
176
     1
 62
     7
176
     1
 90
        5
176
     1
 90
        0
176
     1
 90
        0
176
     1
290
     0
176
     1
 90
        1
176
     1
 40
0.0
176
     1
 90
        0
176
     1
290
     0
176
     1
290
     1
176
     1
290
     1
176
     1
290
     0
176
     1
290
     0
176
     1
290
     0
176
     1
290
     0
176
     1
290
     0
176
     1
290
     0
176
     1
 90
       50
176
     1
 40
0.0
176
     1
 40
1.0
176
     1
 90
        0
176
     1
 62
    18
420
        0
176
     1
 90
       50
176
     1
 90
        3
176
     1
 62
     5
420
      255
176
     1
290
     0
176
     1
 90
       50
176
     1
 90
       50
176
     1
 90
       50
176
     1
290
     0
176
     1
 90
       50
176
     1
 62
   256
176
     0
 40
1.0
176
     0
 90
        2
176
     1
  1
strokes_ogs.tif
176
     1
290
     0
176
     1
 40
1.0
176
     1
 40
1.0
176
     1
  0
VISUALSTYLE
  5
4BC
102
{ACAD_REACTORS
330
4B0
102
}
330
4B0
100
AcDbVisualStyle
  2
Brighten
 70
    12
177
     3
291
     1
 70
    58
 90
        2
176
     1
 90
        2
176
     1
 90
        0
176
     1
 90
        0
176
     1
 40
0.6
176
     1
 40
30.0
176
     1
 62
     7
420
 16777215
176
     1
 90
        1
176
     1
 90
        4
176
     1
 62
     7
176
     1
 62
   257
176
     1
 90
        1
176
     1
 90
        1
176
     1
 40
1.0
176
     1
 90
        8
176
     1
 62
     7
176
     1
 40
1.0
176
     1
 90
        1
176
     1
 90
        6
176
     1
 90
        2
176
     1
 62
     7
176
     1
 90
        5
176
     1
 90
        0
176
     1
 90
        0
176
     1
290
     0
176
     1
 90
        1
176
     1
 40
50.0
176
     1
 90
        0
176
     1
290
     0
176
     1
290
     1
176
     1
290
     1
176
     1
290
     0
176
     1
290
     0
176
     1
290
     0
176
     1
290
     0
176
     1
290
     0
176
     1
290
     0
176
     1
 90
       50
176
     1
 40
0.0
176
     1
 40
1.0
176
     1
 90
        0
176
     1
 62
    18
420
        0
176
     1
 90
       50
176
     1
 90
        3
176
     1
 62
     5
420
      255
176
     1
290
     0
176
     1
 90
       50
176
     1
 90
       50
176
     1
 90
       50
176
     1
290
     0
176
     1
 90
       50
176
     1
 62
   256
176
     0
 40
1.0
176
     0
 90
        2
176
     1
  1
strokes_ogs.tif
176
     1
290
     0
176
     1
 40
1.0
176
     1
 40
1.0
176
     1
  0
VISUALSTYLE
  5
4C0
102
{ACAD_REACTORS
330
4B0
102
}
330
4B0
100
AcDbVisualStyle
  2
ColorChange
 70
    16
177
     3
291
     1
 70
    58
 90
        2
176
     1
 90
        2
176
     1
 90
        3
176
     1
 90
        0
176
     1
 40
0.6
176
     1
 40
30.0
176
     1
 62
     8
420
  8421504
176
     1
 90
        1
176
     1
 90
        4
176
     1
 62
     7
176
     1
 62
   257
176
     1
 90
        1
176
     1
 90
        1
176
     1
 40
1.0
176
     1
 90
        8
176
     1
 62
     8
420
  8421504
176
     1
 40
1.0
176
     1
 90
        1
176
     1
 90
        6
176
     1
 90
        2
176
     1
 62
     7
176
     1
 90
        5
176
     1
 90
        0
176
     1
 90
        0
176
     1
290
     0
176
     1
 90
        1
176
     1
 40
0.0
176
     1
 90
        0
176
     1
290
     0
176
     1
290
     1
176
     1
290
     1
176
     1
290
     0
176
     1
290
     0
176
     1
290
     0
176
     1
290
     0
176
     1
290
     0
176
     1
290
     0
176
     1
 90
       50
176
     1
 40
0.0
176
     1
 40
1.0
176
     1
 90
        0
176
     1
 62
    18
420
        0
176
     1
 90
       50
176
     1
 90
        3
176
     1
 62
     5
420
      255
176
     1
290
     0
176
     1
 90
       50
176
     1
 90
       50
176
     1
 90
       50
176
     1
290
     0
176
     1
 90
       50
176
     1
 62
   256
176
     0
 40
1.0
176
     0
 90
        2
176
     1
  1
strokes_ogs.tif
176
     1
290
     0
176
     1
 40
1.0
176
     1
 40
1.0
176
     1
  0
VISUALSTYLE
  5
4B9
102
{ACAD_REACTORS
330
4B0
102
}
330
4B0
100
AcDbVisualStyle
  2
Conceptual
 70
     9
177
     3
291
     0
 70
    58
 90
        3
176
     1
 90
        2
176
     1
 90
        0
176
     1
 90
        0
176
     1
 40
0.6
176
     1
 40
30.0
176
     1
 62
     7
420
 16777215
176
     1
 90
        2
176
     1
 90
        2
176
     1
 62
     7
176
     1
 62
   257
176
     1
 90
        1
176
     1
 90
        1
176
     1
 40
179.0
176
     1
 90
        8
176
     1
 62
     7
176
     1
 40
1.0
176
     1
 90
        1
176
     1
 90
        6
176
     1
 90
        2
176
     1
 62
     7
176
     1
 90
        3
176
     1
 90
        0
176
     1
 90
        0
176
     1
290
     0
176
     1
 90
        1
176
     1
 40
0.0
176
     1
 90
        0
176
     1
290
     0
176
     1
290
     1
176
     1
290
     1
176
     1
290
     0
176
     1
290
     0
176
     1
290
     0
176
     1
290
     0
176
     1
290
     0
176
     1
290
     0
176
     1
 90
       50
176
     1
 40
0.0
176
     1
 40
1.0
176
     1
 90
        0
176
     1
 62
    18
420
        0
176
     1
 90
       50
176
     1
 90
        3
176
     1
 62
     5
420
      255
176
     1
290
     0
176
     1
 90
       50
176
     1
 90
       50
176
     1
 90
       50
176
     1
290
     0
176
     1
 90
       50
176
     1
 62
   256
176
     0
 40
1.0
176
     0
 90
        2
176
     1
  1
strokes_ogs.tif
176
     1
290
     0
176
     1
 40
1.0
176
     1
 40
1.0
176
     1
  0
VISUALSTYLE
  5
4BB
102
{ACAD_REACTORS
330
4B0
102
}
330
4B0
100
AcDbVisualStyle
  2
Dim
 70
    11
177
     3
291
     1
 70
    58
 90
        2
176
     1
 90
        2
176
     1
 90
        0
176
     1
 90
        0
176
     1
 40
0.6
176
     1
 40
30.0
176
     1
 62
     7
420
 16777215
176
     1
 90
        1
176
     1
 90
        4
176
     1
 62
     7
176
     1
 62
   257
176
     1
 90
        1
176
     1
 90
        1
176
     1
 40
1.0
176
     1
 90
        8
176
     1
 62
     7
176
     1
 40
1.0
176
     1
 90
        1
176
     1
 90
        6
176
     1
 90
        2
176
     1
 62
     7
176
     1
 90
        5
176
     1
 90
        0
176
     1
 90
        0
176
     1
290
     0
176
     1
 90
        1
176
     1
 40
-50.0
176
     1
 90
        0
176
     1
290
     0
176
     1
290
     1
176
     1
290
     1
176
     1
290
     0
176
     1
290
     0
176
     1
290
     0
176
     1
290
     0
176
     1
290
     0
176
     1
290
     0
176
     1
 90
       50
176
     1
 40
0.0
176
     1
 40
1.0
176
     1
 90
        0
176
     1
 62
    18
420
        0
176
     1
 90
       50
176
     1
 90
        3
176
     1
 62
     5
420
      255
176
     1
290
     0
176
     1
 90
       50
176
     1
 90
       50
176
     1
 90
       50
176
     1
290
     0
176
     1
 90
       50
176
     1
 62
   256
176
     0
 40
1.0
176
     0
 90
        2
176
     1
  1
strokes_ogs.tif
176
     1
290
     0
176
     1
 40
1.0
176
     1
 40
1.0
176
     1
  0
VISUALSTYLE
  5
4C8
102
{ACAD_REACTORS
330
4B0
102
}
330
4B0
100
AcDbVisualStyle
  2
EdgeColorOff
 70
    22
177
     3
291
     1
 70
    58
 90
        2
176
     0
 90
        2
176
     0
 90
        0
176
     0
 90
        0
176
     0
 40
0.6
176
     0
 40
30.0
176
     0
 62
     7
420
 16777215
176
     0
 90
        1
176
     0
 90
        4
176
     0
 62
     7
176
     0
 62
   257
176
     0
 90
        1
176
     0
 90
        1
176
     0
 40
1.0
176
     0
 90
        8
176
     2
 62
     7
176
     0
 40
1.0
176
     0
 90
        1
176
     0
 90
        6
176
     0
 90
        2
176
     0
 62
     7
176
     0
 90
        5
176
     0
 90
        0
176
     0
 90
        0
176
     0
290
     0
176
     0
 90
        1
176
     0
 40
0.0
176
     0
 90
        0
176
     0
290
     0
176
     0
290
     1
176
     0
290
     1
176
     0
290
     0
176
     0
290
     0
176
     0
290
     0
176
     0
290
     0
176
     0
290
     0
176
     0
290
     0
176
     0
 90
       50
176
     0
 40
0.0
176
     0
 40
1.0
176
     0
 90
        0
176
     0
 62
    18
420
        0
176
     0
 90
       50
176
     0
 90
        3
176
     0
 62
     5
420
      255
176
     0
290
     0
176
     0
 90
       50
176
     0
 90
       50
176
     0
 90
       50
176
     0
290
     0
176
     0
 90
       50
176
     0
 62
   256
176
     0
 40
1.0
176
     0
 90
        2
176
     0
  1
strokes_ogs.tif
176
     0
290
     0
176
     0
 40
1.0
176
     0
 40
1.0
176
     0
  0
VISUALSTYLE
  5
4BF
102
{ACAD_REACTORS
330
4B0
102
}
330
4B0
100
AcDbVisualStyle
  2
Facepattern
 70
    15
177
     3
291
     1
 70
    58
 90
        2
176
     1
 90
        2
176
     1
 90
        0
176
     1
 90
        0
176
     1
 40
0.6
176
     1
 40
30.0
176
     1
 62
     7
420
 16777215
176
     1
 90
        1
176
     1
 90
        4
176
     1
 62
     7
176
     1
 62
   257
176
     1
 90
        1
176
     1
 90
        1
176
     1
 40
1.0
176
     1
 90
        8
176
     1
 62
     7
176
     1
 40
1.0
176
     1
 90
        1
176
     1
 90
        6
176
     1
 90
        2
176
     1
 62
     7
176
     1
 90
        5
176
     1
 90
        0
176
     1
 90
        0
176
     1
290
     0
176
     1
 90
        1
176
     1
 40
0.0
176
     1
 90
        0
176
     1
290
     0
176
     1
290
     1
176
     1
290
     1
176
     1
290
     0
176
     1
290
     0
176
     1
290
     0
176
     1
290
     0
176
     1
290
     0
176
     1
290
     0
176
     1
 90
       50
176
     1
 40
0.0
176
     1
 40
1.0
176
     1
 90
        0
176
     1
 62
    18
420
        0
176
     1
 90
       50
176
     1
 90
        3
176
     1
 62
     5
420
      255
176
     1
290
     0
176
     1
 90
       50
176
     1
 90
       50
176
     1
 90
       50
176
     1
290
     0
176
     1
 90
       50
176
     1
 62
   256
176
     0
 40
1.0
176
     0
 90
        2
176
     1
  1
strokes_ogs.tif
176
     1
290
     0
176
     1
 40
1.0
176
     1
 40
1.0
176
     1
  0
VISUALSTYLE
  5
4B1
102
{ACAD_REACTORS
330
4B0
102
}
330
4B0
100
AcDbVisualStyle
  2
Flat
 70
     0
177
     3
291
     1
 70
    58
 90
        2
176
     1
 90
        1
176
     1
 90
        1
176
     1
 90
        2
176
     1
 40
0.6
176
     1
 40
30.0
176
     1
 62
     7
420
 16777215
176
     1
 90
        0
176
     1
 90
        0
176
     1
 62
     7
176
     1
 62
   257
176
     1
 90
        1
176
     1
 90
        1
176
     1
 40
1.0
176
     1
 90
        8
176
     1
 62
     7
176
     1
 40
1.0
176
     1
 90
        1
176
     1
 90
        6
176
     1
 90
        2
176
     1
 62
     7
176
     1
 90
        5
176
     1
 90
        0
176
     1
 90
        0
176
     1
290
     0
176
     1
 90
       13
176
     1
 40
0.0
176
     1
 90
        0
176
     1
290
     0
176
     1
290
     1
176
     1
290
     1
176
     1
290
     0
176
     1
290
     0
176
     1
290
     0
176
     1
290
     0
176
     1
290
     0
176
     1
290
     0
176
     1
 90
       50
176
     1
 40
0.0
176
     1
 40
1.0
176
     1
 90
        0
176
     1
 62
    18
420
        0
176
     1
 90
       50
176
     1
 90
        3
176
     1
 62
     5
420
      255
176
     1
290
     0
176
     1
 90
       50
176
     1
 90
       50
176
     1
 90
       50
176
     1
290
     0
176
     1
 90
       50
176
     1
 62
   256
176
     0
 40
1.0
176
     0
 90
        2
176
     1
  1
strokes_ogs.tif
176
     1
290
     0
176
     1
 40
1.0
176
     1
 40
1.0
176
     1
  0
VISUALSTYLE
  5
4B2
102
{ACAD_REACTORS
330
4B0
102
}
330
4B0
100
AcDbVisualStyle
  2
FlatWithEdges
 70
     1
177
     3
291
     1
 70
    58
 90
        2
176
     1
 90
        1
176
     1
 90
        1
176
     1
 90
        2
176
     1
 40
0.6
176
     1
 40
30.0
176
     1
 62
     7
420
 16777215
176
     1
 90
        1
176
     1
 90
        0
176
     1
 62
     7
176
     1
 62
   257
176
     1
 90
        1
176
     1
 90
        1
176
     1
 40
1.0
176
     1
 90
        0
176
     1
 62
   257
176
     1
 40
1.0
176
     1
 90
        1
176
     1
 90
        6
176
     1
 90
        2
176
     1
 62
     7
176
     1
 90
        5
176
     1
 90
        0
176
     1
 90
        0
176
     1
290
     0
176
     1
 90
       13
176
     1
 40
0.0
176
     1
 90
        0
176
     1
290
     0
176
     1
290
     1
176
     1
290
     1
176
     1
290
     0
176
     1
290
     0
176
     1
290
     0
176
     1
290
     0
176
     1
290
     0
176
     1
290
     0
176
     1
 90
       50
176
     1
 40
0.0
176
     1
 40
1.0
176
     1
 90
        0
176
     1
 62
    18
420
        0
176
     1
 90
       50
176
     1
 90
        3
176
     1
 62
     5
420
      255
176
     1
290
     0
176
     1
 90
       50
176
     1
 90
       50
176
     1
 90
       50
176
     1
290
     0
176
     1
 90
       50
176
     1
 62
   256
176
     0
 40
1.0
176
     0
 90
        2
176
     1
  1
strokes_ogs.tif
176
     1
290
     0
176
     1
 40
1.0
176
     1
 40
1.0
176
     1
  0
VISUALSTYLE
  5
4B3
102
{ACAD_REACTORS
330
4B0
102
}
330
4B0
100
AcDbVisualStyle
  2
Gouraud
 70
     2
177
     3
291
     1
 70
    58
 90
        2
176
     1
 90
        2
176
     1
 90
        1
176
     1
 90
        2
176
     1
 40
0.6
176
     1
 40
30.0
176
     1
 62
     7
420
 16777215
176
     1
 90
        0
176
     1
 90
        0
176
     1
 62
     7
176
     1
 62
   257
176
     1
 90
        1
176
     1
 90
        1
176
     1
 40
1.0
176
     1
 90
        0
176
     1
 62
     7
176
     1
 40
1.0
176
     1
 90
        1
176
     1
 90
        6
176
     1
 90
        2
176
     1
 62
     7
176
     1
 90
        5
176
     1
 90
        0
176
     1
 90
        0
176
     1
290
     0
176
     1
 90
       13
176
     1
 40
0.0
176
     1
 90
        0
176
     1
290
     0
176
     1
290
     1
176
     1
290
     1
176
     1
290
     0
176
     1
290
     0
176
     1
290
     0
176
     1
290
     0
176
     1
290
     0
176
     1
290
     0
176
     1
 90
       50
176
     1
 40
0.0
176
     1
 40
1.0
176
     1
 90
        0
176
     1
 62
    18
420
        0
176
     1
 90
       50
176
     1
 90
        3
176
     1
 62
     5
420
      255
176
     1
290
     0
176
     1
 90
       50
176
     1
 90
       50
176
     1
 90
       50
176
     1
290
     0
176
     1
 90
       50
176
     1
 62
   256
176
     0
 40
1.0
176
     0
 90
        2
176
     1
  1
strokes_ogs.tif
176
     1
290
     0
176
     1
 40
1.0
176
     1
 40
1.0
176
     1
  0
VISUALSTYLE
  5
4B4
102
{ACAD_REACTORS
330
4B0
102
}
330
4B0
100
AcDbVisualStyle
  2
GouraudWithEdges
 70
     3
177
     3
291
     1
 70
    58
 90
        2
176
     1
 90
        2
176
     1
 90
        1
176
     1
 90
        2
176
     1
 40
0.6
176
     1
 40
30.0
176
     1
 62
     7
420
 16777215
176
     1
 90
        1
176
     1
 90
        0
176
     1
 62
     7
176
     1
 62
   257
176
     1
 90
        1
176
     1
 90
        1
176
     1
 40
1.0
176
     1
 90
        0
176
     1
 62
   257
176
     1
 40
1.0
176
     1
 90
        1
176
     1
 90
        6
176
     1
 90
        2
176
     1
 62
     7
176
     1
 90
        5
176
     1
 90
        0
176
     1
 90
        0
176
     1
290
     0
176
     1
 90
       13
176
     1
 40
0.0
176
     1
 90
        0
176
     1
290
     0
176
     1
290
     1
176
     1
290
     1
176
     1
290
     0
176
     1
290
     0
176
     1
290
     0
176
     1
290
     0
176
     1
290
     0
176
     1
290
     0
176
     1
 90
       50
176
     1
 40
0.0
176
     1
 40
1.0
176
     1
 90
        0
176
     1
 62
    18
420
        0
176
     1
 90
       50
176
     1
 90
        3
176
     1
 62
     5
420
      255
176
     1
290
     0
176
     1
 90
       50
176
     1
 90
       50
176
     1
 90
       50
176
     1
290
     0
176
     1
 90
       50
176
     1
 62
   256
176
     0
 40
1.0
176
     0
 90
        2
176
     1
  1
strokes_ogs.tif
176
     1
290
     0
176
     1
 40
1.0
176
     1
 40
1.0
176
     1
  0
VISUALSTYLE
  5
4B8
102
{ACAD_REACTORS
330
4B0
102
}
330
4B0
100
AcDbVisualStyle
  2
Hidden
 70
     6
177
     3
291
     0
 70
    58
 90
        1
176
     1
 90
        2
176
     1
 90
        2
176
     1
 90
        0
176
     1
 40
0.6
176
     1
 40
30.0
176
     1
 62
     7
420
 16777215
176
     1
 90
        2
176
     1
 90
        2
176
     1
 62
     7
176
     1
 62
   257
176
     1
 90
        2
176
     1
 90
        1
176
     1
 40
40.0
176
     1
 90
        0
176
     1
 62
   257
176
     1
 40
1.0
176
     1
 90
        1
176
     1
 90
        6
176
     1
 90
        2
176
     1
 62
     7
176
     1
 90
        3
176
     1
 90
        0
176
     1
 90
        0
176
     1
290
     0
176
     1
 90
        1
176
     1
 40
0.0
176
     1
 90
        0
176
     1
290
     0
176
     1
290
     1
176
     1
290
     1
176
     1
290
     0
176
     1
290
     0
176
     1
290
     0
176
     1
290
     0
176
     1
290
     0
176
     1
290
     0
176
     1
 90
       50
176
     1
 40
0.0
176
     1
 40
1.0
176
     1
 90
        0
176
     1
 62
    18
420
        0
176
     1
 90
       50
176
     1
 90
        3
176
     1
 62
     5
420
      255
176
     1
290
     0
176
     1
 90
       50
176
     1
 90
       50
176
     1
 90
       50
176
     1
290
     0
176
     1
 90
       50
176
     1
 62
   256
176
     0
 40
1.0
176
     0
 90
        2
176
     1
  1
strokes_ogs.tif
176
     1
290
     0
176
     1
 40
1.0
176
     1
 40
1.0
176
     1
  0
VISUALSTYLE
  5
4C6
102
{ACAD_REACTORS
330
4B0
102
}
330
4B0
100
AcDbVisualStyle
  2
JitterOff
 70
    20
177
     3
291
     1
 70
    58
 90
        2
176
     0
 90
        2
176
     0
 90
        0
176
     0
 90
        0
176
     0
 40
0.6
176
     0
 40
30.0
176
     0
 62
     7
420
 16777215
176
     0
 90
        1
176
     0
 90
        4
176
     0
 62
     7
176
     0
 62
   257
176
     0
 90
        1
176
     0
 90
        1
176
     0
 40
1.0
176
     0
 90
       10
176
     2
 62
     7
176
     0
 40
1.0
176
     0
 90
        1
176
     0
 90
        6
176
     0
 90
        2
176
     0
 62
     7
176
     0
 90
        5
176
     0
 90
        0
176
     0
 90
        0
176
     0
290
     0
176
     0
 90
        1
176
     0
 40
0.0
176
     0
 90
        0
176
     0
290
     0
176
     0
290
     1
176
     0
290
     1
176
     0
290
     0
176
     0
290
     0
176
     0
290
     0
176
     0
290
     0
176
     0
290
     0
176
     0
290
     0
176
     0
 90
       50
176
     0
 40
0.0
176
     0
 40
1.0
176
     0
 90
        0
176
     0
 62
    18
420
        0
176
     0
 90
       50
176
     0
 90
        3
176
     0
 62
     5
420
      255
176
     0
290
     0
176
     0
 90
       50
176
     0
 90
       50
176
     0
 90
       50
176
     0
290
     0
176
     0
 90
       50
176
     0
 62
   256
176
     0
 40
1.0
176
     0
 90
        2
176
     0
  1
strokes_ogs.tif
176
     0
290
     0
176
     0
 40
1.0
176
     0
 40
1.0
176
     0
  0
VISUALSTYLE
  5
4BE
102
{ACAD_REACTORS
330
4B0
102
}
330
4B0
100
AcDbVisualStyle
  2
Linepattern
 70
    14
177
     3
291
     1
 70
    58
 90
        2
176
     1
 90
        2
176
     1
 90
        0
176
     1
 90
        0
176
     1
 40
0.6
176
     1
 40
30.0
176
     1
 62
     7
420
 16777215
176
     1
 90
        1
176
     1
 90
        4
176
     1
 62
     7
176
     1
 62
   257
176
     1
 90
        7
176
     1
 90
        7
176
     1
 40
1.0
176
     1
 90
        8
176
     1
 62
     7
176
     1
 40
1.0
176
     1
 90
        1
176
     1
 90
        6
176
     1
 90
        2
176
     1
 62
     7
176
     1
 90
        5
176
     1
 90
        0
176
     1
 90
        0
176
     1
290
     0
176
     1
 90
        1
176
     1
 40
0.0
176
     1
 90
        0
176
     1
290
     0
176
     1
290
     1
176
     1
290
     1
176
     1
290
     0
176
     1
290
     0
176
     1
290
     0
176
     1
290
     0
176
     1
290
     0
176
     1
290
     0
176
     1
 90
       50
176
     1
 40
0.0
176
     1
 40
1.0
176
     1
 90
        0
176
     1
 62
    18
420
        0
176
     1
 90
       50
176
     1
 90
        3
176
     1
 62
     5
420
      255
176
     1
290
     0
176
     1
 90
       50
176
     1
 90
       50
176
     1
 90
       50
176
     1
290
     0
176
     1
 90
       50
176
     1
 62
   256
176
     0
 40
1.0
176
     0
 90
        2
176
     1
  1
strokes_ogs.tif
176
     1
290
     0
176
     1
 40
1.0
176
     1
 40
1.0
176
     1
  0
VISUALSTYLE
  5
4C7
102
{ACAD_REACTORS
330
4B0
102
}
330
4B0
100
AcDbVisualStyle
  2
OverhangOff
 70
    21
177
     3
291
     1
 70
    58
 90
        2
176
     0
 90
        2
176
     0
 90
        0
176
     0
 90
        0
176
     0
 40
0.6
176
     0
 40
30.0
176
     0
 62
     7
420
 16777215
176
     0
 90
        1
176
     0
 90
        4
176
     0
 62
     7
176
     0
 62
   257
176
     0
 90
        1
176
     0
 90
        1
176
     0
 40
1.0
176
     0
 90
        9
176
     2
 62
     7
176
     0
 40
1.0
176
     0
 90
        1
176
     0
 90
        6
176
     0
 90
        2
176
     0
 62
     7
176
     0
 90
        5
176
     0
 90
        0
176
     0
 90
        0
176
     0
290
     0
176
     0
 90
        1
176
     0
 40
0.0
176
     0
 90
        0
176
     0
290
     0
176
     0
290
     1
176
     0
290
     1
176
     0
290
     0
176
     0
290
     0
176
     0
290
     0
176
     0
290
     0
176
     0
290
     0
176
     0
290
     0
176
     0
 90
       50
176
     0
 40
0.0
176
     0
 40
1.0
176
     0
 90
        0
176
     0
 62
    18
420
        0
176
     0
 90
       50
176
     0
 90
        3
176
     0
 62
     5
420
      255
176
     0
290
     0
176
     0
 90
       50
176
     0
 90
       50
176
     0
 90
       50
176
     0
290
     0
176
     0
 90
       50
176
     0
 62
   256
176
     0
 40
1.0
176
     0
 90
        2
176
     0
  1
strokes_ogs.tif
176
     0
290
     0
176
     0
 40
1.0
176
     0
 40
1.0
176
     0
  0
VISUALSTYLE
  5
4BA
102
{ACAD_REACTORS
330
4B0
102
}
330
4B0
100
AcDbVisualStyle
  2
Realistic
 70
     8
177
     3
291
     0
 70
    58
 90
        2
176
     1
 90
        3
176
     1
 90
        0
176
     1
 90
        2
176
     1
 40
0.6
176
     1
 40
30.0
176
     1
 62
     7
420
 16777215
176
     1
 90
        0
176
     1
 90
        0
176
     1
 62
     7
176
     1
 62
   257
176
     1
 90
        1
176
     1
 90
        1
176
     1
 40
1.0
176
     1
 90
        8
176
     1
 62
   257
176
     1
 40
1.0
176
     1
 90
        1
176
     1
 90
        6
176
     1
 90
        2
176
     1
 62
     7
176
     1
 90
        3
176
     1
 90
        0
176
     1
 90
        0
176
     1
290
     0
176
     1
 90
       13
176
     1
 40
0.0
176
     1
 90
        0
176
     1
290
     0
176
     1
290
     1
176
     1
290
     1
176
     1
290
     0
176
     1
290
     0
176
     1
290
     0
176
     1
290
     0
176
     1
290
     0
176
     1
290
     0
176
     1
 90
       50
176
     1
 40
0.0
176
     1
 40
1.0
176
     1
 90
        0
176
     1
 62
    18
420
        0
176
     1
 90
       50
176
     1
 90
        3
176
     1
 62
     5
420
      255
176
     1
290
     0
176
     1
 90
       50
176
     1
 90
       50
176
     1
 90
       50
176
     1
290
     0
176
     1
 90
       50
176
     1
 62
   256
176
     0
 40
1.0
176
     0
 90
        2
176
     1
  1
strokes_ogs.tif
176
     1
290
     0
176
     1
 40
1.0
176
     1
 40
1.0
176
     1
  0
VISUALSTYLE
  5
4C5
102
{ACAD_REACTORS
330
4B0
102
}
330
4B0
100
AcDbVisualStyle
  2
Shaded
 70
    27
177
     3
291
     0
 70
    58
 90
        2
176
     1
 90
        2
176
     1
 90
        1
176
     1
 90
        2
176
     1
 40
0.6
176
     1
 40
30.0
176
     1
 62
     7
420
 16777215
176
     1
 90
        0
176
     1
 90
        4
176
     1
 62
     7
176
     1
 62
   257
176
     1
 90
        1
176
     1
 90
        1
176
     1
 40
1.0
176
     1
 90
        8
176
     1
 62
   257
176
     1
 40
1.0
176
     1
 90
        1
176
     1
 90
        6
176
     1
 90
        2
176
     1
 62
     8
420
  7895160
176
     1
 90
        3
176
     1
 90
        0
176
     1
 90
        0
176
     1
290
     0
176
     1
 90
        5
176
     1
 40
0.0
176
     1
 90
        0
176
     1
290
     0
176
     1
290
     1
176
     1
290
     1
176
     1
290
     0
176
     1
290
     0
176
     1
290
     0
176
     1
290
     0
176
     1
290
     0
176
     1
290
     0
176
     1
 90
       50
176
     1
 40
0.0
176
     1
 40
1.0
176
     1
 90
        0
176
     1
 62
    18
420
        0
176
     1
 90
       50
176
     1
 90
        3
176
     1
 62
     5
420
      255
176
     1
290
     0
176
     1
 90
       50
176
     1
 90
       50
176
     1
 90
       50
176
     1
290
     0
176
     1
 90
       50
176
     1
 62
   256
176
     0
 40
1.0
176
     0
 90
        2
176
     1
  1
strokes_ogs.tif
176
     1
290
     0
176
     1
 40
1.0
176
     1
 40
1.0
176
     1
  0
VISUALSTYLE
  5
4C4
102
{ACAD_REACTORS
330
4B0
102
}
330
4B0
100
AcDbVisualStyle
  2
Shaded with edges
 70
    26
177
     3
291
     0
 70
    58
 90
        2
176
     1
 90
        2
176
     1
 90
        1
176
     1
 90
        2
176
     1
 40
0.6
176
     1
 40
30.0
176
     1
 62
     7
420
 16777215
176
     1
 90
        1
176
     1
 90
        2
176
     1
 62
     7
176
     1
 62
   257
176
     1
 90
        2
176
     1
 90
        1
176
     1
 40
1.0
176
     1
 90
        8
176
     1
 62
   257
176
     1
 40
1.0
176
     1
 90
        1
176
     1
 90
        6
176
     1
 90
        2
176
     1
 62
     7
176
     1
 90
        3
176
     1
 90
        0
176
     1
 90
        0
176
     1
290
     0
176
     1
 90
        5
176
     1
 40
0.0
176
     1
 90
        0
176
     1
290
     0
176
     1
290
     1
176
     1
290
     1
176
     1
290
     0
176
     1
290
     0
176
     1
290
     0
176
     1
290
     0
176
     1
290
     0
176
     1
290
     0
176
     1
 90
       50
176
     1
 40
0.0
176
     1
 40
1.0
176
     1
 90
        0
176
     1
 62
    18
420
        0
176
     1
 90
       50
176
     1
 90
        3
176
     1
 62
     5
420
      255
176
     1
290
     0
176
     1
 90
       50
176
     1
 90
       50
176
     1
 90
       50
176
     1
290
     0
176
     1
 90
       50
176
     1
 62
   256
176
     0
 40
1.0
176
     0
 90
        2
176
     1
  1
strokes_ogs.tif
176
     1
290
     0
176
     1
 40
1.0
176
     1
 40
1.0
176
     1
  0
VISUALSTYLE
  5
4C1
102
{ACAD_REACTORS
330
4B0
102
}
330
4B0
100
AcDbVisualStyle
  2
Shades of Gray
 70
    23
177
     3
291
     0
 70
    58
 90
        2
176
     1
 90
        2
176
     1
 90
        3
176
     1
 90
        0
176
     1
 40
0.6
176
     1
 40
30.0
176
     1
 62
     7
420
 16777215
176
     1
 90
        2
176
     1
 90
        2
176
     1
 62
     7
176
     1
 62
     7
176
     1
 90
        1
176
     1
 90
        1
176
     1
 40
40.0
176
     1
 90
        8
176
     1
 62
     7
176
     1
 40
1.0
176
     1
 90
        1
176
     1
 90
        6
176
     1
 90
        2
176
     1
 62
     7
176
     1
 90
        3
176
     1
 90
        0
176
     1
 90
        0
176
     1
290
     0
176
     1
 90
        1
176
     1
 40
0.0
176
     1
 90
        0
176
     1
290
     0
176
     1
290
     1
176
     1
290
     1
176
     1
290
     0
176
     1
290
     0
176
     1
290
     0
176
     1
290
     0
176
     1
290
     0
176
     1
290
     0
176
     1
 90
       50
176
     1
 40
0.0
176
     1
 40
1.0
176
     1
 90
        0
176
     1
 62
    18
420
        0
176
     1
 90
       50
176
     1
 90
        3
176
     1
 62
     5
420
      255
176
     1
290
     0
176
     1
 90
       50
176
     1
 90
       50
176
     1
 90
       50
176
     1
290
     0
176
     1
 90
       50
176
     1
 62
   256
176
     0
 40
1.0
176
     0
 90
        2
176
     1
  1
strokes_ogs.tif
176
     1
290
     0
176
     1
 40
1.0
176
     1
 40
1.0
176
     1
  0
VISUALSTYLE
  5
4C2
102
{ACAD_REACTORS
330
4B0
102
}
330
4B0
100
AcDbVisualStyle
  2
Sketchy
 70
    24
177
     3
291
     0
 70
    58
 90
        1
176
     1
 90
        2
176
     1
 90
        2
176
     1
 90
        0
176
     1
 40
0.6
176
     1
 40
30.0
176
     1
 62
     7
420
 16777215
176
     1
 90
        2
176
     1
 90
        2
176
     1
 62
     7
176
     1
 62
     7
176
     1
 90
        1
176
     1
 90
        1
176
     1
 40
40.0
176
     1
 90
       11
176
     1
 62
     7
176
     1
 40
1.0
176
     1
 90
        1
176
     1
 90
        6
176
     1
 90
        2
176
     1
 62
     7
176
     1
 90
        6
176
     1
 90
        0
176
     1
 90
        0
176
     1
290
     0
176
     1
 90
        1
176
     1
 40
0.0
176
     1
 90
        0
176
     1
290
     0
176
     1
290
     1
176
     1
290
     1
176
     1
290
     0
176
     1
290
     0
176
     1
290
     0
176
     1
290
     0
176
     1
290
     0
176
     1
290
     0
176
     1
 90
       50
176
     1
 40
0.0
176
     1
 40
1.0
176
     1
 90
        0
176
     1
 62
    18
420
        0
176
     1
 90
       50
176
     1
 90
        3
176
     1
 62
     5
420
      255
176
     1
290
     0
176
     1
 90
       50
176
     1
 90
       50
176
     1
 90
       50
176
     1
290
     0
176
     1
 90
       50
176
     1
 62
   256
176
     0
 40
1.0
176
     0
 90
        2
176
     1
  1
strokes_ogs.tif
176
     1
290
     0
176
     1
 40
1.0
176
     1
 40
1.0
176
     1
  0
VISUALSTYLE
  5
4BD
102
{ACAD_REACTORS
330
4B0
102
}
330
4B0
100
AcDbVisualStyle
  2
Thicken
 70
    13
177
     3
291
     1
 70
    58
 90
        2
176
     1
 90
        2
176
     1
 90
        0
176
     1
 90
        0
176
     1
 40
0.6
176
     1
 40
30.0
176
     1
 62
     7
420
 16777215
176
     1
 90
        1
176
     1
 90
        4
176
     1
 62
     7
176
     1
 62
   257
176
     1
 90
        1
176
     1
 90
        1
176
     1
 40
1.0
176
     1
 90
       12
176
     1
 62
     7
176
     1
 40
1.0
176
     1
 90
        1
176
     1
 90
        6
176
     1
 90
        2
176
     1
 62
     7
176
     1
 90
        5
176
     1
 90
        0
176
     1
 90
        0
176
     1
290
     0
176
     1
 90
        1
176
     1
 40
0.0
176
     1
 90
        0
176
     1
290
     0
176
     1
290
     1
176
     1
290
     1
176
     1
290
     0
176
     1
290
     0
176
     1
290
     0
176
     1
290
     0
176
     1
290
     0
176
     1
290
     0
176
     1
 90
       50
176
     1
 40
0.0
176
     1
 40
1.0
176
     1
 90
        0
176
     1
 62
    18
420
        0
176
     1
 90
       50
176
     1
 90
        3
176
     1
 62
     5
420
      255
176
     1
290
     0
176
     1
 90
       50
176
     1
 90
       50
176
     1
 90
       50
176
     1
290
     0
176
     1
 90
       50
176
     1
 62
   256
176
     0
 40
1.0
176
     0
 90
        2
176
     1
  1
strokes_ogs.tif
176
     1
290
     0
176
     1
 40
1.0
176
     1
 40
1.0
176
     1
  0
VISUALSTYLE
  5
4B7
102
{ACAD_REACTORS
330
4B0
102
}
330
4B0
100
AcDbVisualStyle
  2
Wireframe
 70
     5
177
     3
291
     0
 70
    58
 90
        0
176
     1
 90
        2
176
     1
 90
        0
176
     1
 90
        0
176
     1
 40
0.6
176
     1
 40
30.0
176
     1
 62
     7
420
 16777215
176
     1
 90
        1
176
     1
 90
        4
176
     1
 62
     7
176
     1
 62
   257
176
     1
 90
        1
176
     1
 90
        1
176
     1
 40
1.0
176
     1
 90
        0
176
     1
 62
   257
176
     1
 40
1.0
176
     1
 90
        1
176
     1
 90
        6
176
     1
 90
        2
176
     1
 62
     7
176
     1
 90
        3
176
     1
 90
        0
176
     1
 90
        0
176
     1
290
     0
176
     1
 90
        1
176
     1
 40
0.0
176
     1
 90
        0
176
     1
290
     0
176
     1
290
     1
176
     1
290
     1
176
     1
290
     0
176
     1
290
     0
176
     1
290
     0
176
     1
290
     0
176
     1
290
     0
176
     1
290
     0
176
     1
 90
       50
176
     1
 40
0.0
176
     1
 40
1.0
176
     1
 90
        0
176
     1
 62
    18
420
        0
176
     1
 90
       50
176
     1
 90
        3
176
     1
 62
     5
420
      255
176
     1
290
     0
176
     1
 90
       50
176
     1
 90
       50
176
     1
 90
       50
176
     1
290
     0
176
     1
 90
       50
176
     1
 62
   256
176
     0
 40
1.0
176
     0
 90
        2
176
     1
  1
strokes_ogs.tif
176
     1
290
     0
176
     1
 40
1.0
176
     1
 40
1.0
176
     1
  0
VISUALSTYLE
  5
4C3
102
{ACAD_REACTORS
330
4B0
102
}
330
4B0
100
AcDbVisualStyle
  2
X-Ray
 70
    25
177
     3
291
     0
 70
    58
 90
        2
176
     1
 90
        2
176
     1
 90
        1
176
     1
 90
        1
176
     1
 40
0.5
176
     1
 40
30.0
176
     1
 62
     7
420
 16777215
176
     1
 90
        1
176
     1
 90
        0
176
     1
 62
     7
176
     1
 62
   257
176
     1
 90
        1
176
     1
 90
        1
176
     1
 40
1.0
176
     1
 90
        8
176
     1
 62
     7
176
     1
 40
1.0
176
     1
 90
        1
176
     1
 90
        6
176
     1
 90
        2
176
     1
 62
     7
176
     1
 90
        3
176
     1
 90
        0
176
     1
 90
        0
176
     1
290
     0
176
     1
 90
       13
176
     1
 40
0.0
176
     1
 90
        0
176
     1
290
     0
176
     1
290
     1
176
     1
290
     1
176
     1
290
     0
176
     1
290
     0
176
     1
290
     0
176
     1
290
     0
176
     1
290
     0
176
     1
290
     0
176
     1
 90
       50
176
     1
 40
0.0
176
     1
 40
1.0
176
     1
 90
        0
176
     1
 62
    18
420
        0
176
     1
 90
       50
176
     1
 90
        3
176
     1
 62
     5
420
      255
176
     1
290
     0
176
     1
 90
       50
176
     1
 90
       50
176
     1
 90
       50
176
     1
290
     0
176
     1
 90
       50
176
     1
 62
   256
176
     0
 40
1.0
176
     0
 90
        2
176
     1
  1
strokes_ogs.tif
176
     1
290
     0
176
     1
 40
1.0
176
     1
 40
1.0
176
     1
  0
DICTIONARYVAR
  5
4F5
102
{ACAD_REACTORS
330
494
102
}
330
494
100
DictionaryVariables
280
     0
  1
1:1
  0
DICTIONARYVAR
  5
4F1
102
{ACAD_REACTORS
330
494
102
}
330
494
100
DictionaryVariables
280
     0
  1
STANDARD
  0
DICTIONARYVAR
  5
4F0
102
{ACAD_REACTORS
330
494
102
}
330
494
100
DictionaryVariables
280
     0
  1
STANDARD
  0
DICTIONARYVAR
  5
4F2
102
{ACAD_REACTORS
330
494
102
}
330
494
100
DictionaryVariables
280
     0
  1
Imperial24
  0
DICTIONARYVAR
  5
4F3
102
{ACAD_REACTORS
330
494
102
}
330
494
100
DictionaryVariables
280
     0
  1
Imperial24
  0
DICTIONARYVAR
  5
495
102
{ACAD_REACTORS
330
494
102
}
330
494
100
DictionaryVariables
280
     0
  1
1
  0
DICTIONARYVAR
  5
4F7
102
{ACAD_REACTORS
330
494
102
}
330
494
100
DictionaryVariables
280
     0
  1
1
  0
DICTIONARYVAR
  5
4F8
102
{ACAD_REACTORS
330
494
102
}
330
494
100
DictionaryVariables
280
     0
  1
15
  0
DICTIONARYVAR
  5
4F6
102
{ACAD_REACTORS
330
494
102
}
330
494
100
DictionaryVariables
280
     0
  1
0
  0
DICTIONARYVAR
  5
4F4
102
{ACAD_REACTORS
330
494
102
}
330
494
100
DictionaryVariables
280
     0
  1
0
  0
DICTIONARYVAR
  5
496
102
{ACAD_REACTORS
330
494
102
}
330
494
100
DictionaryVariables
280
     0
  1

  0
DICTIONARY
  5
4A1
330
4A0
100
AcDbDictionary
280
     1
281
     1
  3
BUMPTILE
360
4A3
  3
DIFFUSETILE
360
4A2
  3
OPACITYTILE
360
4A6
  3
REFLECTIONTILE
360
4A5
  3
REFRACTIONTILE
360
4A7
  3
SPECULARTILE
360
4A4
  0
DICTIONARY
  5
499
330
498
100
AcDbDictionary
280
     1
281
     1
  3
BUMPTILE
360
49B
  3
DIFFUSETILE
360
49A
  3
OPACITYTILE
360
49E
  3
REFLECTIONTILE
360
49D
  3
REFRACTIONTILE
360
49F
  3
SPECULARTILE
360
49C
  0
DICTIONARY
  5
4A9
330
4A8
100
AcDbDictionary
280
     1
281
     1
  3
BUMPTILE
360
4AB
  3
DIFFUSETILE
360
4AA
  3
OPACITYTILE
360
4AE
  3
REFLECTIONTILE
360
4AD
  3
REFRACTIONTILE
360
4AF
  3
SPECULARTILE
360
4AC
  0
DICTIONARY
  5
4FA
330
4CA
100
AcDbDictionary
280
     1
281
     1
  3
ACAD_ROUNDTRIP_2008_TABLESTYLE_CELLSTYLEMAP
360
4FB
  0
XRECORD
  5
4A3
102
{ACAD_REACTORS
330
4A1
102
}
330
4A1
100
AcDbXrecord
280
     1
270
     1
271
     1
  0
XRECORD
  5
4A2
102
{ACAD_REACTORS
330
4A1
102
}
330
4A1
100
AcDbXrecord
280
     1
270
     1
271
     1
  0
XRECORD
  5
4A6
102
{ACAD_REACTORS
330
4A1
102
}
330
4A1
100
AcDbXrecord
280
     1
270
     1
271
     1
  0
XRECORD
  5
4A5
102
{ACAD_REACTORS
330
4A1
102
}
330
4A1
100
AcDbXrecord
280
     1
270
     1
271
     1
  0
XRECORD
  5
4A7
102
{ACAD_REACTORS
330
4A1
102
}
330
4A1
100
AcDbXrecord
280
     1
270
     1
271
     1
  0
XRECORD
  5
4A4
102
{ACAD_REACTORS
330
4A1
102
}
330
4A1
100
AcDbXrecord
280
     1
270
     1
271
     1
  0
XRECORD
  5
49B
102
{ACAD_REACTORS
330
499
102
}
330
499
100
AcDbXrecord
280
     1
270
     1
271
     1
  0
XRECORD
  5
49A
102
{ACAD_REACTORS
330
499
102
}
330
499
100
AcDbXrecord
280
     1
270
     1
271
     1
  0
XRECORD
  5
49E
102
{ACAD_REACTORS
330
499
102
}
330
499
100
AcDbXrecord
280
     1
270
     1
271
     1
  0
XRECORD
  5
49D
102
{ACAD_REACTORS
330
499
102
}
330
499
100
AcDbXrecord
280
     1
270
     1
271
     1
  0
XRECORD
  5
49F
102
{ACAD_REACTORS
330
499
102
}
330
499
100
AcDbXrecord
280
     1
270
     1
271
     1
  0
XRECORD
  5
49C
102
{ACAD_REACTORS
330
499
102
}
330
499
100
AcDbXrecord
280
     1
270
     1
271
     1
  0
XRECORD
  5
4AB
102
{ACAD_REACTORS
330
4A9
102
}
330
4A9
100
AcDbXrecord
280
     1
270
     1
271
     1
  0
XRECORD
  5
4AA
102
{ACAD_REACTORS
330
4A9
102
}
330
4A9
100
AcDbXrecord
280
     1
270
     1
271
     1
  0
XRECORD
  5
4AE
102
{ACAD_REACTORS
330
4A9
102
}
330
4A9
100
AcDbXrecord
280
     1
270
     1
271
     1
  0
XRECORD
  5
4AD
102
{ACAD_REACTORS
330
4A9
102
}
330
4A9
100
AcDbXrecord
280
     1
270
     1
271
     1
  0
XRECORD
  5
4AF
102
{ACAD_REACTORS
330
4A9
102
}
330
4A9
100
AcDbXrecord
280
     1
270
     1
271
     1
  0
XRECORD
  5
4AC
102
{ACAD_REACTORS
330
4A9
102
}
330
4A9
100
AcDbXrecord
280
     1
270
     1
271
     1
  0
CELLSTYLEMAP
  5
4FB
102
{ACAD_REACTORS
330
4FA
102
}
330
4FA
100
AcDbCellStyleMap
 90
        3
300
CELLSTYLE
  1
TABLEFORMAT_BEGIN
 90
        5
170
     1
 91
        0
 92
    32768
 62
   257
 93
        1
300
CONTENTFORMAT
  1
CONTENTFORMAT_BEGIN
 90
        0
 91
        0
 92
      512
 93
        0
300

 40
0.0
140
1.0
 94
        5
 62
     0
340
11
144
0.25
309
CONTENTFORMAT_END
171
     0
 94
        0
309
TABLEFORMAT_END
  1
CELLSTYLE_BEGIN
 90
        1
 91
        1
300
_TITLE
309
CELLSTYLE_END
300
CELLSTYLE
  1
TABLEFORMAT_BEGIN
 90
        5
170
     1
 91
        0
 92
        0
 62
   257
 93
        1
300
CONTENTFORMAT
  1
CONTENTFORMAT_BEGIN
 90
        0
 91
        0
 92
      512
 93
        0
300

 40
0.0
140
1.0
 94
        5
 62
     0
340
11
144
0.18
309
CONTENTFORMAT_END
171
     0
 94
        0
309
TABLEFORMAT_END
  1
CELLSTYLE_BEGIN
 90
        2
 91
        1
300
_HEADER
309
CELLSTYLE_END
300
CELLSTYLE
  1
TABLEFORMAT_BEGIN
 90
        5
170
     1
 91
        0
 92
        0
 62
   257
 93
        1
300
CONTENTFORMAT
  1
CONTENTFORMAT_BEGIN
 90
        0
 91
        0
 92
      512
 93
        0
300

 40
0.0
140
1.0
 94
        2
 62
     0
340
11
144
0.18
309
CONTENTFORMAT_END
171
     0
 94
        0
309
TABLEFORMAT_END
  1
CELLSTYLE_BEGIN
 90
        3
 91
        2
300
_DATA
309
CELLSTYLE_END
  0
ENDSEC
  0
EOF
