  0
SECTION
  2
HEADER
  9
$ACADVER
  1
AC1015
  9
$ACADMAINTVER
 70
    20
  9
$DWGCODEPAGE
  3
ANSI_932
  9
$INSBASE
 10
0.0
 20
0.0
 30
0.0
  9
$EXTMIN
 10
239.7876096700638
 20
185.8787926941631
 30
-0.0000000349181948
  9
$EXTMAX
 10
2364.268807447828
 20
3258.208198860064
 30
0.0000000814935746
  9
$LIMMIN
 10
0.0
 20
0.0
  9
$LIMMAX
 10
5040.0
 20
3564.0
  9
$ORTHOMODE
 70
     1
  9
$REGENMODE
 70
     1
  9
$FILLMODE
 70
     1
  9
$QTEXTMODE
 70
     0
  9
$MIRRTEXT
 70
     0
  9
$LTSCALE
 40
12.0
  9
$ATTMODE
 70
     1
  9
$TEXTSIZE
 40
0.2
  9
$TRACEWID
 40
0.05
  9
$TEXTSTYLE
  7
STANDARD
  9
$CLAYER
  8
0
  9
$CELTYPE
  6
CONTINUOUS
  9
$CECOLOR
 62
   256
  9
$CELTSCALE
 40
1.0
  9
$DISPSILH
 70
     0
  9
$DIMSCALE
 40
1.0
  9
$DIMASZ
 40
0.18
  9
$DIMEXO
 40
0.0625
  9
$DIMDLI
 40
0.38
  9
$DIMRND
 40
0.0
  9
$DIMDLE
 40
0.0
  9
$DIMEXE
 40
0.18
  9
$DIMTP
 40
0.0
  9
$DIMTM
 40
0.0
  9
$DIMTXT
 40
0.18
  9
$DIMCEN
 40
0.09
  9
$DIMTSZ
 40
0.0
  9
$DIMTOL
 70
     0
  9
$DIMLIM
 70
     0
  9
$DIMTIH
 70
     1
  9
$DIMTOH
 70
     1
  9
$DIMSE1
 70
     0
  9
$DIMSE2
 70
     0
  9
$DIMTAD
 70
     0
  9
$DIMZIN
 70
     0
  9
$DIMBLK
  1

  9
$DIMASO
 70
     1
  9
$DIMSHO
 70
     1
  9
$DIMPOST
  1

  9
$DIMAPOST
  1

  9
$DIMALT
 70
     0
  9
$DIMALTD
 70
     2
  9
$DIMALTF
 40
25.4
  9
$DIMLFAC
 40
1.0
  9
$DIMTOFL
 70
     0
  9
$DIMTVP
 40
0.0
  9
$DIMTIX
 70
     0
  9
$DIMSOXD
 70
     0
  9
$DIMSAH
 70
     0
  9
$DIMBLK1
  1

  9
$DIMBLK2
  1

  9
$DIMSTYLE
  2
Standard
  9
$DIMCLRD
 70
     0
  9
$DIMCLRE
 70
     0
  9
$DIMCLRT
 70
     0
  9
$DIMTFAC
 40
1.0
  9
$DIMGAP
 40
0.09
  9
$DIMJUST
 70
     0
  9
$DIMSD1
 70
     0
  9
$DIMSD2
 70
     0
  9
$DIMTOLJ
 70
     1
  9
$DIMTZIN
 70
     0
  9
$DIMALTZ
 70
     0
  9
$DIMALTTZ
 70
     0
  9
$DIMUPT
 70
     0
  9
$DIMDEC
 70
     4
  9
$DIMTDEC
 70
     4
  9
$DIMALTU
 70
     2
  9
$DIMALTTD
 70
     2
  9
$DIMTXSTY
  7
STANDARD
  9
$DIMAUNIT
 70
     0
  9
$DIMADEC
 70
     0
  9
$DIMALTRND
 40
0.0
  9
$DIMAZIN
 70
     0
  9
$DIMDSEP
 70
    46
  9
$DIMATFIT
 70
     3
  9
$DIMFRAC
 70
     0
  9
$DIMLDRBLK
  1

  9
$DIMLUNIT
 70
     2
  9
$DIMLWD
 70
    -2
  9
$DIMLWE
 70
    -2
  9
$DIMTMOVE
 70
     0
  9
$LUNITS
 70
     2
  9
$LUPREC
 70
     4
  9
$SKETCHINC
 40
0.1
  9
$FILLETRAD
 40
0.0
  9
$AUNITS
 70
     0
  9
$AUPREC
 70
     0
  9
$MENU
  1
.
  9
$ELEVATION
 40
0.0
  9
$PELEVATION
 40
0.0
  9
$THICKNESS
 40
0.0
  9
$LIMCHECK
 70
     0
  9
$CHAMFERA
 40
0.0
  9
$CHAMFERB
 40
0.0
  9
$CHAMFERC
 40
0.0
  9
$CHAMFERD
 40
0.0
  9
$SKPOLY
 70
     0
  9
$TDCREATE
 40
2456344.109674433
  9
$TDUCREATE
 40
2456343.734674433
  9
$TDUPDATE
 40
2456346.920055162
  9
$TDUUPDATE
 40
2456346.545055162
  9
$TDINDWG
 40
0.0065804282
  9
$TDUSRTIMER
 40
0.0065804282
  9
$USRTIMER
 70
     1
  9
$ANGBASE
 50
0.0
  9
$ANGDIR
 70
     0
  9
$PDMODE
 70
     0
  9
$PDSIZE
 40
0.0
  9
$PLINEWID
 40
0.0
  9
$SPLFRAME
 70
     0
  9
$SPLINETYPE
 70
     6
  9
$SPLINESEGS
 70
     8
  9
$HANDSEED
  5
661
  9
$SURFTAB1
 70
     6
  9
$SURFTAB2
 70
     6
  9
$SURFTYPE
 70
     6
  9
$SURFU
 70
     6
  9
$SURFV
 70
     6
  9
$UCSBASE
  2

  9
$UCSNAME
  2

  9
$UCSORG
 10
0.0
 20
0.0
 30
0.0
  9
$UCSXDIR
 10
1.0
 20
0.0
 30
0.0
  9
$UCSYDIR
 10
0.0
 20
1.0
 30
0.0
  9
$UCSORTHOREF
  2

  9
$UCSORTHOVIEW
 70
     0
  9
$UCSORGTOP
 10
0.0
 20
0.0
 30
0.0
  9
$UCSORGBOTTOM
 10
0.0
 20
0.0
 30
0.0
  9
$UCSORGLEFT
 10
0.0
 20
0.0
 30
0.0
  9
$UCSORGRIGHT
 10
0.0
 20
0.0
 30
0.0
  9
$UCSORGFRONT
 10
0.0
 20
0.0
 30
0.0
  9
$UCSORGBACK
 10
0.0
 20
0.0
 30
0.0
  9
$PUCSBASE
  2

  9
$PUCSNAME
  2

  9
$PUCSORG
 10
0.0
 20
0.0
 30
0.0
  9
$PUCSXDIR
 10
1.0
 20
0.0
 30
0.0
  9
$PUCSYDIR
 10
0.0
 20
1.0
 30
0.0
  9
$PUCSORTHOREF
  2

  9
$PUCSORTHOVIEW
 70
     0
  9
$PUCSORGTOP
 10
0.0
 20
0.0
 30
0.0
  9
$PUCSORGBOTTOM
 10
0.0
 20
0.0
 30
0.0
  9
$PUCSORGLEFT
 10
0.0
 20
0.0
 30
0.0
  9
$PUCSORGRIGHT
 10
0.0
 20
0.0
 30
0.0
  9
$PUCSORGFRONT
 10
0.0
 20
0.0
 30
0.0
  9
$PUCSORGBACK
 10
0.0
 20
0.0
 30
0.0
  9
$USERI1
 70
     0
  9
$USERI2
 70
     0
  9
$USERI3
 70
     0
  9
$USERI4
 70
     0
  9
$USERI5
 70
     0
  9
$USERR1
 40
0.0
  9
$USERR2
 40
0.0
  9
$USERR3
 40
0.0
  9
$USERR4
 40
0.0
  9
$USERR5
 40
0.0
  9
$WORLDVIEW
 70
     1
  9
$SHADEDGE
 70
     3
  9
$SHADEDIF
 70
    70
  9
$TILEMODE
 70
     1
  9
$MAXACTVP
 70
    64
  9
$PINSBASE
 10
0.0
 20
0.0
 30
0.0
  9
$PLIMCHECK
 70
     0
  9
$PEXTMIN
 10
1.000000000000000E+20
 20
1.000000000000000E+20
 30
1.000000000000000E+20
  9
$PEXTMAX
 10
-1.000000000000000E+20
 20
-1.000000000000000E+20
 30
-1.000000000000000E+20
  9
$PLIMMIN
 10
0.0
 20
0.0
  9
$PLIMMAX
 10
12.0
 20
9.0
  9
$UNITMODE
 70
     0
  9
$VISRETAIN
 70
     1
  9
$PLINEGEN
 70
     0
  9
$PSLTSCALE
 70
     1
  9
$TREEDEPTH
 70
  3020
  9
$CMLSTYLE
  2
Standard
  9
$CMLJUST
 70
     0
  9
$CMLSCALE
 40
1.0
  9
$PROXYGRAPHICS
 70
     1
  9
$MEASUREMENT
 70
     0
  9
$CELWEIGHT
370
    -1
  9
$ENDCAPS
280
     0
  9
$JOINSTYLE
280
     0
  9
$LWDISPLAY
290
     0
  9
$INSUNITS
 70
     0
  9
$HYPERLINKBASE
  1

  9
$STYLESHEET
  1

  9
$XEDIT
290
     1
  9
$CEPSNTYPE
380
     0
  9
$PSTYLEMODE
290
     1
  9
$FINGERPRINTGUID
  2
{0CBB9197-147C-4B36-9E90-6D0A1F38280C}
  9
$VERSIONGUID
  2
{7B3329B6-B014-4CBD-BAEF-2FBC972BE4EB}
  9
$EXTNAMES
290
     1
  9
$PSVPSCALE
 40
0.0
  9
$OLESTARTUP
290
     0
  0
ENDSEC
  0
SECTION
  2
CLASSES
  0
CLASS
  1
ACDBDICTIONARYWDFLT
  2
AcDbDictionaryWithDefault
  3
ObjectDBX Classes
 90
        0
280
     0
281
     0
  0
CLASS
  1
DICTIONARYVAR
  2
AcDbDictionaryVar
  3
ObjectDBX Classes
 90
        0
280
     0
281
     0
  0
CLASS
  1
ACDBPLACEHOLDER
  2
AcDbPlaceHolder
  3
ObjectDBX Classes
 90
        0
280
     0
281
     0
  0
CLASS
  1
LAYOUT
  2
AcDbLayout
  3
ObjectDBX Classes
 90
        0
280
     0
281
     0
  0
ENDSEC
  0
SECTION
  2
TABLES
  0
TABLE
  2
VPORT
  5
8
330
0
100
AcDbSymbolTable
 70
     3
  0
VPORT
  5
659
330
8
100
AcDbSymbolTableRecord
100
AcDbViewportTableRecord
  2
*Active
 70
     0
 10
0.0
 20
0.0
 11
1.0
 21
1.0
 12
2520.0
 22
1782.0
 13
0.0
 23
0.0
 14
1.0
 24
1.0
 15
0.0
 25
0.0
 16
0.0
 26
0.0
 36
1.0
 17
0.0
 27
0.0
 37
0.0
 40
3683.103004368926
 41
1.376978417266186
 42
50.0
 43
0.0
 44
0.0
 50
0.0
 51
0.0
 71
     0
 72
   100
 73
     1
 74
     1
 75
     0
 76
     0
 77
     0
 78
     0
281
     0
 65
     1
110
0.0
120
0.0
130
0.0
111
1.0
121
0.0
131
0.0
112
0.0
122
1.0
132
0.0
 79
     0
146
0.0
  0
ENDTAB
  0
TABLE
  2
LTYPE
  5
5
330
0
100
AcDbSymbolTable
 70
    35
  0
LTYPE
  5
13
330
5
100
AcDbSymbolTableRecord
100
AcDbLinetypeTableRecord
  2
ByBlock
 70
     0
  3

 72
    65
 73
     0
 40
0.0
  0
LTYPE
  5
14
330
5
100
AcDbSymbolTableRecord
100
AcDbLinetypeTableRecord
  2
ByLayer
 70
     0
  3

 72
    65
 73
     0
 40
0.0
  0
LTYPE
  5
15
330
5
100
AcDbSymbolTableRecord
100
AcDbLinetypeTableRecord
  2
CONTINUOUS
 70
     0
  3
実線
 72
    65
 73
     0
 40
0.0
  0
LTYPE
  5
24
330
5
100
AcDbSymbolTableRecord
100
AcDbLinetypeTableRecord
  2
DASHED1
 70
     0
  3
--  --  --  --  --  --  --  --  
 72
    65
 73
     2
 40
2.5
 49
1.25
 74
     0
 49
-1.25
 74
     0
  0
LTYPE
  5
25
330
5
100
AcDbSymbolTableRecord
100
AcDbLinetypeTableRecord
  2
DASHED2
 70
     0
  3
----    ----    ----    ----    
 72
    65
 73
     2
 40
5.0
 49
2.5
 74
     0
 49
-2.5
 74
     0
  0
LTYPE
  5
26
330
5
100
AcDbSymbolTableRecord
100
AcDbLinetypeTableRecord
  2
DASHED3
 70
     0
  3
------  ------  ------  ------  
 72
    65
 73
     2
 40
5.0
 49
3.75
 74
     0
 49
-1.25
 74
     0
  0
LTYPE
  5
27
330
5
100
AcDbSymbolTableRecord
100
AcDbLinetypeTableRecord
  2
CENTER1
 70
     0
  3
----- - ----- - ----- - ----- - 
 72
    65
 73
     4
 40
10.0
 49
6.25
 74
     0
 49
-1.25
 74
     0
 49
1.25
 74
     0
 49
-1.25
 74
     0
  0
LTYPE
  5
28
330
5
100
AcDbSymbolTableRecord
100
AcDbLinetypeTableRecord
  2
CENTER2
 70
     0
  3
----------  --  ----------  --  
 72
    65
 73
     4
 40
20.0
 49
12.5
 74
     0
 49
-2.5
 74
     0
 49
2.5
 74
     0
 49
-2.5
 74
     0
  0
LTYPE
  5
29
330
5
100
AcDbSymbolTableRecord
100
AcDbLinetypeTableRecord
  2
PHANTOM1
 70
     0
  3
--- - - --- - - --- - - --- - - 
 72
    65
 73
     6
 40
10.0
 49
3.25
 74
     0
 49
-1.25
 74
     0
 49
1.25
 74
     0
 49
-1.25
 74
     0
 49
1.25
 74
     0
 49
-1.25
 74
     0
  0
LTYPE
  5
2A
330
5
100
AcDbSymbolTableRecord
100
AcDbLinetypeTableRecord
  2
PHANTOM2
 70
     0
  3
--------  -  -  --------  -  -  
 72
    65
 73
     6
 40
20.0
 49
10.0
 74
     0
 49
-2.5
 74
     0
 49
1.25
 74
     0
 49
-2.5
 74
     0
 49
1.25
 74
     0
 49
-2.5
 74
     0
  0
LTYPE
  5
2B
330
5
100
AcDbSymbolTableRecord
100
AcDbLinetypeTableRecord
  2
DOT
 70
     0
  3
-   -   -   -   -   -   -   -   
 72
    65
 73
     2
 40
2.5
 49
0.625
 74
     0
 49
-1.875
 74
     0
  0
LTYPE
  5
2C
330
5
100
AcDbSymbolTableRecord
100
AcDbLinetypeTableRecord
  2
DUMMY
 70
     0
  3
ダミー
 72
    65
 73
     0
 40
0.0
  0
LTYPE
  5
2D
330
5
100
AcDbSymbolTableRecord
100
AcDbLinetypeTableRecord
  2
RAND1
 70
     0
  3
ランダム線1
 72
    65
 73
     4
 40
10.0
 49
1.0
 74
     0
 49
-2.0
 74
     0
 49
3.0
 74
     0
 49
-4.0
 74
     0
  0
LTYPE
  5
2E
330
5
100
AcDbSymbolTableRecord
100
AcDbLinetypeTableRecord
  2
RAND2
 70
     0
  3
ランダム線2
 72
    65
 73
     4
 40
14.0
 49
2.0
 74
     0
 49
-3.0
 74
     0
 49
4.0
 74
     0
 49
-5.0
 74
     0
  0
LTYPE
  5
2F
330
5
100
AcDbSymbolTableRecord
100
AcDbLinetypeTableRecord
  2
RAND3
 70
     0
  3
ランダム線3
 72
    65
 73
     4
 40
18.0
 49
3.0
 74
     0
 49
-4.0
 74
     0
 49
5.0
 74
     0
 49
-6.0
 74
     0
  0
LTYPE
  5
30
330
5
100
AcDbSymbolTableRecord
100
AcDbLinetypeTableRecord
  2
RAND4
 70
     0
  3
ランダム線4
 72
    65
 73
     4
 40
22.0
 49
4.0
 74
     0
 49
-5.0
 74
     0
 49
6.0
 74
     0
 49
-7.0
 74
     0
  0
LTYPE
  5
31
330
5
100
AcDbSymbolTableRecord
100
AcDbLinetypeTableRecord
  2
RAND5
 70
     0
  3
ランダム線5
 72
    65
 73
     4
 40
26.0
 49
5.0
 74
     0
 49
-6.0
 74
     0
 49
7.0
 74
     0
 49
-8.0
 74
     0
  0
LTYPE
  5
32
330
5
100
AcDbSymbolTableRecord
100
AcDbLinetypeTableRecord
  2
LONG1
 70
     0
  3
----------  --  ----------  --  
 72
    65
 73
     4
 40
40.0
 49
32.5
 74
     0
 49
-2.5
 74
     0
 49
2.5
 74
     0
 49
-2.5
 74
     0
  0
LTYPE
  5
33
330
5
100
AcDbSymbolTableRecord
100
AcDbLinetypeTableRecord
  2
LONG2
 70
     0
  3
--------  -  -  --------  -  -  
 72
    65
 73
     6
 40
40.0
 49
30.0
 74
     0
 49
-2.5
 74
     0
 49
1.25
 74
     0
 49
-2.5
 74
     0
 49
1.25
 74
     0
 49
-2.5
 74
     0
  0
LTYPE
  5
34
330
5
100
AcDbSymbolTableRecord
100
AcDbLinetypeTableRecord
  2
LONG3
 70
     0
  3
+++++++++++++++..+++++++++++++++
 72
    65
 73
     2
 40
40.0
 49
37.5
 74
     0
 49
-2.5
 74
     0
  0
LTYPE
  5
35
330
5
100
AcDbSymbolTableRecord
100
AcDbLinetypeTableRecord
  2
LONG4
 70
     0
  3
+++++++++++++++..+++++++++++++++
 72
    65
 73
     2
 40
80.0
 49
75.0
 74
     0
 49
-5.0
 74
     0
  0
LTYPE
  5
36
330
5
100
AcDbSymbolTableRecord
100
AcDbLinetypeTableRecord
  2
LONG5
 70
     0
  3
----------  --  ----------  --  
 72
    65
 73
     4
 40
60.0
 49
37.5
 74
     0
 49
-7.5
 74
     0
 49
7.5
 74
     0
 49
-7.5
 74
     0
  0
LTYPE
  5
37
330
5
100
AcDbSymbolTableRecord
100
AcDbLinetypeTableRecord
  2
DASHED
 70
     0
  3
-------   -------------   ------
 72
    65
 73
     2
 40
7.5
 49
6.0
 74
     0
 49
-1.5
 74
     0
  0
LTYPE
  5
38
330
5
100
AcDbSymbolTableRecord
100
AcDbLinetypeTableRecord
  2
DASHED_SPACED
 70
     0
  3
----        --------        ----
 72
    65
 73
     2
 40
12.0
 49
6.0
 74
     0
 49
-6.0
 74
     0
  0
LTYPE
  5
39
330
5
100
AcDbSymbolTableRecord
100
AcDbLinetypeTableRecord
  2
LONG_DASHED_DOTTED
 70
     0
  3
------------- --- --------------
 72
    65
 73
     4
 40
15.25
 49
12.0
 74
     0
 49
-1.5
 74
     0
 49
0.25
 74
     0
 49
-1.5
 74
     0
  0
LTYPE
  5
3A
330
5
100
AcDbSymbolTableRecord
100
AcDbLinetypeTableRecord
  2
LONG_DASHED_DOUBLE-DOTTED
 70
     0
  3
----------- --- --- ------------
 72
    65
 73
     6
 40
17.0
 49
12.0
 74
     0
 49
-1.5
 74
     0
 49
0.25
 74
     0
 49
-1.5
 74
     0
 49
0.25
 74
     0
 49
-1.5
 74
     0
  0
LTYPE
  5
3B
330
5
100
AcDbSymbolTableRecord
100
AcDbLinetypeTableRecord
  2
LONG_DASHED_TRIPLICATE-DOTTED
 70
     0
  3
--------- --- --- --- ----------
 72
    65
 73
     8
 40
18.75
 49
12.0
 74
     0
 49
-1.5
 74
     0
 49
0.25
 74
     0
 49
-1.5
 74
     0
 49
0.25
 74
     0
 49
-1.5
 74
     0
 49
0.25
 74
     0
 49
-1.5
 74
     0
  0
LTYPE
  5
3C
330
5
100
AcDbSymbolTableRecord
100
AcDbLinetypeTableRecord
  2
DOTTED
 70
     0
  3
   -       -       -       -    
 72
    65
 73
     2
 40
1.75
 49
0.25
 74
     0
 49
-1.5
 74
     0
  0
LTYPE
  5
3D
330
5
100
AcDbSymbolTableRecord
100
AcDbLinetypeTableRecord
  2
CHAIN
 70
     0
  3
-------------- -- --------------
 72
    65
 73
     4
 40
18.5
 49
12.0
 74
     0
 49
-1.5
 74
     0
 49
3.5
 74
     0
 49
-1.5
 74
     0
  0
LTYPE
  5
3E
330
5
100
AcDbSymbolTableRecord
100
AcDbLinetypeTableRecord
  2
CHAIN_DOUBLE_DASH
 70
     0
  3
------------ -- -- -------------
 72
    65
 73
     6
 40
23.5
 49
12.0
 74
     0
 49
-1.5
 74
     0
 49
3.5
 74
     0
 49
-1.5
 74
     0
 49
3.5
 74
     0
 49
-1.5
 74
     0
  0
LTYPE
  5
3F
330
5
100
AcDbSymbolTableRecord
100
AcDbLinetypeTableRecord
  2
DASHED_DOTTED
 70
     0
  3
-----------     -     ----------
 72
    65
 73
     4
 40
9.25
 49
6.0
 74
     0
 49
-1.5
 74
     0
 49
0.25
 74
     0
 49
-1.5
 74
     0
  0
LTYPE
  5
40
330
5
100
AcDbSymbolTableRecord
100
AcDbLinetypeTableRecord
  2
DOUBLE-DASHED_DOTTED
 70
     0
  3
------   -----------   -   -----
 72
    65
 73
     6
 40
16.75
 49
6.0
 74
     0
 49
-1.5
 74
     0
 49
6.0
 74
     0
 49
-1.5
 74
     0
 49
0.25
 74
     0
 49
-1.5
 74
     0
  0
LTYPE
  5
41
330
5
100
AcDbSymbolTableRecord
100
AcDbLinetypeTableRecord
  2
DASHED_DOUBLE-DOTTED
 70
     0
  3
---------    -    -    ---------
 72
    65
 73
     6
 40
11.0
 49
6.0
 74
     0
 49
-1.5
 74
     0
 49
0.25
 74
     0
 49
-1.5
 74
     0
 49
0.25
 74
     0
 49
-1.5
 74
     0
  0
LTYPE
  5
42
330
5
100
AcDbSymbolTableRecord
100
AcDbLinetypeTableRecord
  2
DOUBLE-DASHED_DOUBLE-DOTTED
 70
     0
  3
-----   ---------   -   -   ----
 72
    65
 73
     8
 40
18.5
 49
6.0
 74
     0
 49
-1.5
 74
     0
 49
6.0
 74
     0
 49
-1.5
 74
     0
 49
0.25
 74
     0
 49
-1.5
 74
     0
 49
0.25
 74
     0
 49
-1.5
 74
     0
  0
LTYPE
  5
43
330
5
100
AcDbSymbolTableRecord
100
AcDbLinetypeTableRecord
  2
DASHED_TRIPLICATE-DOTTED
 70
     0
  3
-------    -    -    -    ------
 72
    65
 73
     8
 40
12.75
 49
6.0
 74
     0
 49
-1.5
 74
     0
 49
0.25
 74
     0
 49
-1.5
 74
     0
 49
0.25
 74
     0
 49
-1.5
 74
     0
 49
0.25
 74
     0
 49
-1.5
 74
     0
  0
LTYPE
  5
44
330
5
100
AcDbSymbolTableRecord
100
AcDbLinetypeTableRecord
  2
DOUBLE-DASHED_TRIPLICATE-DOTTED
 70
     0
  3
-----  ---------  -  -  -  -----
 72
    65
 73
    10
 40
20.25
 49
6.0
 74
     0
 49
-1.5
 74
     0
 49
6.0
 74
     0
 49
-1.5
 74
     0
 49
0.25
 74
     0
 49
-1.5
 74
     0
 49
0.25
 74
     0
 49
-1.5
 74
     0
 49
0.25
 74
     0
 49
-1.5
 74
     0
  0
LTYPE
  5
45
330
5
100
AcDbSymbolTableRecord
100
AcDbLinetypeTableRecord
  2
UNDEFINED
 70
     0
  3
--------------------------------
 72
    65
 73
     0
 40
0.0
  0
ENDTAB
  0
TABLE
  2
LAYER
  5
2
330
0
100
AcDbSymbolTable
 70
     3
  0
LAYER
  5
10
330
2
100
AcDbSymbolTableRecord
100
AcDbLayerTableRecord
  2
0
 70
     0
 62
     7
  6
CONTINUOUS
370
    -3
390
F
  0
LAYER
  5
47
330
2
100
AcDbSymbolTableRecord
100
AcDbLayerTableRecord
  2
_0-0_
 70
     0
 62
     7
  6
CONTINUOUS
370
    -3
390
F
  0
LAYER
  5
48
330
2
100
AcDbSymbolTableRecord
100
AcDbLayerTableRecord
  2
ADD_LINE
 70
     0
 62
     7
  6
CONTINUOUS
370
    -3
390
F
  0
ENDTAB
  0
TABLE
  2
STYLE
  5
3
330
0
100
AcDbSymbolTable
 70
     3
  0
STYLE
  5
11
330
3
100
AcDbSymbolTableRecord
100
AcDbTextStyleTableRecord
  2
STANDARD
 70
     0
 40
0.0
 41
1.0
 50
0.0
 71
     0
 42
0.2
  3
txt
  4
bigfont.shx
  0
STYLE
  5
46
330
3
100
AcDbSymbolTableRecord
100
AcDbTextStyleTableRecord
  2
TATEGAKI
 70
     4
 40
0.0
 41
1.0
 50
0.0
 71
     0
 42
1.0
  3
txt
  4
bigfont.shx
  0
STYLE
  5
24F
330
3
100
AcDbSymbolTableRecord
100
AcDbTextStyleTableRecord
  2
MSゴシック
 70
     0
 40
0.0
 41
0.8
 50
0.0
 71
     0
 42
0.2
  3

  4

1001
ACAD
1000
MS Gothic
1071
    32817
  0
ENDTAB
  0
TABLE
  2
VIEW
  5
6
330
0
100
AcDbSymbolTable
 70
     0
  0
ENDTAB
  0
TABLE
  2
UCS
  5
7
330
0
100
AcDbSymbolTable
 70
     0
  0
ENDTAB
  0
TABLE
  2
APPID
  5
9
330
0
100
AcDbSymbolTable
 70
     1
  0
APPID
  5
12
330
9
100
AcDbSymbolTableRecord
100
AcDbRegAppTableRecord
  2
ACAD
 70
     0
  0
ENDTAB
  0
TABLE
  2
DIMSTYLE
  5
A
330
0
100
AcDbSymbolTable
 70
     1
100
AcDbDimStyleTable
 71
     0
  0
DIMSTYLE
105
242
330
A
100
AcDbSymbolTableRecord
100
AcDbDimStyleTableRecord
  2
Standard
 70
     0
340
11
  0
ENDTAB
  0
TABLE
  2
BLOCK_RECORD
  5
1
330
0
100
AcDbSymbolTable
 70
     0
  0
BLOCK_RECORD
  5
20
330
1
100
AcDbSymbolTableRecord
100
AcDbBlockTableRecord
  2
*Model_Space
340
23
  0
BLOCK_RECORD
  5
1C
330
1
100
AcDbSymbolTableRecord
100
AcDbBlockTableRecord
  2
*Paper_Space
340
1F
  0
ENDTAB
  0
ENDSEC
  0
SECTION
  2
BLOCKS
  0
BLOCK
  5
21
330
20
100
AcDbEntity
  8
0
100
AcDbBlockBegin
  2
*Model_Space
 70
     0
 10
0.0
 20
0.0
 30
0.0
  3
*Model_Space
  1

  0
ENDBLK
  5
22
330
20
100
AcDbEntity
  8
0
100
AcDbBlockEnd
  0
BLOCK
  5
1D
330
1C
100
AcDbEntity
 67
     1
  8
0
100
AcDbBlockBegin
  2
*Paper_Space
 70
     0
 10
0.0
 20
0.0
 30
0.0
  3
*Paper_Space
  1

  0
ENDBLK
  5
1E
330
1C
100
AcDbEntity
 67
     1
  8
0
100
AcDbBlockEnd
  0
ENDSEC
  0
SECTION
  2
ENTITIES
  0
TEXT
  5
4C
330
20
100
AcDbEntity
  8
_0-0_
 62
     7
100
AcDbText
 10
1503.478958664714
 20
2774.564246336125
 30
0.0
 40
48.0
  1
55
 41
0.8
  7
MSゴシック
100
AcDbText
  0
LINE
  5
4D
330
20
100
AcDbEntity
  8
_0-0_
  6
Continuous
 62
     5
100
AcDbLine
 10
2084.823899371069
 20
1172.79402212224
 30
0.0
 11
2084.823899371069
 21
812.2914968052985
 31
0.0
  0
LINE
  5
4E
330
20
100
AcDbEntity
  8
_0-0_
  6
Continuous
 62
     5
100
AcDbLine
 10
1061.540880503144
 20
1172.79402212224
 30
0.0
 11
1061.540880503144
 21
837.7940221222397
 31
0.0
  0
LINE
  5
4F
330
20
100
AcDbEntity
  8
_0-0_
  6
Continuous
 62
     5
100
AcDbLine
 10
636.5408805031448
 20
762.7940221222401
 30
0.0
 11
986.5408805031448
 21
762.7940221222401
 31
0.0
  0
LINE
  5
50
330
20
100
AcDbEntity
  8
_0-0_
  6
Continuous
 62
     4
100
AcDbLine
 10
549.5408805031452
 20
872.7940221222404
 30
0.0
 11
387.5408805031452
 21
872.7940221222404
 31
0.0
  0
LINE
  5
51
330
20
100
AcDbEntity
  8
_0-0_
  6
Continuous
 62
   136
100
AcDbLine
 10
240.0
 20
186.0
 30
0.0
 11
2364.0
 21
186.0
 31
0.0
  0
LINE
  5
52
330
20
100
AcDbEntity
  8
_0-0_
  6
Continuous
 62
   136
100
AcDbLine
 10
240.0
 20
3258.0
 30
0.0
 11
240.0
 21
186.0
 31
0.0
  0
LINE
  5
53
330
20
100
AcDbEntity
  8
_0-0_
  6
Continuous
 62
   136
100
AcDbLine
 10
2364.0
 20
3258.0
 30
0.0
 11
240.0
 21
3258.0
 31
0.0
  0
LINE
  5
54
330
20
100
AcDbEntity
  8
_0-0_
  6
Continuous
 62
   136
100
AcDbLine
 10
2364.0
 20
186.0
 30
0.0
 11
2364.0
 21
3258.0
 31
0.0
  0
LINE
  5
68
330
20
100
AcDbEntity
  8
_0-0_
  6
Continuous
 62
     5
100
AcDbLine
 10
561.540880503145
 20
2555.138364779875
 30
0.0
 11
561.540880503145
 21
2220.138364779874
 31
0.0
  0
LINE
  5
69
330
20
100
AcDbEntity
  8
_0-0_
  6
Continuous
 62
     4
100
AcDbLine
 10
399.5408805031452
 20
2555.138364779875
 30
0.0
 11
394.8821376912997
 21
2537.751699906671
 31
0.0
  0
LINE
  5
6A
330
20
100
AcDbEntity
  8
_0-0_
  6
Continuous
 62
     4
100
AcDbLine
 10
399.5408805031452
 20
2555.138364779875
 30
0.0
 11
404.1996233149904
 21
2537.751699906671
 31
0.0
  0
LINE
  5
6B
330
20
100
AcDbEntity
  8
_0-0_
  6
Continuous
 62
     4
100
AcDbLine
 10
561.540880503145
 20
2767.138364779874
 30
0.0
 11
571.5408805031452
 21
2764.458872855563
 31
0.0
  0
LINE
  5
6C
330
20
100
AcDbEntity
  8
_0-0_
  6
Continuous
 62
     4
100
AcDbLine
 10
561.540880503145
 20
2767.138364779874
 30
0.0
 11
571.5408805031452
 21
2769.817856704185
 31
0.0
  0
LINE
  5
6D
330
20
100
AcDbEntity
  8
_0-0_
  6
Continuous
 62
     4
100
AcDbLine
 10
549.5408805031451
 20
2555.138364779875
 30
0.0
 11
387.5408805031452
 21
2555.138364779875
 31
0.0
  0
LINE
  5
6E
330
20
100
AcDbEntity
  8
_0-0_
  6
Continuous
 62
     4
100
AcDbLine
 10
561.540880503145
 20
2779.138364779874
 30
0.0
 11
561.540880503145
 21
2567.138364779875
 31
0.0
  0
LINE
  5
6F
330
20
100
AcDbEntity
  8
_0-0_
  6
Continuous
 62
     4
100
AcDbLine
 10
561.540880503145
 20
2767.138364779874
 30
0.0
 11
596.540880503145
 21
2767.138364779874
 31
0.0
  0
LINE
  5
70
330
20
100
AcDbEntity
  8
_0-0_
  6
Continuous
 62
     4
100
AcDbLine
 10
596.540880503145
 20
2767.138364779874
 30
0.0
 11
586.5408805031449
 21
2764.458872855563
 31
0.0
  0
LINE
  5
71
330
20
100
AcDbEntity
  8
_0-0_
  6
Continuous
 62
     4
100
AcDbLine
 10
596.540880503145
 20
2767.138364779874
 30
0.0
 11
586.5408805031449
 21
2769.817856704185
 31
0.0
  0
LINE
  5
72
330
20
100
AcDbEntity
  8
_0-0_
  6
Continuous
 62
     4
100
AcDbLine
 10
596.540880503145
 20
2698.318737391717
 30
0.0
 11
596.540880503145
 21
2567.138364779875
 31
0.0
  0
LINE
  5
73
330
20
100
AcDbEntity
  8
_0-0_
  6
Continuous
 62
     4
100
AcDbLine
 10
601.5408805031445
 20
2698.318737391717
 30
0.0
 11
601.5408805031445
 21
2567.138364779875
 31
0.0
  0
LINE
  5
74
330
20
100
AcDbEntity
  8
_0-0_
  6
Continuous
 62
     4
100
AcDbLine
 10
601.5408805031445
 20
2698.318737391717
 30
0.0
 11
601.5408805031445
 21
2567.138364779875
 31
0.0
  0
TEXT
  5
75
330
20
100
AcDbEntity
  8
_0-0_
 62
     7
100
AcDbText
 10
588.2231690639972
 20
2702.239702473755
 30
0.0
 40
48.0
  1
5
 41
0.8
  7
MSゴシック
100
AcDbText
  0
LINE
  5
76
330
20
100
AcDbEntity
  8
_0-0_
  6
Continuous
 62
     4
100
AcDbLine
 10
661.5408805031445
 20
2779.138364779874
 30
0.0
 11
661.5408805031445
 21
2567.138364779875
 31
0.0
  0
LINE
  5
77
330
20
100
AcDbEntity
  8
_0-0_
  6
Continuous
 62
     4
100
AcDbLine
 10
661.5408805031445
 20
2767.138364779874
 30
0.0
 11
601.5408805031445
 21
2767.138364779874
 31
0.0
  0
LINE
  5
78
330
20
100
AcDbEntity
  8
_0-0_
  6
Continuous
 62
     4
100
AcDbLine
 10
661.5408805031445
 20
2767.138364779874
 30
0.0
 11
644.1542156299412
 21
2762.479621968029
 31
0.0
  0
LINE
  5
79
330
20
100
AcDbEntity
  8
_0-0_
  6
Continuous
 62
     4
100
AcDbLine
 10
661.5408805031445
 20
2767.138364779874
 30
0.0
 11
644.1542156299412
 21
2771.79710759172
 31
0.0
  0
LINE
  5
7A
330
20
100
AcDbEntity
  8
_0-0_
  6
Continuous
 62
     4
100
AcDbLine
 10
601.5408805031445
 20
2767.138364779874
 30
0.0
 11
618.9275453763478
 21
2771.79710759172
 31
0.0
  0
LINE
  5
7B
330
20
100
AcDbEntity
  8
_0-0_
  6
Continuous
 62
     4
100
AcDbLine
 10
601.5408805031445
 20
2767.138364779874
 30
0.0
 11
618.9275453763478
 21
2762.479621968029
 31
0.0
  0
LINE
  5
7C
330
20
100
AcDbEntity
  8
_0-0_
  6
Continuous
 62
     4
100
AcDbLine
 10
596.540880503145
 20
2757.052477711666
 30
0.0
 11
596.540880503145
 21
2779.138364779874
 31
0.0
  0
LINE
  5
7D
330
20
100
AcDbEntity
  8
_0-0_
  6
Continuous
 62
     4
100
AcDbLine
 10
601.5408805031445
 20
2757.052477711666
 30
0.0
 11
601.5408805031445
 21
2779.138364779874
 31
0.0
  0
TEXT
  5
7E
330
20
100
AcDbEntity
  8
_0-0_
 62
     7
100
AcDbText
 10
607.5864677254076
 20
2772.798527195828
 30
0.0
 40
48.0
  1
60
 41
0.8
  7
MSゴシック
100
AcDbText
  0
TEXT
  5
7F
330
20
100
AcDbEntity
  8
_0-0_
 62
     7
100
AcDbText
 10
547.3646373923575
 20
2773.162610938233
 30
0.0
 40
48.0
  1
35
 41
0.8
  7
MSゴシック
100
AcDbText
  0
LINE
  5
80
330
20
100
AcDbEntity
  8
_0-0_
  6
Continuous
 62
     4
100
AcDbLine
 10
961.5408805031444
 20
2779.138364779874
 30
0.0
 11
961.5408805031444
 21
2567.138364779875
 31
0.0
  0
LINE
  5
81
330
20
100
AcDbEntity
  8
_0-0_
  6
Continuous
 62
     4
100
AcDbLine
 10
1061.540880503144
 20
2779.138364779874
 30
0.0
 11
1061.540880503144
 21
2567.138364779875
 31
0.0
  0
LINE
  5
82
330
20
100
AcDbEntity
  8
_0-0_
  6
Continuous
 62
     4
100
AcDbLine
 10
961.5408805031444
 20
2767.138364779874
 30
0.0
 11
661.5408805031445
 21
2767.138364779874
 31
0.0
  0
LINE
  5
83
330
20
100
AcDbEntity
  8
_0-0_
  6
Continuous
 62
     4
100
AcDbLine
 10
961.5408805031444
 20
2767.138364779874
 30
0.0
 11
1061.540880503144
 21
2767.138364779874
 31
0.0
  0
LINE
  5
84
330
20
100
AcDbEntity
  8
_0-0_
  6
Continuous
 62
     4
100
AcDbLine
 10
1061.540880503144
 20
2767.138364779874
 30
0.0
 11
1044.154215629941
 21
2762.479621968029
 31
0.0
  0
LINE
  5
85
330
20
100
AcDbEntity
  8
_0-0_
  6
Continuous
 62
     4
100
AcDbLine
 10
1061.540880503144
 20
2767.138364779874
 30
0.0
 11
1044.154215629941
 21
2771.79710759172
 31
0.0
  0
LINE
  5
86
330
20
100
AcDbEntity
  8
_0-0_
  6
Continuous
 62
     4
100
AcDbLine
 10
961.5408805031444
 20
2767.138364779874
 30
0.0
 11
978.927545376348
 21
2771.79710759172
 31
0.0
  0
LINE
  5
87
330
20
100
AcDbEntity
  8
_0-0_
  6
Continuous
 62
     4
100
AcDbLine
 10
961.5408805031444
 20
2767.138364779874
 30
0.0
 11
978.927545376348
 21
2762.479621968029
 31
0.0
  0
LINE
  5
88
330
20
100
AcDbEntity
  8
_0-0_
  6
Continuous
 62
     4
100
AcDbLine
 10
961.5408805031444
 20
2767.138364779874
 30
0.0
 11
944.154215629941
 21
2762.479621968029
 31
0.0
  0
LINE
  5
89
330
20
100
AcDbEntity
  8
_0-0_
  6
Continuous
 62
     4
100
AcDbLine
 10
961.5408805031444
 20
2767.138364779874
 30
0.0
 11
944.154215629941
 21
2771.79710759172
 31
0.0
  0
LINE
  5
8A
330
20
100
AcDbEntity
  8
_0-0_
  6
Continuous
 62
     4
100
AcDbLine
 10
661.5408805031445
 20
2767.138364779874
 30
0.0
 11
678.9275453763479
 21
2771.79710759172
 31
0.0
  0
LINE
  5
8B
330
20
100
AcDbEntity
  8
_0-0_
  6
Continuous
 62
     4
100
AcDbLine
 10
661.5408805031445
 20
2767.138364779874
 30
0.0
 11
678.9275453763479
 21
2762.479621968029
 31
0.0
  0
TEXT
  5
8C
330
20
100
AcDbEntity
  8
_0-0_
 62
     7
100
AcDbText
 10
776.1827459356831
 20
2773.154186938808
 30
0.0
 40
48.0
  1
300
 41
0.8
  7
MSゴシック
100
AcDbText
  0
TEXT
  5
8D
330
20
100
AcDbEntity
  8
_0-0_
 62
     7
100
AcDbText
 10
975.9782925351151
 20
2772.905954308145
 30
0.0
 40
48.0
  1
100
 41
0.8
  7
MSゴシック
100
AcDbText
  0
LINE
  5
8E
330
20
100
AcDbEntity
  8
_0-0_
  6
Continuous
 62
     4
100
AcDbLine
 10
399.5408805031452
 20
2255.138364779875
 30
0.0
 11
394.8821376912997
 21
2237.751699906671
 31
0.0
  0
LINE
  5
8F
330
20
100
AcDbEntity
  8
_0-0_
  6
Continuous
 62
     4
100
AcDbLine
 10
399.5408805031452
 20
2255.138364779875
 30
0.0
 11
404.1996233149904
 21
2237.751699906671
 31
0.0
  0
LINE
  5
90
330
20
100
AcDbEntity
  8
_0-0_
  6
Continuous
 62
     4
100
AcDbLine
 10
399.5408805031452
 20
2255.138364779875
 30
0.0
 11
404.1996233149904
 21
2272.525029653078
 31
0.0
  0
LINE
  5
91
330
20
100
AcDbEntity
  8
_0-0_
  6
Continuous
 62
     4
100
AcDbLine
 10
399.5408805031452
 20
2255.138364779875
 30
0.0
 11
394.8821376912997
 21
2272.525029653078
 31
0.0
  0
LINE
  5
92
330
20
100
AcDbEntity
  8
_0-0_
  6
Continuous
 62
     4
100
AcDbLine
 10
549.5408805031451
 20
2255.138364779875
 30
0.0
 11
387.5408805031452
 21
2255.138364779875
 31
0.0
  0
LINE
  5
93
330
20
100
AcDbEntity
  8
_0-0_
  6
Continuous
 62
     4
100
AcDbLine
 10
399.5408805031452
 20
2555.138364779875
 30
0.0
 11
399.5408805031452
 21
2255.138364779875
 31
0.0
  0
TEXT
  5
94
330
20
100
AcDbEntity
  8
_0-0_
 62
     7
100
AcDbText
 10
393.7220400907477
 20
2369.432970932138
 30
0.0
 40
48.0
  1
300
 50
90.0
 41
0.8
  7
MSゴシック
100
AcDbText
  0
LINE
  5
95
330
20
100
AcDbEntity
  8
_0-0_
  6
Continuous
 62
     4
100
AcDbLine
 10
417.499473382493
 20
2185.138364779874
 30
0.0
 11
387.5408805031452
 21
2185.138364779874
 31
0.0
  0
LINE
  5
96
330
20
100
AcDbEntity
  8
_0-0_
  6
Continuous
 62
     4
100
AcDbLine
 10
549.5408805031451
 20
2185.138364779874
 30
0.0
 11
460.93579420977
 21
2185.138364779874
 31
0.0
  0
LINE
  5
97
330
20
100
AcDbEntity
  8
_0-0_
  6
Continuous
 62
     4
100
AcDbLine
 10
417.499473382493
 20
2180.138364779875
 30
0.0
 11
387.5408805031452
 21
2180.138364779875
 31
0.0
  0
LINE
  5
98
330
20
100
AcDbEntity
  8
_0-0_
  6
Continuous
 62
     4
100
AcDbLine
 10
549.5408805031451
 20
2180.138364779875
 30
0.0
 11
460.93579420977
 21
2180.138364779875
 31
0.0
  0
TEXT
  5
99
330
20
100
AcDbEntity
  8
_0-0_
 62
     7
100
AcDbText
 10
462.3552690068485
 20
2170.469504867788
 30
0.0
 40
48.0
  1
5
 50
90.0
 41
0.8
  7
MSゴシック
100
AcDbText
  0
LINE
  5
9A
330
20
100
AcDbEntity
  8
_0-0_
  6
Continuous
 62
     4
100
AcDbLine
 10
399.5408805031452
 20
2180.138364779875
 30
0.0
 11
402.2203724274565
 21
2170.138364779873
 31
0.0
  0
LINE
  5
9B
330
20
100
AcDbEntity
  8
_0-0_
  6
Continuous
 62
     4
100
AcDbLine
 10
399.5408805031452
 20
2180.138364779875
 30
0.0
 11
396.8613885788337
 21
2170.138364779873
 31
0.0
  0
LINE
  5
9C
330
20
100
AcDbEntity
  8
_0-0_
  6
Continuous
 62
     4
100
AcDbLine
 10
399.5408805031452
 20
2255.138364779875
 30
0.0
 11
399.5408805031452
 21
2185.138364779874
 31
0.0
  0
LINE
  5
9D
330
20
100
AcDbEntity
  8
_0-0_
  6
Continuous
 62
     4
100
AcDbLine
 10
399.5408805031452
 20
2185.138364779874
 30
0.0
 11
394.8821376912997
 21
2202.525029653077
 31
0.0
  0
LINE
  5
9E
330
20
100
AcDbEntity
  8
_0-0_
  6
Continuous
 62
     4
100
AcDbLine
 10
399.5408805031452
 20
2185.138364779874
 30
0.0
 11
404.1996233149904
 21
2202.525029653077
 31
0.0
  0
TEXT
  5
9F
330
20
100
AcDbEntity
  8
_0-0_
 62
     7
100
AcDbText
 10
393.5028370009975
 20
2196.624970882833
 30
0.0
 40
48.0
  1
70
 50
90.0
 41
0.8
  7
MSゴシック
100
AcDbText
  0
LINE
  5
A0
330
20
100
AcDbEntity
  8
_0-0_
  6
Continuous
 62
     4
100
AcDbLine
 10
399.5408805031452
 20
2180.138364779875
 30
0.0
 11
399.5408805031452
 21
2145.138364779875
 31
0.0
  0
LINE
  5
A1
330
20
100
AcDbEntity
  8
_0-0_
  6
Continuous
 62
     4
100
AcDbLine
 10
399.5408805031452
 20
2145.138364779875
 30
0.0
 11
396.8613885788337
 21
2155.138364779873
 31
0.0
  0
LINE
  5
A2
330
20
100
AcDbEntity
  8
_0-0_
  6
Continuous
 62
     4
100
AcDbLine
 10
399.5408805031452
 20
2145.138364779875
 30
0.0
 11
402.2203724274565
 21
2155.138364779873
 31
0.0
  0
TEXT
  5
A3
330
20
100
AcDbEntity
  8
_0-0_
 62
     7
100
AcDbText
 10
394.562282903132
 20
2132.435620043959
 30
0.0
 40
48.0
  1
35
 50
90.0
 41
0.8
  7
MSゴシック
100
AcDbText
  0
TEXT
  5
A4
330
20
100
AcDbEntity
  8
_0-0_
 62
     7
100
AcDbText
 10
788.9208539900409
 20
2591.587017369215
 30
0.0
 40
42.0
  1
Ｃ
 41
0.8
  7
MSゴシック
100
AcDbText
  0
TEXT
  5
A5
330
20
100
AcDbEntity
  8
_0-0_
 62
     7
100
AcDbText
 10
796.8955174395351
 20
2581.158611319876
 30
0.0
 40
42.0
  1
Ｌ
 41
0.8
  7
MSゴシック
100
AcDbText
  0
LINE
  5
A6
330
20
100
AcDbEntity
  8
_0-0_
  6
Continuous
 62
     4
100
AcDbLine
 10
636.5408805031448
 20
2133.138364779875
 30
0.0
 11
636.5408805031448
 21
1971.138364779875
 31
0.0
  0
LINE
  5
A7
330
20
100
AcDbEntity
  8
_0-0_
  6
Continuous
 62
     4
100
AcDbLine
 10
636.5408805031448
 20
1983.138364779874
 30
0.0
 11
653.927545376348
 21
1987.79710759172
 31
0.0
  0
LINE
  5
A8
330
20
100
AcDbEntity
  8
_0-0_
  6
Continuous
 62
     4
100
AcDbLine
 10
636.5408805031448
 20
1983.138364779874
 30
0.0
 11
653.927545376348
 21
1978.479621968029
 31
0.0
  0
LINE
  5
A9
330
20
100
AcDbEntity
  8
_0-0_
  6
Continuous
 62
     4
100
AcDbLine
 10
986.5408805031446
 20
1983.138364779874
 30
0.0
 11
969.1542156299412
 21
1978.479621968029
 31
0.0
  0
LINE
  5
AA
330
20
100
AcDbEntity
  8
_0-0_
  6
Continuous
 62
     4
100
AcDbLine
 10
986.5408805031446
 20
1983.138364779874
 30
0.0
 11
969.1542156299412
 21
1987.79710759172
 31
0.0
  0
LINE
  5
AB
330
20
100
AcDbEntity
  8
_0-0_
  6
Continuous
 62
     4
100
AcDbLine
 10
986.5408805031446
 20
2133.138364779875
 30
0.0
 11
986.5408805031446
 21
1971.138364779875
 31
0.0
  0
LINE
  5
AC
330
20
100
AcDbEntity
  8
_0-0_
  6
Continuous
 62
     4
100
AcDbLine
 10
986.5408805031446
 20
1983.138364779874
 30
0.0
 11
636.5408805031448
 21
1983.138364779874
 31
0.0
  0
LINE
  5
AD
330
20
100
AcDbEntity
  8
_0-0_
  6
Continuous
 62
     5
100
AcDbLine
 10
561.540880503145
 20
2555.138364779875
 30
0.0
 11
661.5408805031445
 21
2555.138364779875
 31
0.0
  0
LINE
  5
AE
330
20
100
AcDbEntity
  8
_0-0_
  6
Continuous
 62
     4
100
AcDbLine
 10
597.5361074851996
 20
2145.138364779875
 30
0.0
 11
576.5534591194968
 21
2145.138364779875
 31
0.0
  0
LINE
  5
AF
330
20
100
AcDbEntity
  8
_0-0_
  6
Continuous
 62
     4
100
AcDbLine
 10
576.5534591194968
 20
2145.138364779875
 30
0.0
 11
387.5408805031452
 21
2145.138364779875
 31
0.0
  0
LINE
  5
B0
330
20
100
AcDbEntity
  8
_0-0_
  6
Continuous
 62
     5
100
AcDbLine
 10
636.5408805031448
 20
2145.138364779875
 30
0.0
 11
986.5408805031446
 21
2145.138364779875
 31
0.0
  0
LINE
  5
B1
330
20
100
AcDbEntity
  8
_0-0_
  6
Continuous
 62
     5
100
AcDbLine
 10
961.5408805031444
 20
2555.138364779875
 30
0.0
 11
1061.540880503144
 21
2555.138364779875
 31
0.0
  0
LINE
  5
B2
330
20
100
AcDbEntity
  8
_0-0_
  6
Continuous
 62
     5
100
AcDbLine
 10
678.4292772048907
 20
2301.812414253685
 30
0.0
 11
661.5408805031445
 21
2555.138364779875
 31
0.0
  0
ARC
  5
B3
330
20
100
AcDbEntity
  8
_0-0_
  6
Continuous
 62
     5
100
AcDbCircle
 10
728.3185350977212
 20
2305.138364779873
 30
0.0
 40
50.0
100
AcDbArc
 50
183.8140748342904
 51
270.0
  0
LINE
  5
B4
330
20
100
AcDbEntity
  8
_0-0_
  6
Continuous
 62
     5
100
AcDbLine
 10
894.7632259085684
 20
2255.138364779875
 30
0.0
 11
728.3185350977212
 21
2255.138364779875
 31
0.0
  0
LINE
  5
B5
330
20
100
AcDbEntity
  8
_0-0_
  6
Continuous
 62
     5
100
AcDbLine
 10
944.6524838013987
 20
2301.812414253685
 30
0.0
 11
961.5408805031444
 21
2555.138364779875
 31
0.0
  0
ARC
  5
B6
330
20
100
AcDbEntity
  8
_0-0_
  6
Continuous
 62
     5
100
AcDbCircle
 10
894.7632259085684
 20
2305.138364779873
 30
0.0
 40
50.0
100
AcDbArc
 50
270.0
 51
356.1859251657097
  0
LINE
  5
B7
330
20
100
AcDbEntity
  8
_0-0_
  6
Continuous
 62
     5
100
AcDbLine
 10
636.5408805031448
 20
2145.138364779875
 30
0.0
 11
561.540880503145
 21
2220.138364779874
 31
0.0
  0
LINE
  5
B8
330
20
100
AcDbEntity
  8
_0-0_
  6
Continuous
 62
     5
100
AcDbLine
 10
986.5408805031446
 20
2145.138364779875
 30
0.0
 11
1061.540880503144
 21
2220.138364779874
 31
0.0
  0
LINE
  5
B9
330
20
100
AcDbEntity
  8
_0-0_
  6
Continuous
 62
     5
100
AcDbLine
 10
1061.540880503144
 20
2555.138364779875
 30
0.0
 11
1061.540880503144
 21
2220.138364779874
 31
0.0
  0
LINE
  5
BA
330
20
100
AcDbEntity
  8
_0-0_
  6
Continuous
 62
     6
100
AcDbLine
 10
596.540880503145
 20
2555.138364779875
 30
0.0
 11
596.540880503145
 21
2234.635839462932
 31
0.0
  0
LINE
  5
BB
330
20
100
AcDbEntity
  8
_0-0_
  6
Continuous
 62
     6
100
AcDbLine
 10
651.038355186203
 20
2180.138364779875
 30
0.0
 11
596.540880503145
 21
2234.635839462932
 31
0.0
  0
LINE
  5
BC
330
20
100
AcDbEntity
  8
_0-0_
  6
Continuous
 62
     6
100
AcDbLine
 10
601.5408805031445
 20
2555.138364779875
 30
0.0
 11
601.5408805031445
 21
2236.706907274798
 31
0.0
  0
LINE
  5
BD
330
20
100
AcDbEntity
  8
_0-0_
  6
Continuous
 62
     6
100
AcDbLine
 10
653.1094229980684
 20
2185.138364779874
 30
0.0
 11
601.5408805031445
 21
2236.706907274798
 31
0.0
  0
LINE
  5
BE
330
20
100
AcDbEntity
  8
_0-0_
  6
Continuous
 62
     6
100
AcDbLine
 10
651.038355186203
 20
2180.138364779875
 30
0.0
 11
811.5408805031449
 21
2180.138364779875
 31
0.0
  0
LINE
  5
BF
330
20
100
AcDbEntity
  8
_0-0_
  6
Continuous
 62
     6
100
AcDbLine
 10
653.1094229980684
 20
2185.138364779874
 30
0.0
 11
811.5408805031449
 21
2185.138364779874
 31
0.0
  0
LINE
  5
C0
330
20
100
AcDbEntity
  8
_0-0_
  6
Continuous
 62
     4
100
AcDbLine
 10
681.5408805031447
 20
2396.066453067521
 30
0.0
 11
941.540880503145
 21
2396.066453067521
 31
0.0
  0
LINE
  5
C1
330
20
100
AcDbEntity
  8
_0-0_
  6
Continuous
 62
     4
100
AcDbLine
 10
941.540880503145
 20
2396.066453067521
 30
0.0
 11
924.1542156299415
 21
2391.407710255676
 31
0.0
  0
LINE
  5
C2
330
20
100
AcDbEntity
  8
_0-0_
  6
Continuous
 62
     4
100
AcDbLine
 10
941.540880503145
 20
2396.066453067521
 30
0.0
 11
924.1542156299415
 21
2400.725195879366
 31
0.0
  0
LINE
  5
C3
330
20
100
AcDbEntity
  8
_0-0_
  6
Continuous
 62
     4
100
AcDbLine
 10
681.5408805031447
 20
2396.066453067521
 30
0.0
 11
698.9275453763481
 21
2400.725195879366
 31
0.0
  0
LINE
  5
C4
330
20
100
AcDbEntity
  8
_0-0_
  6
Continuous
 62
     4
100
AcDbLine
 10
681.5408805031447
 20
2396.066453067521
 30
0.0
 11
698.9275453763481
 21
2391.407710255676
 31
0.0
  0
LINE
  5
C5
330
20
100
AcDbEntity
  8
_0-0_
  6
Continuous
 62
     4
100
AcDbLine
 10
681.5408805031447
 20
2408.066453067521
 30
0.0
 11
681.5408805031447
 21
2255.138364779875
 31
0.0
  0
LINE
  5
C6
330
20
100
AcDbEntity
  8
_0-0_
  6
Continuous
 62
     4
100
AcDbLine
 10
941.540880503145
 20
2255.138364779875
 30
0.0
 11
681.5408805031447
 21
2255.138364779875
 31
0.0
  0
LINE
  5
C7
330
20
100
AcDbEntity
  8
_0-0_
  6
Continuous
 62
     4
100
AcDbLine
 10
941.540880503145
 20
2408.066453067521
 30
0.0
 11
941.540880503145
 21
2255.138364779875
 31
0.0
  0
LINE
  5
CA
330
20
100
AcDbEntity
  8
_0-0_
  6
Continuous
 62
     4
100
AcDbLine
 10
694.61109907186
 20
2268.208583348589
 30
0.0
 11
723.5552896712415
 21
2297.152773947971
 31
0.0
  0
LINE
  5
CB
330
20
100
AcDbEntity
  8
_0-0_
  6
Continuous
 62
     4
100
AcDbLine
 10
694.61109907186
 20
2268.208583348589
 30
0.0
 11
710.1995563399798
 21
2277.208583348589
 31
0.0
  0
LINE
  5
CC
330
20
100
AcDbEntity
  8
_0-0_
  6
Continuous
 62
     4
100
AcDbLine
 10
694.61109907186
 20
2268.208583348589
 30
0.0
 11
703.61109907186
 21
2283.797040616709
 31
0.0
  0
TEXT
  5
CD
330
20
100
AcDbEntity
  8
_0-0_
 62
     7
100
AcDbText
 10
774.8362330149858
 20
2402.166649196366
 30
0.0
 40
48.0
  1
260
 41
0.8
  7
MSゴシック
100
AcDbText
  0
LINE
  5
CE
330
20
100
AcDbEntity
  8
_0-0_
  6
CENTER2
 62
     4
100
AcDbLine
 10
811.5408805031449
 20
2555.138364779875
 30
0.0
 11
811.5408805031449
 21
2456.691617332297
 31
0.0
  0
LINE
  5
CF
330
20
100
AcDbEntity
  8
_0-0_
  6
CENTER2
 62
     4
100
AcDbLine
 10
811.5408805031449
 20
2396.066453067521
 30
0.0
 11
811.5408805031449
 21
2117.276729559749
 31
0.0
  0
TEXT
  5
D0
330
20
100
AcDbEntity
  8
_0-0_
 62
     7
100
AcDbText
 10
775.540880503145
 20
1989.138364779875
 30
0.0
 40
48.0
  1
350
 41
0.8
  7
MSゴシック
100
AcDbText
  0
LINE
  5
D1
330
20
100
AcDbEntity
  8
_0-0_
  6
Continuous
 62
     1
100
AcDbLine
 10
966.6456773134376
 20
2167.459719038673
 30
0.0
 11
966.6456773134376
 21
2163.957016051808
 31
0.0
  0
LINE
  5
D2
330
20
100
AcDbEntity
  8
_0-0_
  6
Continuous
 62
     1
100
AcDbLine
 10
966.0486964257891
 20
2167.908574612958
 30
0.0
 11
966.0486964257891
 21
2163.508160477524
 31
0.0
  0
LINE
  5
D3
330
20
100
AcDbEntity
  8
_0-0_
  6
Continuous
 62
     1
100
AcDbLine
 10
965.397444548356
 20
2168.150276603697
 30
0.0
 11
965.397444548356
 21
2163.266458486785
 31
0.0
  0
LINE
  5
D4
330
20
100
AcDbEntity
  8
_0-0_
  6
Continuous
 62
     1
100
AcDbLine
 10
964.9090056402799
 20
2168.207918916719
 30
0.0
 11
964.9090056402799
 21
2163.208816173764
 31
0.0
  0
LINE
  5
D5
330
20
100
AcDbEntity
  8
_0-0_
  6
Continuous
 62
     1
100
AcDbLine
 10
964.4205667322044
 20
2168.169149765125
 30
0.0
 11
964.4205667322044
 21
2163.247585325357
 31
0.0
  0
LINE
  5
D6
330
20
100
AcDbEntity
  8
_0-0_
  6
Continuous
 62
     1
100
AcDbLine
 10
963.7421793598777
 20
2167.943718653938
 30
0.0
 11
963.7421793598777
 21
2163.473016436544
 31
0.0
  0
LINE
  5
D7
330
20
100
AcDbEntity
  8
_0-0_
  6
Continuous
 62
     1
100
AcDbLine
 10
963.2266049569089
 20
2167.599568483332
 30
0.0
 11
963.2266049569089
 21
2163.817166607151
 31
0.0
  0
LINE
  5
D8
330
20
100
AcDbEntity
  8
_0-0_
  6
Continuous
 62
     1
100
AcDbLine
 10
962.8195725335125
 20
2167.15056593946
 30
0.0
 11
962.8195725335125
 21
2164.266169151022
 31
0.0
  0
CIRCLE
  5
D9
330
20
100
AcDbEntity
  8
_0-0_
  6
Continuous
 62
     1
100
AcDbCircle
 10
964.861645938587
 20
2165.708367545241
 30
0.0
 40
2.5
  0
LINE
  5
DA
330
20
100
AcDbEntity
  8
_0-0_
  6
Continuous
 62
     1
100
AcDbLine
 10
811.5408805031449
 20
2167.638364779875
 30
0.0
 11
811.5408805031449
 21
2162.638364779874
 31
0.0
  0
ARC
  5
DB
330
20
100
AcDbEntity
  8
_0-0_
  6
Continuous
 62
     1
100
AcDbCircle
 10
811.5408805031449
 20
2165.138364779875
 30
0.0
 40
2.5
100
AcDbArc
 50
270.0
 51
90.0
  0
LINE
  5
DC
330
20
100
AcDbEntity
  8
_0-0_
  6
Continuous
 62
     1
100
AcDbLine
 10
811.9477359406351
 20
2167.605036353672
 30
0.0
 11
811.9477359406351
 21
2162.671693206076
 31
0.0
  0
LINE
  5
DD
330
20
100
AcDbEntity
  8
_0-0_
  6
Continuous
 62
     1
100
AcDbLine
 10
812.4289661162976
 20
2167.475308070523
 30
0.0
 11
812.4289661162976
 21
2162.801421489225
 31
0.0
  0
LINE
  5
DE
330
20
100
AcDbEntity
  8
_0-0_
  6
Continuous
 62
     1
100
AcDbLine
 10
813.0438713407546
 20
2167.136118153557
 30
0.0
 11
813.0438713407546
 21
2163.140611406191
 31
0.0
  0
LINE
  5
DF
330
20
100
AcDbEntity
  8
_0-0_
  6
Continuous
 62
     1
100
AcDbLine
 10
813.5518365261757
 20
2166.623644508893
 30
0.0
 11
813.5518365261757
 21
2163.653085050855
 31
0.0
  0
LINE
  5
E0
330
20
100
AcDbEntity
  8
_0-0_
  6
DASHED3
 62
     1
100
AcDbLine
 10
811.5408805031449
 20
2162.638364779874
 30
0.0
 11
978.5850363804291
 21
2162.638364779874
 31
0.0
  0
LINE
  5
E1
330
20
100
AcDbEntity
  8
_0-0_
  6
DASHED3
 62
     1
100
AcDbLine
 10
978.5850363804291
 20
2162.638364779874
 30
0.0
 11
1043.540880503144
 21
2227.594208902589
 31
0.0
  0
LINE
  5
E2
330
20
100
AcDbEntity
  8
_0-0_
  6
Continuous
 62
     1
100
AcDbLine
 10
1042.53603739874
 20
2243.716109936285
 30
0.0
 11
1042.53603739874
 21
2240.21340694942
 31
0.0
  0
LINE
  5
E3
330
20
100
AcDbEntity
  8
_0-0_
  6
Continuous
 62
     1
100
AcDbLine
 10
1041.939056511093
 20
2244.164965510569
 30
0.0
 11
1041.939056511093
 21
2239.764551375135
 31
0.0
  0
LINE
  5
E4
330
20
100
AcDbEntity
  8
_0-0_
  6
Continuous
 62
     1
100
AcDbLine
 10
1041.287804633658
 20
2244.406667501309
 30
0.0
 11
1041.287804633658
 21
2239.522849384396
 31
0.0
  0
LINE
  5
E5
330
20
100
AcDbEntity
  8
_0-0_
  6
Continuous
 62
     1
100
AcDbLine
 10
1040.799365725582
 20
2244.46430981433
 30
0.0
 11
1040.799365725582
 21
2239.465207071375
 31
0.0
  0
LINE
  5
E6
330
20
100
AcDbEntity
  8
_0-0_
  6
Continuous
 62
     1
100
AcDbLine
 10
1040.310926817508
 20
2244.425540662736
 30
0.0
 11
1040.310926817508
 21
2239.503976222969
 31
0.0
  0
LINE
  5
E7
330
20
100
AcDbEntity
  8
_0-0_
  6
Continuous
 62
     1
100
AcDbLine
 10
1039.63253944518
 20
2244.200109551549
 30
0.0
 11
1039.63253944518
 21
2239.729407334156
 31
0.0
  0
LINE
  5
E8
330
20
100
AcDbEntity
  8
_0-0_
  6
Continuous
 62
     1
100
AcDbLine
 10
1039.116965042212
 20
2243.855959380943
 30
0.0
 11
1039.116965042212
 21
2240.073557504763
 31
0.0
  0
LINE
  5
E9
330
20
100
AcDbEntity
  8
_0-0_
  6
Continuous
 62
     1
100
AcDbLine
 10
1038.709932618816
 20
2243.406956837072
 30
0.0
 11
1038.709932618816
 21
2240.522560048633
 31
0.0
  0
CIRCLE
  5
EA
330
20
100
AcDbEntity
  8
_0-0_
  6
Continuous
 62
     1
100
AcDbCircle
 10
1040.75200602389
 20
2241.964758442853
 30
0.0
 40
2.5
  0
LINE
  5
EB
330
20
100
AcDbEntity
  8
_0-0_
  6
DASHED3
 62
     1
100
AcDbLine
 10
1043.540880503144
 20
2542.138364779873
 30
0.0
 11
1043.540880503144
 21
2227.594208902589
 31
0.0
  0
LINE
  5
EC
330
20
100
AcDbEntity
  8
_0-0_
  6
Continuous
 62
     1
100
AcDbLine
 10
1042.552848423899
 20
2541.422365162397
 30
0.0
 11
1042.552848423899
 21
2537.919662175533
 31
0.0
  0
LINE
  5
ED
330
20
100
AcDbEntity
  8
_0-0_
  6
Continuous
 62
     1
100
AcDbLine
 10
1041.955867536251
 20
2541.871220736683
 30
0.0
 11
1041.955867536251
 21
2537.470806601248
 31
0.0
  0
LINE
  5
EE
330
20
100
AcDbEntity
  8
_0-0_
  6
Continuous
 62
     1
100
AcDbLine
 10
1041.304615658818
 20
2542.112922727421
 30
0.0
 11
1041.304615658818
 21
2537.229104610509
 31
0.0
  0
LINE
  5
EF
330
20
100
AcDbEntity
  8
_0-0_
  6
Continuous
 62
     1
100
AcDbLine
 10
1040.816176750742
 20
2542.170565040443
 30
0.0
 11
1040.816176750742
 21
2537.171462297488
 31
0.0
  0
LINE
  5
F0
330
20
100
AcDbEntity
  8
_0-0_
  6
Continuous
 62
     1
100
AcDbLine
 10
1040.327737842666
 20
2542.131795888849
 30
0.0
 11
1040.327737842666
 21
2537.210231449082
 31
0.0
  0
LINE
  5
F1
330
20
100
AcDbEntity
  8
_0-0_
  6
Continuous
 62
     1
100
AcDbLine
 10
1039.64935047034
 20
2541.906364777662
 30
0.0
 11
1039.64935047034
 21
2537.435662560268
 31
0.0
  0
LINE
  5
F2
330
20
100
AcDbEntity
  8
_0-0_
  6
Continuous
 62
     1
100
AcDbLine
 10
1039.133776067371
 20
2541.562214607056
 30
0.0
 11
1039.133776067371
 21
2537.779812730875
 31
0.0
  0
LINE
  5
F3
330
20
100
AcDbEntity
  8
_0-0_
  6
Continuous
 62
     1
100
AcDbLine
 10
1038.726743643975
 20
2541.113212063185
 30
0.0
 11
1038.726743643975
 21
2538.228815274746
 31
0.0
  0
CIRCLE
  5
F4
330
20
100
AcDbEntity
  8
_0-0_
  6
Continuous
 62
     1
100
AcDbCircle
 10
1040.768817049049
 20
2539.671013668965
 30
0.0
 40
2.5
  0
LINE
  5
F5
330
20
100
AcDbEntity
  8
_0-0_
  6
Continuous
 62
     1
100
AcDbLine
 10
1042.759981661462
 20
2391.43697542482
 30
0.0
 11
1042.759981661462
 21
2387.934272437955
 31
0.0
  0
LINE
  5
F6
330
20
100
AcDbEntity
  8
_0-0_
  6
Continuous
 62
     1
100
AcDbLine
 10
1042.163000773814
 20
2391.885830999104
 30
0.0
 11
1042.163000773814
 21
2387.48541686367
 31
0.0
  0
LINE
  5
F7
330
20
100
AcDbEntity
  8
_0-0_
  6
Continuous
 62
     1
100
AcDbLine
 10
1041.51174889638
 20
2392.127532989844
 30
0.0
 11
1041.51174889638
 21
2387.243714872931
 31
0.0
  0
LINE
  5
F8
330
20
100
AcDbEntity
  8
_0-0_
  6
Continuous
 62
     1
100
AcDbLine
 10
1041.023309988304
 20
2392.185175302865
 30
0.0
 11
1041.023309988304
 21
2387.186072559909
 31
0.0
  0
LINE
  5
F9
330
20
100
AcDbEntity
  8
_0-0_
  6
Continuous
 62
     1
100
AcDbLine
 10
1040.534871080229
 20
2392.146406151271
 30
0.0
 11
1040.534871080229
 21
2387.224841711504
 31
0.0
  0
LINE
  5
FA
330
20
100
AcDbEntity
  8
_0-0_
  6
Continuous
 62
     1
100
AcDbLine
 10
1039.856483707902
 20
2391.920975040084
 30
0.0
 11
1039.856483707902
 21
2387.45027282269
 31
0.0
  0
LINE
  5
FB
330
20
100
AcDbEntity
  8
_0-0_
  6
Continuous
 62
     1
100
AcDbLine
 10
1039.340909304934
 20
2391.576824869478
 30
0.0
 11
1039.340909304934
 21
2387.794422993298
 31
0.0
  0
LINE
  5
FC
330
20
100
AcDbEntity
  8
_0-0_
  6
Continuous
 62
     1
100
AcDbLine
 10
1038.933876881538
 20
2391.127822325606
 30
0.0
 11
1038.933876881538
 21
2388.243425537168
 31
0.0
  0
CIRCLE
  5
FD
330
20
100
AcDbEntity
  8
_0-0_
  6
Continuous
 62
     1
100
AcDbCircle
 10
1040.975950286612
 20
2389.685623931387
 30
0.0
 40
2.5
  0
LINE
  5
FE
330
20
100
AcDbEntity
  8
_0-0_
  6
Continuous
 62
     1
100
AcDbLine
 10
811.5408805031449
 20
2212.453977451839
 30
0.0
 11
811.5408805031449
 21
2207.453977451839
 31
0.0
  0
ARC
  5
FF
330
20
100
AcDbEntity
  8
_0-0_
  6
Continuous
 62
     1
100
AcDbCircle
 10
811.5408805031449
 20
2209.953977451839
 30
0.0
 40
2.5
100
AcDbArc
 50
270.0
 51
90.0
  0
LINE
  5
100
330
20
100
AcDbEntity
  8
_0-0_
  6
Continuous
 62
     1
100
AcDbLine
 10
811.9477359406351
 20
2212.420649025637
 30
0.0
 11
811.9477359406351
 21
2207.487305878041
 31
0.0
  0
LINE
  5
101
330
20
100
AcDbEntity
  8
_0-0_
  6
Continuous
 62
     1
100
AcDbLine
 10
812.4289661162976
 20
2212.290920742488
 30
0.0
 11
812.4289661162976
 21
2207.617034161189
 31
0.0
  0
LINE
  5
102
330
20
100
AcDbEntity
  8
_0-0_
  6
Continuous
 62
     1
100
AcDbLine
 10
813.0438713407546
 20
2211.951730825522
 30
0.0
 11
813.0438713407546
 21
2207.956224078156
 31
0.0
  0
LINE
  5
103
330
20
100
AcDbEntity
  8
_0-0_
  6
Continuous
 62
     1
100
AcDbLine
 10
813.5518365261757
 20
2211.439257180858
 30
0.0
 11
813.5518365261757
 21
2208.468697722819
 31
0.0
  0
LINE
  5
104
330
20
100
AcDbEntity
  8
_0-0_
  6
DASHED3
 62
     1
100
AcDbLine
 10
811.5408805031449
 20
2207.453977451839
 30
0.0
 11
959.7610387456045
 21
2207.453977451839
 31
0.0
  0
LINE
  5
105
330
20
100
AcDbEntity
  8
_0-0_
  6
DASHED3
 62
     1
100
AcDbLine
 10
959.7610387456045
 20
2207.453977451839
 30
0.0
 11
989.7724417703408
 21
2237.465380476575
 31
0.0
  0
LINE
  5
106
330
20
100
AcDbEntity
  8
_0-0_
  6
DASHED3
 62
     1
100
AcDbLine
 10
989.7724417703408
 20
2237.465380476575
 30
0.0
 11
1003.503798088623
 21
2541.422365162397
 31
0.0
  0
LINE
  5
107
330
20
100
AcDbEntity
  8
_0-0_
  6
Continuous
 62
     1
100
AcDbLine
 10
1002.515766009378
 20
2540.706365544922
 30
0.0
 11
1002.515766009378
 21
2537.203662558057
 31
0.0
  0
LINE
  5
108
330
20
100
AcDbEntity
  8
_0-0_
  6
Continuous
 62
     1
100
AcDbLine
 10
1001.91878512173
 20
2541.155221119206
 30
0.0
 11
1001.91878512173
 21
2536.754806983772
 31
0.0
  0
LINE
  5
109
330
20
100
AcDbEntity
  8
_0-0_
  6
Continuous
 62
     1
100
AcDbLine
 10
1001.267533244296
 20
2541.396923109945
 30
0.0
 11
1001.267533244296
 21
2536.513104993034
 31
0.0
  0
LINE
  5
10A
330
20
100
AcDbEntity
  8
_0-0_
  6
Continuous
 62
     1
100
AcDbLine
 10
1000.77909433622
 20
2541.454565422967
 30
0.0
 11
1000.77909433622
 21
2536.455462680012
 31
0.0
  0
LINE
  5
10B
330
20
100
AcDbEntity
  8
_0-0_
  6
Continuous
 62
     1
100
AcDbLine
 10
1000.290655428145
 20
2541.415796271373
 30
0.0
 11
1000.290655428145
 21
2536.494231831605
 31
0.0
  0
LINE
  5
10C
330
20
100
AcDbEntity
  8
_0-0_
  6
Continuous
 62
     1
100
AcDbLine
 10
999.6122680558178
 20
2541.190365160186
 30
0.0
 11
999.6122680558178
 21
2536.719662942792
 31
0.0
  0
LINE
  5
10D
330
20
100
AcDbEntity
  8
_0-0_
  6
Continuous
 62
     1
100
AcDbLine
 10
999.0966936528495
 20
2540.84621498958
 30
0.0
 11
999.0966936528495
 21
2537.0638131134
 31
0.0
  0
LINE
  5
10E
330
20
100
AcDbEntity
  8
_0-0_
  6
Continuous
 62
     1
100
AcDbLine
 10
998.6896612294531
 20
2540.397212445709
 30
0.0
 11
998.6896612294531
 21
2537.51281565727
 31
0.0
  0
CIRCLE
  5
10F
330
20
100
AcDbEntity
  8
_0-0_
  6
Continuous
 62
     1
100
AcDbCircle
 10
1000.731734634527
 20
2538.955014051489
 30
0.0
 40
2.5
  0
LINE
  5
110
330
20
100
AcDbEntity
  8
_0-0_
  6
Continuous
 62
     1
100
AcDbLine
 10
995.2572413911914
 20
2398.692593753177
 30
0.0
 11
995.2572413911914
 21
2395.189890766312
 31
0.0
  0
LINE
  5
111
330
20
100
AcDbEntity
  8
_0-0_
  6
Continuous
 62
     1
100
AcDbLine
 10
994.6602605035437
 20
2399.141449327461
 30
0.0
 11
994.6602605035437
 21
2394.741035192026
 31
0.0
  0
LINE
  5
112
330
20
100
AcDbEntity
  8
_0-0_
  6
Continuous
 62
     1
100
AcDbLine
 10
994.0090086261097
 20
2399.3831513182
 30
0.0
 11
994.0090086261097
 21
2394.499333201288
 31
0.0
  0
LINE
  5
113
330
20
100
AcDbEntity
  8
_0-0_
  6
Continuous
 62
     1
100
AcDbLine
 10
993.5205697180336
 20
2399.440793631221
 30
0.0
 11
993.5205697180336
 21
2394.441690888267
 31
0.0
  0
LINE
  5
114
330
20
100
AcDbEntity
  8
_0-0_
  6
Continuous
 62
     1
100
AcDbLine
 10
993.0321308099589
 20
2399.402024479628
 30
0.0
 11
993.0321308099589
 21
2394.48046003986
 31
0.0
  0
LINE
  5
115
330
20
100
AcDbEntity
  8
_0-0_
  6
Continuous
 62
     1
100
AcDbLine
 10
992.3537434376314
 20
2399.176593368441
 30
0.0
 11
992.3537434376314
 21
2394.705891151047
 31
0.0
  0
LINE
  5
116
330
20
100
AcDbEntity
  8
_0-0_
  6
Continuous
 62
     1
100
AcDbLine
 10
991.8381690346633
 20
2398.832443197834
 30
0.0
 11
991.8381690346633
 21
2395.050041321653
 31
0.0
  0
LINE
  5
117
330
20
100
AcDbEntity
  8
_0-0_
  6
Continuous
 62
     1
100
AcDbLine
 10
991.431136611267
 20
2398.383440653964
 30
0.0
 11
991.431136611267
 21
2395.499043865525
 31
0.0
  0
CIRCLE
  5
118
330
20
100
AcDbEntity
  8
_0-0_
  6
Continuous
 62
     1
100
AcDbCircle
 10
993.4732100163412
 20
2396.941242259744
 30
0.0
 40
2.5
  0
LINE
  5
119
330
20
100
AcDbEntity
  8
_0-0_
  6
Continuous
 62
     1
100
AcDbLine
 10
989.1268492514216
 20
2252.839886189057
 30
0.0
 11
989.1268492514216
 21
2249.337183202191
 31
0.0
  0
LINE
  5
11A
330
20
100
AcDbEntity
  8
_0-0_
  6
Continuous
 62
     1
100
AcDbLine
 10
988.5298683637733
 20
2253.288741763341
 30
0.0
 11
988.5298683637733
 21
2248.888327627907
 31
0.0
  0
LINE
  5
11B
330
20
100
AcDbEntity
  8
_0-0_
  6
Continuous
 62
     1
100
AcDbLine
 10
987.8786164863395
 20
2253.53044375408
 30
0.0
 11
987.8786164863395
 21
2248.646625637168
 31
0.0
  0
LINE
  5
11C
330
20
100
AcDbEntity
  8
_0-0_
  6
Continuous
 62
     1
100
AcDbLine
 10
987.3901775782639
 20
2253.588086067102
 30
0.0
 11
987.3901775782639
 21
2248.588983324146
 31
0.0
  0
LINE
  5
11D
330
20
100
AcDbEntity
  8
_0-0_
  6
Continuous
 62
     1
100
AcDbLine
 10
986.9017386701884
 20
2253.549316915508
 30
0.0
 11
986.9017386701884
 21
2248.62775247574
 31
0.0
  0
LINE
  5
11E
330
20
100
AcDbEntity
  8
_0-0_
  6
Continuous
 62
     1
100
AcDbLine
 10
986.2233512978617
 20
2253.32388580432
 30
0.0
 11
986.2233512978617
 21
2248.853183586927
 31
0.0
  0
LINE
  5
11F
330
20
100
AcDbEntity
  8
_0-0_
  6
Continuous
 62
     1
100
AcDbLine
 10
985.7077768948927
 20
2252.979735633714
 30
0.0
 11
985.7077768948927
 21
2249.197333757534
 31
0.0
  0
LINE
  5
120
330
20
100
AcDbEntity
  8
_0-0_
  6
Continuous
 62
     1
100
AcDbLine
 10
985.3007444714966
 20
2252.530733089843
 30
0.0
 11
985.3007444714966
 21
2249.646336301404
 31
0.0
  0
CIRCLE
  5
121
330
20
100
AcDbEntity
  8
_0-0_
  6
Continuous
 62
     1
100
AcDbCircle
 10
987.3428178765708
 20
2251.088534695624
 30
0.0
 40
2.5
  0
LINE
  5
122
330
20
100
AcDbEntity
  8
_0-0_
  6
Continuous
 62
     1
100
AcDbLine
 10
948.3232698544364
 20
2212.222871008545
 30
0.0
 11
948.3232698544364
 21
2208.720168021681
 31
0.0
  0
LINE
  5
123
330
20
100
AcDbEntity
  8
_0-0_
  6
Continuous
 62
     1
100
AcDbLine
 10
947.726288966788
 20
2212.671726582831
 30
0.0
 11
947.726288966788
 21
2208.271312447396
 31
0.0
  0
LINE
  5
124
330
20
100
AcDbEntity
  8
_0-0_
  6
Continuous
 62
     1
100
AcDbLine
 10
947.0750370893544
 20
2212.913428573569
 30
0.0
 11
947.0750370893544
 21
2208.029610456657
 31
0.0
  0
LINE
  5
125
330
20
100
AcDbEntity
  8
_0-0_
  6
Continuous
 62
     1
100
AcDbLine
 10
946.5865981812786
 20
2212.971070886591
 30
0.0
 11
946.5865981812786
 21
2207.971968143636
 31
0.0
  0
LINE
  5
126
330
20
100
AcDbEntity
  8
_0-0_
  6
Continuous
 62
     1
100
AcDbLine
 10
946.098159273203
 20
2212.932301734997
 30
0.0
 11
946.098159273203
 21
2208.01073729523
 31
0.0
  0
LINE
  5
127
330
20
100
AcDbEntity
  8
_0-0_
  6
Continuous
 62
     1
100
AcDbLine
 10
945.4197719008764
 20
2212.70687062381
 30
0.0
 11
945.4197719008764
 21
2208.236168406417
 31
0.0
  0
LINE
  5
128
330
20
100
AcDbEntity
  8
_0-0_
  6
Continuous
 62
     1
100
AcDbLine
 10
944.9041974979076
 20
2212.362720453203
 30
0.0
 11
944.9041974979076
 21
2208.580318577023
 31
0.0
  0
LINE
  5
129
330
20
100
AcDbEntity
  8
_0-0_
  6
Continuous
 62
     1
100
AcDbLine
 10
944.4971650745113
 20
2211.913717909333
 30
0.0
 11
944.4971650745113
 21
2209.029321120894
 31
0.0
  0
CIRCLE
  5
12A
330
20
100
AcDbEntity
  8
_0-0_
  6
Continuous
 62
     1
100
AcDbCircle
 10
946.5392384795856
 20
2210.471519515113
 30
0.0
 40
2.5
  0
LINE
  5
12B
330
20
100
AcDbEntity
  8
_0-0_
  6
Continuous
 62
     4
100
AcDbLine
 10
2066.823899371069
 20
2461.748309006764
 30
0.0
 11
2273.38988324016
 21
2461.748309006764
 31
0.0
  0
LINE
  5
12C
330
20
100
AcDbEntity
  8
_0-0_
  6
Continuous
 62
     4
100
AcDbLine
 10
2066.823899371069
 20
2461.748309006764
 30
0.0
 11
2084.210564244273
 21
2457.089566194918
 31
0.0
  0
LINE
  5
12D
330
20
100
AcDbEntity
  8
_0-0_
  6
Continuous
 62
     4
100
AcDbLine
 10
2066.823899371069
 20
2461.748309006764
 30
0.0
 11
2084.210564244273
 21
2466.407051818609
 31
0.0
  0
LINE
  5
12E
330
20
100
AcDbEntity
  8
_0-0_
  6
Continuous
 62
     4
100
AcDbLine
 10
1949.823899371069
 20
2461.748309006764
 30
0.0
 11
1967.210564244273
 21
2457.089566194918
 31
0.0
  0
LINE
  5
12F
330
20
100
AcDbEntity
  8
_0-0_
  6
Continuous
 62
     4
100
AcDbLine
 10
1949.823899371069
 20
2461.748309006764
 30
0.0
 11
1967.210564244273
 21
2466.407051818609
 31
0.0
  0
LINE
  5
130
330
20
100
AcDbEntity
  8
_0-0_
  6
Continuous
 62
     4
100
AcDbLine
 10
1832.823899371069
 20
2461.748309006764
 30
0.0
 11
1850.210564244272
 21
2457.089566194918
 31
0.0
  0
LINE
  5
131
330
20
100
AcDbEntity
  8
_0-0_
  6
Continuous
 62
     4
100
AcDbLine
 10
1832.823899371069
 20
2461.748309006764
 30
0.0
 11
1850.210564244272
 21
2466.407051818609
 31
0.0
  0
LINE
  5
132
330
20
100
AcDbEntity
  8
_0-0_
  6
Continuous
 62
     4
100
AcDbLine
 10
1715.823899371069
 20
2461.748309006764
 30
0.0
 11
1733.210564244273
 21
2457.089566194918
 31
0.0
  0
LINE
  5
133
330
20
100
AcDbEntity
  8
_0-0_
  6
Continuous
 62
     4
100
AcDbLine
 10
1715.823899371069
 20
2461.748309006764
 30
0.0
 11
1733.210564244273
 21
2466.407051818609
 31
0.0
  0
LINE
  5
134
330
20
100
AcDbEntity
  8
_0-0_
  6
Continuous
 62
     4
100
AcDbLine
 10
1598.823899371069
 20
2461.748309006764
 30
0.0
 11
1616.210564244272
 21
2457.089566194918
 31
0.0
  0
LINE
  5
135
330
20
100
AcDbEntity
  8
_0-0_
  6
Continuous
 62
     4
100
AcDbLine
 10
1598.823899371069
 20
2461.748309006764
 30
0.0
 11
1616.210564244272
 21
2466.407051818609
 31
0.0
  0
LINE
  5
136
330
20
100
AcDbEntity
  8
_0-0_
  6
Continuous
 62
     4
100
AcDbLine
 10
1481.823899371069
 20
2461.748309006764
 30
0.0
 11
1499.210564244272
 21
2457.089566194918
 31
0.0
  0
LINE
  5
137
330
20
100
AcDbEntity
  8
_0-0_
  6
Continuous
 62
     4
100
AcDbLine
 10
1481.823899371069
 20
2461.748309006764
 30
0.0
 11
1499.210564244272
 21
2466.407051818609
 31
0.0
  0
LINE
  5
138
330
20
100
AcDbEntity
  8
_0-0_
  6
Continuous
 62
     4
100
AcDbLine
 10
1442.823899371069
 20
2461.748309006764
 30
0.0
 11
1460.210564244272
 21
2457.089566194918
 31
0.0
  0
LINE
  5
139
330
20
100
AcDbEntity
  8
_0-0_
  6
Continuous
 62
     4
100
AcDbLine
 10
1442.823899371069
 20
2461.748309006764
 30
0.0
 11
1460.210564244272
 21
2466.407051818609
 31
0.0
  0
LINE
  5
13A
330
20
100
AcDbEntity
  8
_0-0_
  6
Continuous
 62
     4
100
AcDbLine
 10
1949.823899371069
 20
2461.748309006764
 30
0.0
 11
2066.823899371069
 21
2461.748309006764
 31
0.0
  0
LINE
  5
13B
330
20
100
AcDbEntity
  8
_0-0_
  6
Continuous
 62
     4
100
AcDbLine
 10
1832.823899371069
 20
2461.748309006764
 30
0.0
 11
1949.823899371069
 21
2461.748309006764
 31
0.0
  0
LINE
  5
13C
330
20
100
AcDbEntity
  8
_0-0_
  6
Continuous
 62
     4
100
AcDbLine
 10
1715.823899371069
 20
2461.748309006764
 30
0.0
 11
1832.823899371069
 21
2461.748309006764
 31
0.0
  0
LINE
  5
13D
330
20
100
AcDbEntity
  8
_0-0_
  6
Continuous
 62
     4
100
AcDbLine
 10
1598.823899371069
 20
2461.748309006764
 30
0.0
 11
1715.823899371069
 21
2461.748309006764
 31
0.0
  0
LINE
  5
13E
330
20
100
AcDbEntity
  8
_0-0_
  6
Continuous
 62
     4
100
AcDbLine
 10
1481.823899371069
 20
2461.748309006764
 30
0.0
 11
1598.823899371069
 21
2461.748309006764
 31
0.0
  0
LINE
  5
13F
330
20
100
AcDbEntity
  8
_0-0_
  6
Continuous
 62
     4
100
AcDbLine
 10
1442.823899371069
 20
2461.748309006764
 30
0.0
 11
1481.823899371069
 21
2461.748309006764
 31
0.0
  0
LINE
  5
140
330
20
100
AcDbEntity
  8
_0-0_
  6
Continuous
 62
     4
100
AcDbLine
 10
1822.687330339893
 20
2625.138364779875
 30
0.0
 11
1656.331236897275
 21
2625.138364779875
 31
0.0
  0
LINE
  5
141
330
20
100
AcDbEntity
  8
_0-0_
  6
Continuous
 62
     4
100
AcDbLine
 10
1656.331236897275
 20
2542.138364779873
 30
0.0
 11
1656.331236897275
 21
2625.138364779875
 31
0.0
  0
LINE
  5
142
330
20
100
AcDbEntity
  8
_0-0_
  6
Continuous
 62
     4
100
AcDbLine
 10
1656.331236897275
 20
2542.138364779873
 30
0.0
 11
1660.98997970912
 21
2559.525029653078
 31
0.0
  0
LINE
  5
143
330
20
100
AcDbEntity
  8
_0-0_
  6
Continuous
 62
     4
100
AcDbLine
 10
1656.331236897275
 20
2542.138364779873
 30
0.0
 11
1651.672494085429
 21
2559.525029653078
 31
0.0
  0
LINE
  5
144
330
20
100
AcDbEntity
  8
_0-0_
  6
DASHED3
 62
     1
100
AcDbLine
 10
2066.823899371069
 20
2542.138364779873
 30
0.0
 11
1442.823899371069
 21
2542.138364779873
 31
0.0
  0
LINE
  5
145
330
20
100
AcDbEntity
  8
_0-0_
  6
Continuous
 62
     4
100
AcDbLine
 10
1429.823899371069
 20
2767.138364779874
 30
0.0
 11
1447.210564244272
 21
2762.479621968029
 31
0.0
  0
LINE
  5
146
330
20
100
AcDbEntity
  8
_0-0_
  6
Continuous
 62
     4
100
AcDbLine
 10
1429.823899371069
 20
2767.138364779874
 30
0.0
 11
1447.210564244272
 21
2771.79710759172
 31
0.0
  0
LINE
  5
147
330
20
100
AcDbEntity
  8
_0-0_
  6
Continuous
 62
     4
100
AcDbLine
 10
1267.823899371069
 20
2555.138364779875
 30
0.0
 11
1263.165156559224
 21
2537.751699906671
 31
0.0
  0
LINE
  5
148
330
20
100
AcDbEntity
  8
_0-0_
  6
Continuous
 62
     4
100
AcDbLine
 10
1267.823899371069
 20
2555.138364779875
 30
0.0
 11
1272.482642182914
 21
2537.751699906671
 31
0.0
  0
LINE
  5
149
330
20
100
AcDbEntity
  8
_0-0_
  6
Continuous
 62
     4
100
AcDbLine
 10
1417.823899371069
 20
2555.138364779875
 30
0.0
 11
1255.823899371069
 21
2555.138364779875
 31
0.0
  0
LINE
  5
14A
330
20
100
AcDbEntity
  8
_0-0_
  6
Continuous
 62
     4
100
AcDbLine
 10
1429.823899371069
 20
2779.138364779874
 30
0.0
 11
1429.823899371069
 21
2567.138364779875
 31
0.0
  0
LINE
  5
14B
330
20
100
AcDbEntity
  8
_0-0_
  6
Continuous
 62
     4
100
AcDbLine
 10
1417.823899371069
 20
2145.138364779875
 30
0.0
 11
1255.823899371069
 21
2145.138364779875
 31
0.0
  0
LINE
  5
14C
330
20
100
AcDbEntity
  8
_0-0_
  6
Continuous
 62
     4
100
AcDbLine
 10
1267.823899371069
 20
2555.138364779875
 30
0.0
 11
1267.823899371069
 21
2145.138364779875
 31
0.0
  0
LINE
  5
14D
330
20
100
AcDbEntity
  8
_0-0_
  6
Continuous
 62
     4
100
AcDbLine
 10
1267.823899371069
 20
2145.138364779875
 30
0.0
 11
1263.165156559224
 21
2162.525029653078
 31
0.0
  0
LINE
  5
14E
330
20
100
AcDbEntity
  8
_0-0_
  6
Continuous
 62
     4
100
AcDbLine
 10
1267.823899371069
 20
2145.138364779875
 30
0.0
 11
1272.482642182914
 21
2162.525029653078
 31
0.0
  0
TEXT
  5
14F
330
20
100
AcDbEntity
  8
_0-0_
 62
     7
100
AcDbText
 10
1261.622490087724
 20
2309.842631754094
 30
0.0
 40
48.0
  1
410
 50
90.0
 41
0.8
  7
MSゴシック
100
AcDbText
  0
LINE
  5
150
330
20
100
AcDbEntity
  8
_0-0_
  6
Continuous
 62
     4
100
AcDbLine
 10
1499.823899371069
 20
2779.138364779874
 30
0.0
 11
1499.823899371069
 21
2765.962179258843
 31
0.0
  0
LINE
  5
151
330
20
100
AcDbEntity
  8
_0-0_
  6
Continuous
 62
     4
100
AcDbLine
 10
1499.823899371069
 20
2765.962179258843
 30
0.0
 11
1499.823899371069
 21
2567.138364779875
 31
0.0
  0
LINE
  5
152
330
20
100
AcDbEntity
  8
_0-0_
  6
Continuous
 62
     4
100
AcDbLine
 10
1499.823899371069
 20
2767.138364779874
 30
0.0
 11
1429.823899371069
 21
2767.138364779874
 31
0.0
  0
LINE
  5
153
330
20
100
AcDbEntity
  8
_0-0_
  6
Continuous
 62
     4
100
AcDbLine
 10
1499.823899371069
 20
2767.138364779874
 30
0.0
 11
1482.437234497866
 21
2762.479621968029
 31
0.0
  0
LINE
  5
154
330
20
100
AcDbEntity
  8
_0-0_
  6
Continuous
 62
     4
100
AcDbLine
 10
1499.823899371069
 20
2767.138364779874
 30
0.0
 11
1482.437234497866
 21
2771.79710759172
 31
0.0
  0
LINE
  5
155
330
20
100
AcDbEntity
  8
_0-0_
  6
Continuous
 62
     4
100
AcDbLine
 10
1554.823899371069
 20
2779.138364779874
 30
0.0
 11
1554.823899371069
 21
2567.138364779875
 31
0.0
  0
LINE
  5
156
330
20
100
AcDbEntity
  8
_0-0_
  6
Continuous
 62
     4
100
AcDbLine
 10
1554.823899371069
 20
2767.138364779874
 30
0.0
 11
1499.823899371069
 21
2767.138364779874
 31
0.0
  0
LINE
  5
157
330
20
100
AcDbEntity
  8
_0-0_
  6
Continuous
 62
     4
100
AcDbLine
 10
1499.823899371069
 20
2767.138364779874
 30
0.0
 11
1517.210564244272
 21
2771.79710759172
 31
0.0
  0
LINE
  5
158
330
20
100
AcDbEntity
  8
_0-0_
  6
Continuous
 62
     4
100
AcDbLine
 10
1499.823899371069
 20
2767.138364779874
 30
0.0
 11
1517.210564244272
 21
2762.479621968029
 31
0.0
  0
LINE
  5
159
330
20
100
AcDbEntity
  8
_0-0_
  6
Continuous
 62
     4
100
AcDbLine
 10
1554.823899371069
 20
2767.138364779874
 30
0.0
 11
1537.437234497866
 21
2762.479621968029
 31
0.0
  0
LINE
  5
15A
330
20
100
AcDbEntity
  8
_0-0_
  6
Continuous
 62
     4
100
AcDbLine
 10
1554.823899371069
 20
2767.138364779874
 30
0.0
 11
1537.437234497866
 21
2771.79710759172
 31
0.0
  0
TEXT
  5
15B
330
20
100
AcDbEntity
  8
_0-0_
 62
     7
100
AcDbText
 10
1440.989690470309
 20
2773.196974600874
 30
0.0
 40
48.0
  1
70
 41
0.8
  7
MSゴシック
100
AcDbText
  0
LINE
  5
15C
330
20
100
AcDbEntity
  8
_0-0_
  6
Continuous
 62
     4
100
AcDbLine
 10
2084.823899371069
 20
2779.138364779874
 30
0.0
 11
2084.823899371069
 21
2567.138364779875
 31
0.0
  0
LINE
  5
15D
330
20
100
AcDbEntity
  8
_0-0_
  6
Continuous
 62
     4
100
AcDbLine
 10
2084.823899371069
 20
2767.138364779874
 30
0.0
 11
1554.823899371069
 21
2767.138364779874
 31
0.0
  0
LINE
  5
15E
330
20
100
AcDbEntity
  8
_0-0_
  6
Continuous
 62
     4
100
AcDbLine
 10
2084.823899371069
 20
2767.138364779874
 30
0.0
 11
2067.437234497866
 21
2762.479621968029
 31
0.0
  0
LINE
  5
15F
330
20
100
AcDbEntity
  8
_0-0_
  6
Continuous
 62
     4
100
AcDbLine
 10
2084.823899371069
 20
2767.138364779874
 30
0.0
 11
2067.437234497866
 21
2771.79710759172
 31
0.0
  0
TEXT
  5
160
330
20
100
AcDbEntity
  8
_0-0_
 62
     7
100
AcDbText
 10
1780.183007318115
 20
2772.912740847504
 30
0.0
 40
48.0
  1
530
 41
0.8
  7
MSゴシック
100
AcDbText
  0
LINE
  5
161
330
20
100
AcDbEntity
  8
_0-0_
  6
Continuous
 62
     5
100
AcDbLine
 10
2084.823899371069
 20
2555.138364779875
 30
0.0
 11
1429.823899371069
 21
2555.138364779875
 31
0.0
  0
LINE
  5
162
330
20
100
AcDbEntity
  8
_0-0_
  6
Continuous
 62
     5
100
AcDbLine
 10
1429.823899371069
 20
2555.138364779875
 30
0.0
 11
1429.823899371069
 21
2145.138364779875
 31
0.0
  0
LINE
  5
163
330
20
100
AcDbEntity
  8
_0-0_
  6
Continuous
 62
     5
100
AcDbLine
 10
1429.823899371069
 20
2145.138364779875
 30
0.0
 11
1499.823899371069
 21
2145.138364779875
 31
0.0
  0
LINE
  5
164
330
20
100
AcDbEntity
  8
_0-0_
  6
Continuous
 62
     5
100
AcDbLine
 10
2084.823899371069
 20
2555.138364779875
 30
0.0
 11
2084.823899371069
 21
2194.635839462932
 31
0.0
  0
LINE
  5
165
330
20
100
AcDbEntity
  8
_0-0_
  6
Continuous
 62
     5
100
AcDbLine
 10
1554.823899371069
 20
2555.138364779875
 30
0.0
 11
1554.823899371069
 21
2194.635839462932
 31
0.0
  0
LINE
  5
166
330
20
100
AcDbEntity
  8
_0-0_
  6
Continuous
 62
     5
100
AcDbLine
 10
1554.823899371069
 20
2194.635839462932
 30
0.0
 11
2084.823899371069
 21
2194.635839462932
 31
0.0
  0
LINE
  5
167
330
20
100
AcDbEntity
  8
_0-0_
  6
Continuous
 62
     5
100
AcDbLine
 10
1554.823899371069
 20
2194.635839462932
 30
0.0
 11
1499.823899371069
 21
2145.138364779875
 31
0.0
  0
LINE
  5
168
330
20
100
AcDbEntity
  8
_0-0_
  6
Continuous
 62
     5
100
AcDbLine
 10
1499.823899371069
 20
2555.138364779875
 30
0.0
 11
1499.823899371069
 21
2145.138364779875
 31
0.0
  0
LINE
  5
169
330
20
100
AcDbEntity
  8
_0-0_
  6
DASHED3
 62
     1
100
AcDbLine
 10
1442.823899371069
 20
2542.138364779873
 30
0.0
 11
1442.823899371069
 21
2158.138364779873
 31
0.0
  0
LINE
  5
16A
330
20
100
AcDbEntity
  8
_0-0_
  6
DASHED3
 62
     1
100
AcDbLine
 10
1549.835520474313
 20
2207.635839462932
 30
0.0
 11
1494.835520474313
 21
2158.138364779873
 31
0.0
  0
LINE
  5
16B
330
20
100
AcDbEntity
  8
_0-0_
  6
DASHED3
 62
     1
100
AcDbLine
 10
1442.823899371069
 20
2158.138364779873
 30
0.0
 11
1494.835520474313
 21
2158.138364779873
 31
0.0
  0
LINE
  5
16C
330
20
100
AcDbEntity
  8
_0-0_
  6
DASHED3
 62
     1
100
AcDbLine
 10
2066.823899371069
 20
2542.138364779873
 30
0.0
 11
2066.823899371069
 21
2207.635839462932
 31
0.0
  0
LINE
  5
16D
330
20
100
AcDbEntity
  8
_0-0_
  6
DASHED3
 62
     1
100
AcDbLine
 10
1549.835520474313
 20
2207.635839462932
 30
0.0
 11
2066.823899371069
 21
2207.635839462932
 31
0.0
  0
LINE
  5
16E
330
20
100
AcDbEntity
  8
_0-0_
  6
DASHED3
 62
     1
100
AcDbLine
 10
1481.823899371069
 20
2542.138364779873
 30
0.0
 11
1481.823899371069
 21
2158.138364779873
 31
0.0
  0
LINE
  5
16F
330
20
100
AcDbEntity
  8
_0-0_
  6
DASHED3
 62
     1
100
AcDbLine
 10
1949.823899371069
 20
2207.635839462932
 30
0.0
 11
1949.823899371069
 21
2542.138364779873
 31
0.0
  0
LINE
  5
170
330
20
100
AcDbEntity
  8
_0-0_
  6
DASHED3
 62
     1
100
AcDbLine
 10
1832.823899371069
 20
2207.635839462932
 30
0.0
 11
1832.823899371069
 21
2542.138364779873
 31
0.0
  0
LINE
  5
171
330
20
100
AcDbEntity
  8
_0-0_
  6
DASHED3
 62
     1
100
AcDbLine
 10
1715.823899371069
 20
2207.635839462932
 30
0.0
 11
1715.823899371069
 21
2542.138364779873
 31
0.0
  0
LINE
  5
172
330
20
100
AcDbEntity
  8
_0-0_
  6
DASHED3
 62
     1
100
AcDbLine
 10
1598.823899371069
 20
2207.635839462932
 30
0.0
 11
1598.823899371069
 21
2542.138364779873
 31
0.0
  0
LINE
  5
173
330
20
100
AcDbEntity
  8
_0-0_
  6
Continuous
 62
     4
100
AcDbLine
 10
1656.331236897275
 20
2207.635839462932
 30
0.0
 11
1651.672494085429
 21
2225.022504336136
 31
0.0
  0
LINE
  5
174
330
20
100
AcDbEntity
  8
_0-0_
  6
Continuous
 62
     4
100
AcDbLine
 10
1656.331236897275
 20
2207.635839462932
 30
0.0
 11
1660.98997970912
 21
2225.022504336136
 31
0.0
  0
TEXT
  5
175
330
20
100
AcDbEntity
  8
_0-0_
 62
     7
100
AcDbText
 10
1670.229541878012
 20
2627.210886739961
 30
0.0
 40
42.0
  1
9-φ3.2
 41
0.8
  7
MSゴシック
100
AcDbText
  0
TEXT
  5
176
330
20
100
AcDbEntity
  8
_0-0_
 62
     7
100
AcDbText
 10
2125.676777603075
 20
2465.797118856277
 30
0.0
 40
42.0
  1
7-φ4.0
 41
0.8
  7
MSゴシック
100
AcDbText
  0
LINE
  5
177
330
20
100
AcDbEntity
  8
_0-0_
  6
Continuous
 62
     4
100
AcDbLine
 10
1429.823899371069
 20
1983.138364779874
 30
0.0
 11
1447.210564244272
 21
1978.479621968029
 31
0.0
  0
LINE
  5
178
330
20
100
AcDbEntity
  8
_0-0_
  6
Continuous
 62
     4
100
AcDbLine
 10
1429.823899371069
 20
1983.138364779874
 30
0.0
 11
1447.210564244272
 21
1987.79710759172
 31
0.0
  0
LINE
  5
179
330
20
100
AcDbEntity
  8
_0-0_
  6
Continuous
 62
     4
100
AcDbLine
 10
1429.823899371069
 20
1983.138364779874
 30
0.0
 11
2084.82389937107
 21
1983.138364779874
 31
0.0
  0
LINE
  5
17A
330
20
100
AcDbEntity
  8
_0-0_
  6
Continuous
 62
     4
100
AcDbLine
 10
2084.82389937107
 20
1983.138364779874
 30
0.0
 11
2067.437234497866
 21
1978.479621968029
 31
0.0
  0
LINE
  5
17B
330
20
100
AcDbEntity
  8
_0-0_
  6
Continuous
 62
     4
100
AcDbLine
 10
2084.82389937107
 20
1983.138364779874
 30
0.0
 11
2067.437234497866
 21
1987.79710759172
 31
0.0
  0
TEXT
  5
17C
330
20
100
AcDbEntity
  8
_0-0_
 62
     7
100
AcDbText
 10
1713.266009168062
 20
1983.932642798647
 30
0.0
 40
48.0
  1
655
 41
0.8
  7
MSゴシック
100
AcDbText
  0
LINE
  5
17D
330
20
100
AcDbEntity
  8
_0-0_
  6
Continuous
 62
     4
100
AcDbLine
 10
1429.823899371069
 20
2121.138364779875
 30
0.0
 11
1429.823899371069
 21
1971.138364779875
 31
0.0
  0
LINE
  5
17E
330
20
100
AcDbEntity
  8
_0-0_
  6
Continuous
 62
     4
100
AcDbLine
 10
2084.82389937107
 20
2182.635839462932
 30
0.0
 11
2084.82389937107
 21
1971.138364779875
 31
0.0
  0
LINE
  5
17F
330
20
100
AcDbEntity
  8
_0-0_
  6
DASHED3
 62
     1
100
AcDbLine
 10
1554.823899371069
 20
2247.662010639821
 30
0.0
 11
2066.823899371069
 21
2247.662010639821
 31
0.0
  0
LINE
  5
180
330
20
100
AcDbEntity
  8
_0-0_
  6
DASHED3
 62
     1
100
AcDbLine
 10
1554.823899371069
 20
2247.662010639821
 30
0.0
 11
1499.823899371069
 21
2242.662010639822
 31
0.0
  0
LINE
  5
181
330
20
100
AcDbEntity
  8
_0-0_
  6
DASHED3
 62
     1
100
AcDbLine
 10
1499.823899371069
 20
2242.662010639822
 30
0.0
 11
1442.823899371069
 21
2242.662010639822
 31
0.0
  0
LINE
  5
182
330
20
100
AcDbEntity
  8
_0-0_
  6
DASHED3
 62
     1
100
AcDbLine
 10
2066.823899371069
 20
2394.900187709848
 30
0.0
 11
1554.823899371069
 21
2394.900187709848
 31
0.0
  0
LINE
  5
183
330
20
100
AcDbEntity
  8
_0-0_
  6
DASHED3
 62
     1
100
AcDbLine
 10
1554.823899371069
 20
2394.900187709848
 30
0.0
 11
1499.823899371069
 21
2389.900187709848
 31
0.0
  0
LINE
  5
184
330
20
100
AcDbEntity
  8
_0-0_
  6
DASHED3
 62
     1
100
AcDbLine
 10
1499.823899371069
 20
2389.900187709848
 30
0.0
 11
1442.823899371069
 21
2389.900187709848
 31
0.0
  0
LINE
  5
185
330
20
100
AcDbEntity
  8
_0-0_
  6
Continuous
 62
     4
100
AcDbLine
 10
1656.331236897275
 20
2542.138364779873
 30
0.0
 11
1656.331236897275
 21
2394.900187709848
 31
0.0
  0
LINE
  5
186
330
20
100
AcDbEntity
  8
_0-0_
  6
Continuous
 62
     4
100
AcDbLine
 10
1656.331236897275
 20
2394.900187709848
 30
0.0
 11
1651.672494085429
 21
2412.286852583051
 31
0.0
  0
LINE
  5
187
330
20
100
AcDbEntity
  8
_0-0_
  6
Continuous
 62
     4
100
AcDbLine
 10
1656.331236897275
 20
2394.900187709848
 30
0.0
 11
1660.98997970912
 21
2412.286852583051
 31
0.0
  0
LINE
  5
188
330
20
100
AcDbEntity
  8
_0-0_
  6
Continuous
 62
     5
100
AcDbLine
 10
561.5408805031452
 20
1172.79402212224
 30
0.0
 11
561.5408805031452
 21
837.7940221222399
 31
0.0
  0
LINE
  5
189
330
20
100
AcDbEntity
  8
_0-0_
  6
Continuous
 62
     4
100
AcDbLine
 10
399.5408805031452
 20
1172.79402212224
 30
0.0
 11
394.8821376912997
 21
1155.407357249037
 31
0.0
  0
LINE
  5
18A
330
20
100
AcDbEntity
  8
_0-0_
  6
Continuous
 62
     4
100
AcDbLine
 10
399.5408805031452
 20
1172.79402212224
 30
0.0
 11
404.1996233149903
 21
1155.407357249037
 31
0.0
  0
LINE
  5
18B
330
20
100
AcDbEntity
  8
_0-0_
  6
Continuous
 62
     4
100
AcDbLine
 10
549.5408805031452
 20
1172.79402212224
 30
0.0
 11
387.5408805031452
 21
1172.79402212224
 31
0.0
  0
LINE
  5
18C
330
20
100
AcDbEntity
  8
_0-0_
  6
Continuous
 62
     4
100
AcDbLine
 10
661.5408805031445
 20
1396.79402212224
 30
0.0
 11
661.5408805031445
 21
1184.79402212224
 31
0.0
  0
LINE
  5
18D
330
20
100
AcDbEntity
  8
_0-0_
  6
Continuous
 62
     4
100
AcDbLine
 10
961.5408805031442
 20
1396.79402212224
 30
0.0
 11
961.5408805031442
 21
1184.79402212224
 31
0.0
  0
LINE
  5
18E
330
20
100
AcDbEntity
  8
_0-0_
  6
Continuous
 62
     4
100
AcDbLine
 10
1061.540880503144
 20
1396.79402212224
 30
0.0
 11
1061.540880503144
 21
1184.79402212224
 31
0.0
  0
LINE
  5
18F
330
20
100
AcDbEntity
  8
_0-0_
  6
Continuous
 62
     4
100
AcDbLine
 10
961.5408805031442
 20
1384.79402212224
 30
0.0
 11
661.5408805031445
 21
1384.79402212224
 31
0.0
  0
LINE
  5
190
330
20
100
AcDbEntity
  8
_0-0_
  6
Continuous
 62
     4
100
AcDbLine
 10
961.5408805031442
 20
1384.79402212224
 30
0.0
 11
1061.540880503144
 21
1384.79402212224
 31
0.0
  0
LINE
  5
191
330
20
100
AcDbEntity
  8
_0-0_
  6
Continuous
 62
     4
100
AcDbLine
 10
1061.540880503144
 20
1384.79402212224
 30
0.0
 11
1044.154215629941
 21
1380.135279310394
 31
0.0
  0
LINE
  5
192
330
20
100
AcDbEntity
  8
_0-0_
  6
Continuous
 62
     4
100
AcDbLine
 10
1061.540880503144
 20
1384.79402212224
 30
0.0
 11
1044.154215629941
 21
1389.452764934086
 31
0.0
  0
LINE
  5
193
330
20
100
AcDbEntity
  8
_0-0_
  6
Continuous
 62
     4
100
AcDbLine
 10
961.5408805031442
 20
1384.79402212224
 30
0.0
 11
978.927545376348
 21
1389.452764934086
 31
0.0
  0
LINE
  5
194
330
20
100
AcDbEntity
  8
_0-0_
  6
Continuous
 62
     4
100
AcDbLine
 10
961.5408805031442
 20
1384.79402212224
 30
0.0
 11
978.927545376348
 21
1380.135279310394
 31
0.0
  0
LINE
  5
195
330
20
100
AcDbEntity
  8
_0-0_
  6
Continuous
 62
     4
100
AcDbLine
 10
961.5408805031442
 20
1384.79402212224
 30
0.0
 11
944.154215629941
 21
1380.135279310394
 31
0.0
  0
LINE
  5
196
330
20
100
AcDbEntity
  8
_0-0_
  6
Continuous
 62
     4
100
AcDbLine
 10
961.5408805031442
 20
1384.79402212224
 30
0.0
 11
944.154215629941
 21
1389.452764934086
 31
0.0
  0
LINE
  5
197
330
20
100
AcDbEntity
  8
_0-0_
  6
Continuous
 62
     4
100
AcDbLine
 10
661.5408805031445
 20
1384.79402212224
 30
0.0
 11
678.927545376348
 21
1389.452764934086
 31
0.0
  0
LINE
  5
198
330
20
100
AcDbEntity
  8
_0-0_
  6
Continuous
 62
     4
100
AcDbLine
 10
661.5408805031445
 20
1384.79402212224
 30
0.0
 11
678.927545376348
 21
1380.135279310394
 31
0.0
  0
TEXT
  5
199
330
20
100
AcDbEntity
  8
_0-0_
 62
     7
100
AcDbText
 10
776.1827459356831
 20
1390.809844281174
 30
0.0
 40
48.0
  1
300
 41
0.8
  7
MSゴシック
100
AcDbText
  0
TEXT
  5
19A
330
20
100
AcDbEntity
  8
_0-0_
 62
     7
100
AcDbText
 10
975.9782925351151
 20
1390.56161165051
 30
0.0
 40
48.0
  1
100
 41
0.8
  7
MSゴシック
100
AcDbText
  0
LINE
  5
19B
330
20
100
AcDbEntity
  8
_0-0_
  6
Continuous
 62
     4
100
AcDbLine
 10
399.5408805031452
 20
872.7940221222404
 30
0.0
 11
394.8821376912997
 21
855.4073572490365
 31
0.0
  0
LINE
  5
19C
330
20
100
AcDbEntity
  8
_0-0_
  6
Continuous
 62
     4
100
AcDbLine
 10
399.5408805031452
 20
872.7940221222404
 30
0.0
 11
404.1996233149903
 21
855.4073572490365
 31
0.0
  0
LINE
  5
19D
330
20
100
AcDbEntity
  8
_0-0_
  6
Continuous
 62
     4
100
AcDbLine
 10
399.5408805031452
 20
872.7940221222404
 30
0.0
 11
404.1996233149903
 21
890.1806869954434
 31
0.0
  0
LINE
  5
19E
330
20
100
AcDbEntity
  8
_0-0_
  6
Continuous
 62
     4
100
AcDbLine
 10
399.5408805031452
 20
872.7940221222404
 30
0.0
 11
394.8821376912997
 21
890.1806869954434
 31
0.0
  0
LINE
  5
19F
330
20
100
AcDbEntity
  8
_0-0_
  6
Continuous
 62
     4
100
AcDbLine
 10
399.5408805031452
 20
1172.79402212224
 30
0.0
 11
399.5408805031452
 21
872.7940221222404
 31
0.0
  0
TEXT
  5
1A0
330
20
100
AcDbEntity
  8
_0-0_
 62
     7
100
AcDbText
 10
393.7220400907477
 20
987.0886282745031
 30
0.0
 40
48.0
  1
300
 50
90.0
 41
0.8
  7
MSゴシック
100
AcDbText
  0
TEXT
  5
1A1
330
20
100
AcDbEntity
  8
_0-0_
 62
     7
100
AcDbText
 10
788.9208539900409
 20
1209.24267471158
 30
0.0
 40
42.0
  1
Ｃ
 41
0.8
  7
MSゴシック
100
AcDbText
  0
TEXT
  5
1A2
330
20
100
AcDbEntity
  8
_0-0_
 62
     7
100
AcDbText
 10
796.895517439535
 20
1198.814268662241
 30
0.0
 40
42.0
  1
Ｌ
 41
0.8
  7
MSゴシック
100
AcDbText
  0
LINE
  5
1A3
330
20
100
AcDbEntity
  8
_0-0_
  6
Continuous
 62
     5
100
AcDbLine
 10
561.5408805031452
 20
1172.79402212224
 30
0.0
 11
661.5408805031445
 21
1172.79402212224
 31
0.0
  0
LINE
  5
1A4
330
20
100
AcDbEntity
  8
_0-0_
  6
Continuous
 62
     5
100
AcDbLine
 10
961.5408805031442
 20
1172.79402212224
 30
0.0
 11
1061.540880503144
 21
1172.79402212224
 31
0.0
  0
LINE
  5
1A5
330
20
100
AcDbEntity
  8
_0-0_
  6
Continuous
 62
     5
100
AcDbLine
 10
678.4292772048907
 20
919.4680715960513
 30
0.0
 11
661.5408805031445
 21
1172.79402212224
 31
0.0
  0
ARC
  5
1A6
330
20
100
AcDbEntity
  8
_0-0_
  6
Continuous
 62
     5
100
AcDbCircle
 10
728.3185350977212
 20
922.7940221222404
 30
0.0
 40
50.0
100
AcDbArc
 50
183.8140748342904
 51
270.0
  0
LINE
  5
1A7
330
20
100
AcDbEntity
  8
_0-0_
  6
Continuous
 62
     5
100
AcDbLine
 10
894.7632259085684
 20
872.7940221222404
 30
0.0
 11
728.3185350977212
 21
872.7940221222404
 31
0.0
  0
LINE
  5
1A8
330
20
100
AcDbEntity
  8
_0-0_
  6
Continuous
 62
     5
100
AcDbLine
 10
944.6524838013989
 20
919.4680715960513
 30
0.0
 11
961.5408805031442
 21
1172.79402212224
 31
0.0
  0
ARC
  5
1A9
330
20
100
AcDbEntity
  8
_0-0_
  6
Continuous
 62
     5
100
AcDbCircle
 10
894.7632259085684
 20
922.7940221222404
 30
0.0
 40
50.0
100
AcDbArc
 50
270.0
 51
356.1859251657097
  0
LINE
  5
1AA
330
20
100
AcDbEntity
  8
_0-0_
  6
Continuous
 62
     5
100
AcDbLine
 10
636.5408805031448
 20
762.7940221222401
 30
0.0
 11
561.5408805031452
 21
837.7940221222399
 31
0.0
  0
LINE
  5
1AB
330
20
100
AcDbEntity
  8
_0-0_
  6
Continuous
 62
     5
100
AcDbLine
 10
986.5408805031448
 20
762.7940221222401
 30
0.0
 11
1061.540880503144
 21
837.7940221222397
 31
0.0
  0
LINE
  5
1AC
330
20
100
AcDbEntity
  8
_0-0_
  6
Continuous
 62
     6
100
AcDbLine
 10
596.5408805031447
 20
1172.79402212224
 30
0.0
 11
596.5408805031447
 21
852.2914968052985
 31
0.0
  0
LINE
  5
1AD
330
20
100
AcDbEntity
  8
_0-0_
  6
Continuous
 62
     6
100
AcDbLine
 10
651.038355186203
 20
797.7940221222401
 30
0.0
 11
596.5408805031447
 21
852.2914968052985
 31
0.0
  0
LINE
  5
1AE
330
20
100
AcDbEntity
  8
_0-0_
  6
Continuous
 62
     6
100
AcDbLine
 10
601.5408805031447
 20
1172.79402212224
 30
0.0
 11
601.5408805031447
 21
854.3625646171641
 31
0.0
  0
LINE
  5
1AF
330
20
100
AcDbEntity
  8
_0-0_
  6
Continuous
 62
     6
100
AcDbLine
 10
653.1094229980685
 20
802.7940221222401
 30
0.0
 11
601.5408805031447
 21
854.3625646171641
 31
0.0
  0
LINE
  5
1B0
330
20
100
AcDbEntity
  8
_0-0_
  6
Continuous
 62
     6
100
AcDbLine
 10
651.038355186203
 20
797.7940221222401
 30
0.0
 11
811.5408805031449
 21
797.7940221222401
 31
0.0
  0
LINE
  5
1B1
330
20
100
AcDbEntity
  8
_0-0_
  6
Continuous
 62
     6
100
AcDbLine
 10
653.1094229980685
 20
802.7940221222401
 30
0.0
 11
811.5408805031449
 21
802.7940221222401
 31
0.0
  0
LINE
  5
1B2
330
20
100
AcDbEntity
  8
_0-0_
  6
Continuous
 62
     4
100
AcDbLine
 10
1429.823899371069
 20
1384.79402212224
 30
0.0
 11
1447.210564244272
 21
1380.135279310394
 31
0.0
  0
LINE
  5
1B3
330
20
100
AcDbEntity
  8
_0-0_
  6
Continuous
 62
     4
100
AcDbLine
 10
1429.823899371069
 20
1384.79402212224
 30
0.0
 11
1447.210564244272
 21
1389.452764934086
 31
0.0
  0
LINE
  5
1B4
330
20
100
AcDbEntity
  8
_0-0_
  6
Continuous
 62
     4
100
AcDbLine
 10
1267.823899371069
 20
1172.79402212224
 30
0.0
 11
1263.165156559224
 21
1155.407357249037
 31
0.0
  0
LINE
  5
1B5
330
20
100
AcDbEntity
  8
_0-0_
  6
Continuous
 62
     4
100
AcDbLine
 10
1267.823899371069
 20
1172.79402212224
 30
0.0
 11
1272.482642182914
 21
1155.407357249037
 31
0.0
  0
LINE
  5
1B6
330
20
100
AcDbEntity
  8
_0-0_
  6
Continuous
 62
     4
100
AcDbLine
 10
1417.823899371069
 20
1172.79402212224
 30
0.0
 11
1255.823899371069
 21
1172.79402212224
 31
0.0
  0
LINE
  5
1B7
330
20
100
AcDbEntity
  8
_0-0_
  6
Continuous
 62
     4
100
AcDbLine
 10
1429.823899371069
 20
1396.79402212224
 30
0.0
 11
1429.823899371069
 21
1184.79402212224
 31
0.0
  0
LINE
  5
1B8
330
20
100
AcDbEntity
  8
_0-0_
  6
Continuous
 62
     4
100
AcDbLine
 10
1417.823899371069
 20
762.7940221222401
 30
0.0
 11
1255.823899371069
 21
762.7940221222401
 31
0.0
  0
LINE
  5
1B9
330
20
100
AcDbEntity
  8
_0-0_
  6
Continuous
 62
     4
100
AcDbLine
 10
1267.823899371069
 20
1172.79402212224
 30
0.0
 11
1267.823899371069
 21
762.7940221222401
 31
0.0
  0
LINE
  5
1BA
330
20
100
AcDbEntity
  8
_0-0_
  6
Continuous
 62
     4
100
AcDbLine
 10
1267.823899371069
 20
762.7940221222401
 30
0.0
 11
1263.165156559224
 21
780.1806869954434
 31
0.0
  0
LINE
  5
1BB
330
20
100
AcDbEntity
  8
_0-0_
  6
Continuous
 62
     4
100
AcDbLine
 10
1267.823899371069
 20
762.7940221222401
 30
0.0
 11
1272.482642182914
 21
780.1806869954434
 31
0.0
  0
TEXT
  5
1BC
330
20
100
AcDbEntity
  8
_0-0_
 62
     7
100
AcDbText
 10
1261.622490087724
 20
927.4982890964603
 30
0.0
 40
48.0
  1
410
 50
90.0
 41
0.8
  7
MSゴシック
100
AcDbText
  0
LINE
  5
1BD
330
20
100
AcDbEntity
  8
_0-0_
  6
Continuous
 62
     4
100
AcDbLine
 10
1499.823899371069
 20
1396.79402212224
 30
0.0
 11
1499.823899371069
 21
1383.617836601209
 31
0.0
  0
LINE
  5
1BE
330
20
100
AcDbEntity
  8
_0-0_
  6
Continuous
 62
     4
100
AcDbLine
 10
1499.823899371069
 20
1383.617836601209
 30
0.0
 11
1499.823899371069
 21
1184.79402212224
 31
0.0
  0
LINE
  5
1BF
330
20
100
AcDbEntity
  8
_0-0_
  6
Continuous
 62
     4
100
AcDbLine
 10
1499.823899371069
 20
1384.79402212224
 30
0.0
 11
1429.823899371069
 21
1384.79402212224
 31
0.0
  0
LINE
  5
1C0
330
20
100
AcDbEntity
  8
_0-0_
  6
Continuous
 62
     4
100
AcDbLine
 10
1499.823899371069
 20
1384.79402212224
 30
0.0
 11
1482.437234497866
 21
1380.135279310394
 31
0.0
  0
LINE
  5
1C1
330
20
100
AcDbEntity
  8
_0-0_
  6
Continuous
 62
     4
100
AcDbLine
 10
1499.823899371069
 20
1384.79402212224
 30
0.0
 11
1482.437234497866
 21
1389.452764934086
 31
0.0
  0
LINE
  5
1C2
330
20
100
AcDbEntity
  8
_0-0_
  6
Continuous
 62
     4
100
AcDbLine
 10
1554.823899371069
 20
1396.79402212224
 30
0.0
 11
1554.823899371069
 21
1184.79402212224
 31
0.0
  0
LINE
  5
1C3
330
20
100
AcDbEntity
  8
_0-0_
  6
Continuous
 62
     4
100
AcDbLine
 10
1554.823899371069
 20
1384.79402212224
 30
0.0
 11
1499.823899371069
 21
1384.79402212224
 31
0.0
  0
LINE
  5
1C4
330
20
100
AcDbEntity
  8
_0-0_
  6
Continuous
 62
     4
100
AcDbLine
 10
1499.823899371069
 20
1384.79402212224
 30
0.0
 11
1517.210564244272
 21
1389.452764934086
 31
0.0
  0
LINE
  5
1C5
330
20
100
AcDbEntity
  8
_0-0_
  6
Continuous
 62
     4
100
AcDbLine
 10
1499.823899371069
 20
1384.79402212224
 30
0.0
 11
1517.210564244272
 21
1380.135279310394
 31
0.0
  0
LINE
  5
1C6
330
20
100
AcDbEntity
  8
_0-0_
  6
Continuous
 62
     4
100
AcDbLine
 10
1554.823899371069
 20
1384.79402212224
 30
0.0
 11
1537.437234497866
 21
1380.135279310394
 31
0.0
  0
LINE
  5
1C7
330
20
100
AcDbEntity
  8
_0-0_
  6
Continuous
 62
     4
100
AcDbLine
 10
1554.823899371069
 20
1384.79402212224
 30
0.0
 11
1537.437234497866
 21
1389.452764934086
 31
0.0
  0
TEXT
  5
1C8
330
20
100
AcDbEntity
  8
_0-0_
 62
     7
100
AcDbText
 10
1440.989690470309
 20
1390.85263194324
 30
0.0
 40
48.0
  1
70
 41
0.8
  7
MSゴシック
100
AcDbText
  0
TEXT
  5
1C9
330
20
100
AcDbEntity
  8
_0-0_
 62
     7
100
AcDbText
 10
1502.727794433337
 20
1391.93575657417
 30
0.0
 40
48.0
  1
55
 41
0.8
  7
MSゴシック
100
AcDbText
  0
LINE
  5
1CA
330
20
100
AcDbEntity
  8
_0-0_
  6
Continuous
 62
     4
100
AcDbLine
 10
2084.823899371069
 20
1396.79402212224
 30
0.0
 11
2084.823899371069
 21
1184.79402212224
 31
0.0
  0
LINE
  5
1CB
330
20
100
AcDbEntity
  8
_0-0_
  6
Continuous
 62
     4
100
AcDbLine
 10
2084.823899371069
 20
1384.79402212224
 30
0.0
 11
1554.823899371069
 21
1384.79402212224
 31
0.0
  0
LINE
  5
1CC
330
20
100
AcDbEntity
  8
_0-0_
  6
Continuous
 62
     4
100
AcDbLine
 10
2084.823899371069
 20
1384.79402212224
 30
0.0
 11
2067.437234497866
 21
1380.135279310394
 31
0.0
  0
LINE
  5
1CD
330
20
100
AcDbEntity
  8
_0-0_
  6
Continuous
 62
     4
100
AcDbLine
 10
2084.823899371069
 20
1384.79402212224
 30
0.0
 11
2067.437234497866
 21
1389.452764934086
 31
0.0
  0
TEXT
  5
1CE
330
20
100
AcDbEntity
  8
_0-0_
 62
     7
100
AcDbText
 10
1780.183007318115
 20
1390.568398189869
 30
0.0
 40
48.0
  1
530
 41
0.8
  7
MSゴシック
100
AcDbText
  0
LINE
  5
1CF
330
20
100
AcDbEntity
  8
_0-0_
  6
Continuous
 62
     5
100
AcDbLine
 10
2084.823899371069
 20
1172.79402212224
 30
0.0
 11
1429.823899371069
 21
1172.79402212224
 31
0.0
  0
LINE
  5
1D0
330
20
100
AcDbEntity
  8
_0-0_
  6
Continuous
 62
     5
100
AcDbLine
 10
1429.823899371069
 20
1172.79402212224
 30
0.0
 11
1429.823899371069
 21
762.7940221222401
 31
0.0
  0
LINE
  5
1D1
330
20
100
AcDbEntity
  8
_0-0_
  6
Continuous
 62
     5
100
AcDbLine
 10
1429.823899371069
 20
762.7940221222401
 30
0.0
 11
1499.823899371069
 21
762.7940221222401
 31
0.0
  0
LINE
  5
1D2
330
20
100
AcDbEntity
  8
_0-0_
  6
Continuous
 62
     5
100
AcDbLine
 10
1554.823899371069
 20
1172.79402212224
 30
0.0
 11
1554.823899371069
 21
812.2914968052985
 31
0.0
  0
LINE
  5
1D3
330
20
100
AcDbEntity
  8
_0-0_
  6
Continuous
 62
     5
100
AcDbLine
 10
1554.823899371069
 20
812.2914968052985
 30
0.0
 11
2084.823899371069
 21
812.2914968052985
 31
0.0
  0
LINE
  5
1D4
330
20
100
AcDbEntity
  8
_0-0_
  6
Continuous
 62
     5
100
AcDbLine
 10
1554.823899371069
 20
812.2914968052985
 30
0.0
 11
1499.823899371069
 21
762.7940221222401
 31
0.0
  0
LINE
  5
1D5
330
20
100
AcDbEntity
  8
_0-0_
  6
Continuous
 62
     5
100
AcDbLine
 10
1499.823899371069
 20
1172.79402212224
 30
0.0
 11
1499.823899371069
 21
762.7940221222401
 31
0.0
  0
LINE
  5
1D6
330
20
100
AcDbEntity
  8
_0-0_
  6
Continuous
 62
     4
100
AcDbLine
 10
1429.823899371069
 20
738.79402212224
 30
0.0
 11
1429.823899371069
 21
588.79402212224
 31
0.0
  0
LINE
  5
1D7
330
20
100
AcDbEntity
  8
_0-0_
  6
Continuous
 62
     4
100
AcDbLine
 10
399.5408805031452
 20
872.7940221222404
 30
0.0
 11
399.5408805031452
 21
762.7940221222401
 31
0.0
  0
LINE
  5
1D8
330
20
100
AcDbEntity
  8
_0-0_
  6
Continuous
 62
     4
100
AcDbLine
 10
399.5408805031452
 20
762.7940221222401
 30
0.0
 11
399.5408805031452
 21
702.7940221222401
 31
0.0
  0
LINE
  5
1D9
330
20
100
AcDbEntity
  8
_0-0_
  6
Continuous
 62
     4
100
AcDbLine
 10
399.5408805031452
 20
762.7940221222401
 30
0.0
 11
394.8821376912997
 21
780.1806869954431
 31
0.0
  0
LINE
  5
1DA
330
20
100
AcDbEntity
  8
_0-0_
  6
Continuous
 62
     4
100
AcDbLine
 10
399.5408805031452
 20
762.7940221222401
 30
0.0
 11
404.1996233149903
 21
780.1806869954431
 31
0.0
  0
LINE
  5
1DB
330
20
100
AcDbEntity
  8
_0-0_
  6
Continuous
 62
     4
100
AcDbLine
 10
399.5408805031452
 20
762.7940221222401
 30
0.0
 11
404.1996233149903
 21
745.4073572490372
 31
0.0
  0
LINE
  5
1DC
330
20
100
AcDbEntity
  8
_0-0_
  6
Continuous
 62
     4
100
AcDbLine
 10
399.5408805031452
 20
762.7940221222401
 30
0.0
 11
394.8821376912997
 21
745.4073572490372
 31
0.0
  0
LINE
  5
1DD
330
20
100
AcDbEntity
  8
_0-0_
  6
Continuous
 62
     4
100
AcDbLine
 10
399.5408805031452
 20
702.7940221222401
 30
0.0
 11
394.8821376912997
 21
720.1806869954431
 31
0.0
  0
LINE
  5
1DE
330
20
100
AcDbEntity
  8
_0-0_
  6
Continuous
 62
     4
100
AcDbLine
 10
399.5408805031452
 20
702.7940221222401
 30
0.0
 11
404.1996233149903
 21
720.1806869954431
 31
0.0
  0
LINE
  5
1DF
330
20
100
AcDbEntity
  8
_0-0_
  6
Continuous
 62
     4
100
AcDbLine
 10
561.5408805031442
 20
1396.79402212224
 30
0.0
 11
561.5408805031442
 21
1184.79402212224
 31
0.0
  0
LINE
  5
1E0
330
20
100
AcDbEntity
  8
_0-0_
  6
Continuous
 62
     4
100
AcDbLine
 10
661.5408805031445
 20
1384.79402212224
 30
0.0
 11
561.5408805031442
 21
1384.79402212224
 31
0.0
  0
LINE
  5
1E1
330
20
100
AcDbEntity
  8
_0-0_
  6
Continuous
 62
     4
100
AcDbLine
 10
661.5408805031445
 20
1384.79402212224
 30
0.0
 11
644.1542156299412
 21
1380.135279310394
 31
0.0
  0
LINE
  5
1E2
330
20
100
AcDbEntity
  8
_0-0_
  6
Continuous
 62
     4
100
AcDbLine
 10
661.5408805031445
 20
1384.79402212224
 30
0.0
 11
644.1542156299412
 21
1389.452764934086
 31
0.0
  0
LINE
  5
1E3
330
20
100
AcDbEntity
  8
_0-0_
  6
Continuous
 62
     4
100
AcDbLine
 10
561.5408805031442
 20
1384.79402212224
 30
0.0
 11
578.9275453763475
 21
1389.452764934086
 31
0.0
  0
LINE
  5
1E4
330
20
100
AcDbEntity
  8
_0-0_
  6
Continuous
 62
     4
100
AcDbLine
 10
561.5408805031442
 20
1384.79402212224
 30
0.0
 11
578.9275453763475
 21
1380.135279310394
 31
0.0
  0
TEXT
  5
1E5
330
20
100
AcDbEntity
  8
_0-0_
 62
     7
100
AcDbText
 10
575.9782925351155
 20
1390.56161165051
 30
0.0
 40
48.0
  1
100
 41
0.8
  7
MSゴシック
100
AcDbText
  0
TEXT
  5
1E6
330
20
100
AcDbEntity
  8
_0-0_
 62
     7
100
AcDbText
 10
393.4054955632027
 20
780.3743525416589
 30
0.0
 40
48.0
  1
110
 50
90.0
 41
0.8
  7
MSゴシック
100
AcDbText
  0
TEXT
  5
1E7
330
20
100
AcDbEntity
  8
_0-0_
 62
     7
100
AcDbText
 10
393.4054955632027
 20
708.6730221617955
 30
0.0
 40
48.0
  1
60
 50
90.0
 41
0.8
  7
MSゴシック
100
AcDbText
  0
LINE
  5
1E8
330
20
100
AcDbEntity
  8
_0-0_
  6
Continuous
 62
     4
100
AcDbLine
 10
691.5408805031447
 20
590.7940221222402
 30
0.0
 11
931.540880503145
 21
590.7940221222402
 31
0.0
  0
LINE
  5
1E9
330
20
100
AcDbEntity
  8
_0-0_
  6
Continuous
 62
     4
100
AcDbLine
 10
931.540880503145
 20
590.7940221222402
 30
0.0
 11
914.1542156299415
 21
586.1352793103946
 31
0.0
  0
LINE
  5
1EA
330
20
100
AcDbEntity
  8
_0-0_
  6
Continuous
 62
     4
100
AcDbLine
 10
931.540880503145
 20
590.7940221222402
 30
0.0
 11
914.1542156299415
 21
595.4527649340855
 31
0.0
  0
LINE
  5
1EB
330
20
100
AcDbEntity
  8
_0-0_
  6
Continuous
 62
     4
100
AcDbLine
 10
691.5408805031447
 20
590.7940221222402
 30
0.0
 11
708.9275453763479
 21
595.4527649340855
 31
0.0
  0
LINE
  5
1EC
330
20
100
AcDbEntity
  8
_0-0_
  6
Continuous
 62
     4
100
AcDbLine
 10
691.5408805031447
 20
590.7940221222402
 30
0.0
 11
708.9275453763479
 21
586.1352793103946
 31
0.0
  0
LINE
  5
1ED
330
20
100
AcDbEntity
  8
_0-0_
  6
Continuous
 62
     4
100
AcDbLine
 10
691.5408805031447
 20
690.7940221222401
 30
0.0
 11
691.5408805031447
 21
578.7940221222402
 31
0.0
  0
LINE
  5
1EE
330
20
100
AcDbEntity
  8
_0-0_
  6
Continuous
 62
     4
100
AcDbLine
 10
931.540880503145
 20
690.7940221222401
 30
0.0
 11
931.540880503145
 21
578.7940221222402
 31
0.0
  0
LINE
  5
1EF
330
20
100
AcDbEntity
  8
_0-0_
  6
Continuous
 62
     5
100
AcDbLine
 10
691.5408805031447
 20
762.7940221222401
 30
0.0
 11
691.5408805031447
 21
702.7940221222401
 31
0.0
  0
LINE
  5
1F0
330
20
100
AcDbEntity
  8
_0-0_
  6
Continuous
 62
     5
100
AcDbLine
 10
691.5408805031447
 20
702.7940221222401
 30
0.0
 11
931.540880503145
 21
702.7940221222401
 31
0.0
  0
LINE
  5
1F1
330
20
100
AcDbEntity
  8
_0-0_
  6
Continuous
 62
     5
100
AcDbLine
 10
931.540880503145
 20
762.7940221222401
 30
0.0
 11
931.540880503145
 21
702.7940221222401
 31
0.0
  0
TEXT
  5
1F2
330
20
100
AcDbEntity
  8
_0-0_
 62
     7
100
AcDbText
 10
775.408098085034
 20
596.7934424718206
 30
0.0
 40
48.0
  1
240
 41
0.8
  7
MSゴシック
100
AcDbText
  0
LINE
  5
1F3
330
20
100
AcDbEntity
  8
_0-0_
  6
Continuous
 62
     6
100
AcDbLine
 10
811.5408805031449
 20
797.7940221222401
 30
0.0
 11
972.0434058200863
 21
797.7940221222401
 31
0.0
  0
LINE
  5
1F4
330
20
100
AcDbEntity
  8
_0-0_
  6
Continuous
 62
     6
100
AcDbLine
 10
972.0434058200863
 20
797.7940221222401
 30
0.0
 11
1026.540880503144
 21
852.2914968052978
 31
0.0
  0
LINE
  5
1F5
330
20
100
AcDbEntity
  8
_0-0_
  6
Continuous
 62
     6
100
AcDbLine
 10
1026.540880503144
 20
1172.79402212224
 30
0.0
 11
1026.540880503144
 21
852.2914968052978
 31
0.0
  0
LINE
  5
1F6
330
20
100
AcDbEntity
  8
_0-0_
  6
Continuous
 62
     6
100
AcDbLine
 10
1021.540880503144
 20
1172.79402212224
 30
0.0
 11
1021.540880503144
 21
854.3625646171634
 31
0.0
  0
LINE
  5
1F7
330
20
100
AcDbEntity
  8
_0-0_
  6
Continuous
 62
     6
100
AcDbLine
 10
811.5408805031449
 20
802.7940221222401
 30
0.0
 11
969.9723380082209
 21
802.7940221222401
 31
0.0
  0
LINE
  5
1F8
330
20
100
AcDbEntity
  8
_0-0_
  6
Continuous
 62
     6
100
AcDbLine
 10
969.9723380082209
 20
802.7940221222401
 30
0.0
 11
1021.540880503144
 21
854.3625646171634
 31
0.0
  0
LINE
  5
1F9
330
20
100
AcDbEntity
  8
_0-0_
  6
Continuous
 62
     4
100
AcDbLine
 10
679.5408805031447
 20
702.7940221222401
 30
0.0
 11
387.5408805031452
 21
702.7940221222401
 31
0.0
  0
LINE
  5
1FA
330
20
100
AcDbEntity
  8
_0-0_
  6
Continuous
 62
     4
100
AcDbLine
 10
624.5408805031448
 20
762.7940221222401
 30
0.0
 11
387.5408805031452
 21
762.7940221222401
 31
0.0
  0
LINE
  5
1FB
330
20
100
AcDbEntity
  8
_0-0_
  6
Continuous
 62
     4
100
AcDbLine
 10
1764.823899371069
 20
590.7940221222402
 30
0.0
 11
1814.823899371069
 21
590.7940221222402
 31
0.0
  0
LINE
  5
1FC
330
20
100
AcDbEntity
  8
_0-0_
  6
Continuous
 62
     4
100
AcDbLine
 10
1429.823899371069
 20
590.7940221222402
 30
0.0
 11
1714.823899371069
 21
590.7940221222402
 31
0.0
  0
LINE
  5
1FD
330
20
100
AcDbEntity
  8
_0-0_
  6
Continuous
 62
     4
100
AcDbLine
 10
1714.823899371069
 20
590.7940221222402
 30
0.0
 11
1764.823899371069
 21
590.7940221222402
 31
0.0
  0
LINE
  5
1FE
330
20
100
AcDbEntity
  8
_0-0_
  6
Continuous
 62
     4
100
AcDbLine
 10
1814.823899371069
 20
590.7940221222402
 30
0.0
 11
2084.82389937107
 21
590.7940221222402
 31
0.0
  0
LINE
  5
1FF
330
20
100
AcDbEntity
  8
_0-0_
  6
Continuous
 62
     4
100
AcDbLine
 10
2084.82389937107
 20
590.7940221222402
 30
0.0
 11
2067.437234497866
 21
586.1352793103946
 31
0.0
  0
LINE
  5
200
330
20
100
AcDbEntity
  8
_0-0_
  6
Continuous
 62
     4
100
AcDbLine
 10
2084.82389937107
 20
590.7940221222402
 30
0.0
 11
2067.437234497866
 21
595.4527649340855
 31
0.0
  0
LINE
  5
201
330
20
100
AcDbEntity
  8
_0-0_
  6
Continuous
 62
     4
100
AcDbLine
 10
2084.82389937107
 20
590.7940221222402
 30
0.0
 11
2067.437234497866
 21
586.1352793103946
 31
0.0
  0
LINE
  5
202
330
20
100
AcDbEntity
  8
_0-0_
  6
Continuous
 62
     4
100
AcDbLine
 10
2084.82389937107
 20
590.7940221222402
 30
0.0
 11
2067.437234497866
 21
595.4527649340855
 31
0.0
  0
LINE
  5
203
330
20
100
AcDbEntity
  8
_0-0_
  6
Continuous
 62
     4
100
AcDbLine
 10
1814.823899371069
 20
590.7940221222402
 30
0.0
 11
1832.210564244272
 21
595.4527649340855
 31
0.0
  0
LINE
  5
204
330
20
100
AcDbEntity
  8
_0-0_
  6
Continuous
 62
     4
100
AcDbLine
 10
1814.823899371069
 20
590.7940221222402
 30
0.0
 11
1832.210564244272
 21
586.1352793103946
 31
0.0
  0
LINE
  5
205
330
20
100
AcDbEntity
  8
_0-0_
  6
Continuous
 62
     4
100
AcDbLine
 10
1814.823899371069
 20
590.7940221222402
 30
0.0
 11
1797.437234497866
 21
586.1352793103946
 31
0.0
  0
LINE
  5
206
330
20
100
AcDbEntity
  8
_0-0_
  6
Continuous
 62
     4
100
AcDbLine
 10
1814.823899371069
 20
590.7940221222402
 30
0.0
 11
1797.437234497866
 21
595.4527649340855
 31
0.0
  0
LINE
  5
207
330
20
100
AcDbEntity
  8
_0-0_
  6
Continuous
 62
     4
100
AcDbLine
 10
1764.823899371069
 20
590.7940221222402
 30
0.0
 11
1782.210564244271
 21
595.4527649340855
 31
0.0
  0
LINE
  5
208
330
20
100
AcDbEntity
  8
_0-0_
  6
Continuous
 62
     4
100
AcDbLine
 10
1764.823899371069
 20
590.7940221222402
 30
0.0
 11
1782.210564244271
 21
586.1352793103946
 31
0.0
  0
LINE
  5
209
330
20
100
AcDbEntity
  8
_0-0_
  6
Continuous
 62
     4
100
AcDbLine
 10
1764.823899371069
 20
590.7940221222402
 30
0.0
 11
1747.437234497866
 21
586.1352793103946
 31
0.0
  0
LINE
  5
20A
330
20
100
AcDbEntity
  8
_0-0_
  6
Continuous
 62
     4
100
AcDbLine
 10
1764.823899371069
 20
590.7940221222402
 30
0.0
 11
1747.437234497866
 21
595.4527649340855
 31
0.0
  0
LINE
  5
20B
330
20
100
AcDbEntity
  8
_0-0_
  6
Continuous
 62
     4
100
AcDbLine
 10
1714.823899371069
 20
590.7940221222402
 30
0.0
 11
1732.210564244272
 21
595.4527649340855
 31
0.0
  0
LINE
  5
20C
330
20
100
AcDbEntity
  8
_0-0_
  6
Continuous
 62
     4
100
AcDbLine
 10
1714.823899371069
 20
590.7940221222402
 30
0.0
 11
1732.210564244272
 21
586.1352793103946
 31
0.0
  0
LINE
  5
20D
330
20
100
AcDbEntity
  8
_0-0_
  6
Continuous
 62
     4
100
AcDbLine
 10
1714.823899371069
 20
590.7940221222402
 30
0.0
 11
1697.437234497865
 21
586.1352793103946
 31
0.0
  0
LINE
  5
20E
330
20
100
AcDbEntity
  8
_0-0_
  6
Continuous
 62
     4
100
AcDbLine
 10
1714.823899371069
 20
590.7940221222402
 30
0.0
 11
1697.437234497865
 21
595.4527649340855
 31
0.0
  0
LINE
  5
20F
330
20
100
AcDbEntity
  8
_0-0_
  6
Continuous
 62
     4
100
AcDbLine
 10
1429.823899371069
 20
590.7940221222402
 30
0.0
 11
1447.210564244272
 21
595.4527649340855
 31
0.0
  0
LINE
  5
210
330
20
100
AcDbEntity
  8
_0-0_
  6
Continuous
 62
     4
100
AcDbLine
 10
1429.823899371069
 20
590.7940221222402
 30
0.0
 11
1447.210564244272
 21
586.1352793103946
 31
0.0
  0
TEXT
  5
211
330
20
100
AcDbEntity
  8
_0-0_
 62
     7
100
AcDbText
 10
1536.462175849254
 20
596.5853151675396
 30
0.0
 40
48.0
  1
285
 41
0.8
  7
MSゴシック
100
AcDbText
  0
TEXT
  5
212
330
20
100
AcDbEntity
  8
_0-0_
 62
     7
100
AcDbText
 10
1715.63410685281
 20
597.9379413257385
 30
0.0
 40
48.0
  1
50
 41
0.8
  7
MSゴシック
100
AcDbText
  0
TEXT
  5
213
330
20
100
AcDbEntity
  8
_0-0_
 62
     7
100
AcDbText
 10
1770.892636253222
 20
597.9379413257385
 30
0.0
 40
48.0
  1
50
 41
0.8
  7
MSゴシック
100
AcDbText
  0
TEXT
  5
214
330
20
100
AcDbEntity
  8
_0-0_
 62
     7
100
AcDbText
 10
1913.146820405311
 20
597.4289627232182
 30
0.0
 40
48.0
  1
270
 41
0.8
  7
MSゴシック
100
AcDbText
  0
LINE
  5
215
330
20
100
AcDbEntity
  8
_0-0_
  6
Continuous
 62
     4
100
AcDbLine
 10
2096.823899371069
 20
812.2914968052985
 30
0.0
 11
2198.823899371069
 21
812.2914968052985
 31
0.0
  0
LINE
  5
216
330
20
100
AcDbEntity
  8
_0-0_
  6
Continuous
 62
     4
100
AcDbLine
 10
2186.823899371069
 20
812.2914968052985
 30
0.0
 11
2186.823899371069
 21
712.2914968052985
 31
0.0
  0
LINE
  5
217
330
20
100
AcDbEntity
  8
_0-0_
  6
Continuous
 62
     4
100
AcDbLine
 10
2186.823899371069
 20
812.2914968052985
 30
0.0
 11
2191.482642182914
 21
794.9048319320954
 31
0.0
  0
LINE
  5
218
330
20
100
AcDbEntity
  8
_0-0_
  6
Continuous
 62
     4
100
AcDbLine
 10
2186.823899371069
 20
812.2914968052985
 30
0.0
 11
2182.165156559224
 21
794.9048319320954
 31
0.0
  0
LINE
  5
219
330
20
100
AcDbEntity
  8
_0-0_
  6
Continuous
 62
     4
100
AcDbLine
 10
2186.823899371069
 20
712.2914968052985
 30
0.0
 11
2182.165156559224
 21
729.6781616785017
 31
0.0
  0
LINE
  5
21A
330
20
100
AcDbEntity
  8
_0-0_
  6
Continuous
 62
     4
100
AcDbLine
 10
2186.823899371069
 20
712.2914968052985
 30
0.0
 11
2191.482642182914
 21
729.6781616785017
 31
0.0
  0
LINE
  5
21B
330
20
100
AcDbEntity
  8
_0-0_
  6
Continuous
 62
     5
100
AcDbLine
 10
1714.823899371069
 20
712.2914968052985
 30
0.0
 11
1714.823899371069
 21
812.2914968052985
 31
0.0
  0
LINE
  5
21C
330
20
100
AcDbEntity
  8
_0-0_
  6
Continuous
 62
     5
100
AcDbLine
 10
1814.823899371069
 20
812.2914968052985
 30
0.0
 11
1764.823899371069
 21
712.2914968052985
 31
0.0
  0
LINE
  5
21D
330
20
100
AcDbEntity
  8
_0-0_
  6
Continuous
 62
     5
100
AcDbLine
 10
1764.823899371069
 20
712.2914968052985
 30
0.0
 11
1714.823899371069
 21
712.2914968052985
 31
0.0
  0
LINE
  5
21E
330
20
100
AcDbEntity
  8
_0-0_
  6
Continuous
 62
     4
100
AcDbLine
 10
1714.823899371069
 20
700.2914968052985
 30
0.0
 11
1714.823899371069
 21
578.7940221222402
 31
0.0
  0
LINE
  5
21F
330
20
100
AcDbEntity
  8
_0-0_
  6
Continuous
 62
     4
100
AcDbLine
 10
1764.823899371069
 20
700.2914968052985
 30
0.0
 11
1764.823899371069
 21
578.7940221222402
 31
0.0
  0
LINE
  5
220
330
20
100
AcDbEntity
  8
_0-0_
  6
Continuous
 62
     4
100
AcDbLine
 10
1814.823899371069
 20
800.2914968052985
 30
0.0
 11
1814.823899371069
 21
578.7940221222402
 31
0.0
  0
LINE
  5
221
330
20
100
AcDbEntity
  8
_0-0_
  6
Continuous
 62
     4
100
AcDbLine
 10
1776.823899371069
 20
712.2914968052985
 30
0.0
 11
2198.823899371069
 21
712.2914968052985
 31
0.0
  0
TEXT
  5
222
330
20
100
AcDbEntity
  8
_0-0_
 62
     7
100
AcDbText
 10
2180.743763128337
 20
726.891324564427
 30
0.0
 40
48.0
  1
100
 50
90.0
 41
0.8
  7
MSゴシック
100
AcDbText
  0
LINE
  5
223
330
20
100
AcDbEntity
  8
_0-0_
  6
DASHED1
 62
     5
100
AcDbLine
 10
1481.823899371069
 20
1172.79402212224
 30
0.0
 11
1481.823899371069
 21
802.7940221222401
 31
0.0
  0
LINE
  5
224
330
20
100
AcDbEntity
  8
_0-0_
  6
DASHED1
 62
     5
100
AcDbLine
 10
1481.823899371069
 20
802.7940221222401
 30
0.0
 11
1429.823899371069
 21
797.7940221222401
 31
0.0
  0
LINE
  5
225
330
20
100
AcDbEntity
  8
_0-0_
  6
DASHED1
 62
     5
100
AcDbLine
 10
1481.823899371069
 20
872.7940221222404
 30
0.0
 11
2084.823899371069
 21
872.7940221222404
 31
0.0
  0
LINE
  5
226
330
20
100
AcDbEntity
  8
_0-0_
  6
Continuous
 62
     4
100
AcDbLine
 10
1056.667955698458
 20
630.2544255646227
 30
0.0
 11
1311.610552134004
 21
630.2544255646227
 31
0.0
  0
LINE
  5
227
330
20
100
AcDbEntity
  8
_0-0_
  6
Continuous
 62
     4
100
AcDbLine
 10
931.540880503145
 20
726.5847936066149
 30
0.0
 11
942.4758303780226
 21
712.2870011719229
 31
0.0
  0
LINE
  5
228
330
20
100
AcDbEntity
  8
_0-0_
  6
Continuous
 62
     4
100
AcDbLine
 10
931.540880503145
 20
726.5847936066149
 30
0.0
 11
948.1597216744097
 21
719.6700177582263
 31
0.0
  0
LINE
  5
229
330
20
100
AcDbEntity
  8
_0-0_
  6
Continuous
 62
     4
100
AcDbLine
 10
1056.667955698458
 20
630.2544255646227
 30
0.0
 11
931.540880503145
 21
726.5847936066149
 31
0.0
  0
TEXT
  5
22A
330
20
100
AcDbEntity
  8
_0-0_
 62
     7
100
AcDbText
 10
1065.513887705293
 20
636.9412160309313
 30
0.0
 40
48.0
  1
スベリ止め
 41
0.8
  7
MSゴシック
100
AcDbText
  0
LINE
  5
22B
330
20
100
AcDbEntity
  8
_0-0_
  6
CENTER2
 62
     4
100
AcDbLine
 10
811.5408805031449
 20
1172.79402212224
 30
0.0
 11
811.5408805031449
 21
734.9323869021144
 31
0.0
  0
LINE
  5
22C
330
20
100
AcDbEntity
  8
_0-0_
  6
DASHED1
 62
     5
100
AcDbLine
 10
931.540880503145
 20
762.7940221222401
 30
0.0
 11
931.540880503145
 21
802.7940221222401
 31
0.0
  0
LINE
  5
22D
330
20
100
AcDbEntity
  8
_0-0_
  6
DASHED1
 62
     5
100
AcDbLine
 10
691.5408805031447
 20
762.7940221222401
 30
0.0
 11
691.5408805031447
 21
802.7940221222401
 31
0.0
  0
LINE
  5
22E
330
20
100
AcDbEntity
  8
_0-0_
  6
Continuous
 62
     4
100
AcDbLine
 10
1429.823899371069
 20
500.7940221222402
 30
0.0
 11
2084.82389937107
 21
500.7940221222402
 31
0.0
  0
LINE
  5
22F
330
20
100
AcDbEntity
  8
_0-0_
  6
Continuous
 62
     4
100
AcDbLine
 10
636.5408805031448
 20
500.7940221222402
 30
0.0
 11
653.927545376348
 21
505.4527649340855
 31
0.0
  0
LINE
  5
230
330
20
100
AcDbEntity
  8
_0-0_
  6
Continuous
 62
     4
100
AcDbLine
 10
636.5408805031448
 20
500.7940221222402
 30
0.0
 11
653.927545376348
 21
496.1352793103947
 31
0.0
  0
LINE
  5
231
330
20
100
AcDbEntity
  8
_0-0_
  6
Continuous
 62
     4
100
AcDbLine
 10
986.5408805031448
 20
500.7940221222402
 30
0.0
 11
969.1542156299412
 21
496.1352793103947
 31
0.0
  0
LINE
  5
232
330
20
100
AcDbEntity
  8
_0-0_
  6
Continuous
 62
     4
100
AcDbLine
 10
986.5408805031448
 20
500.7940221222402
 30
0.0
 11
969.1542156299412
 21
505.4527649340855
 31
0.0
  0
LINE
  5
233
330
20
100
AcDbEntity
  8
_0-0_
  6
Continuous
 62
     4
100
AcDbLine
 10
986.5408805031448
 20
500.7940221222402
 30
0.0
 11
636.5408805031448
 21
500.7940221222402
 31
0.0
  0
TEXT
  5
234
330
20
100
AcDbEntity
  8
_0-0_
 62
     7
100
AcDbText
 10
775.540880503145
 20
506.7940221222402
 30
0.0
 40
48.0
  1
350
 41
0.8
  7
MSゴシック
100
AcDbText
  0
LINE
  5
235
330
20
100
AcDbEntity
  8
_0-0_
  6
Continuous
 62
     4
100
AcDbLine
 10
1429.823899371069
 20
500.7940221222402
 30
0.0
 11
1447.210564244272
 21
496.1352793103947
 31
0.0
  0
LINE
  5
236
330
20
100
AcDbEntity
  8
_0-0_
  6
Continuous
 62
     4
100
AcDbLine
 10
1429.823899371069
 20
500.7940221222402
 30
0.0
 11
1447.210564244272
 21
505.4527649340855
 31
0.0
  0
LINE
  5
237
330
20
100
AcDbEntity
  8
_0-0_
  6
Continuous
 62
     4
100
AcDbLine
 10
2084.82389937107
 20
500.7940221222402
 30
0.0
 11
2067.437234497866
 21
496.1352793103947
 31
0.0
  0
LINE
  5
238
330
20
100
AcDbEntity
  8
_0-0_
  6
Continuous
 62
     4
100
AcDbLine
 10
2084.82389937107
 20
500.7940221222402
 30
0.0
 11
2067.437234497866
 21
505.4527649340855
 31
0.0
  0
TEXT
  5
239
330
20
100
AcDbEntity
  8
_0-0_
 62
     7
100
AcDbText
 10
1713.266009168062
 20
501.588300141013
 30
0.0
 40
48.0
  1
655
 41
0.8
  7
MSゴシック
100
AcDbText
  0
LINE
  5
23A
330
20
100
AcDbEntity
  8
_0-0_
  6
Continuous
 62
     4
100
AcDbLine
 10
636.5408805031448
 20
750.79402212224
 30
0.0
 11
636.5408805031448
 21
488.7940221222402
 31
0.0
  0
LINE
  5
23B
330
20
100
AcDbEntity
  8
_0-0_
  6
Continuous
 62
     4
100
AcDbLine
 10
986.5408805031448
 20
750.79402212224
 30
0.0
 11
986.5408805031448
 21
488.7940221222402
 31
0.0
  0
LINE
  5
23C
330
20
100
AcDbEntity
  8
_0-0_
  6
Continuous
 62
     4
100
AcDbLine
 10
1429.823899371069
 20
588.79402212224
 30
0.0
 11
1429.823899371069
 21
488.7940221222402
 31
0.0
  0
LINE
  5
23D
330
20
100
AcDbEntity
  8
_0-0_
  6
Continuous
 62
     4
100
AcDbLine
 10
2084.82389937107
 20
800.2914968052985
 30
0.0
 11
2084.82389937107
 21
488.7940221222402
 31
0.0
  0
LINE
  5
23E
330
20
100
AcDbEntity
  8
_0-0_
  6
Continuous
 62
     4
100
AcDbLine
 10
1656.331236897275
 20
2207.635839462932
 30
0.0
 11
1656.331236897275
 21
2247.662010639821
 31
0.0
  0
LINE
  5
23F
330
20
100
AcDbEntity
  8
_0-0_
  6
Continuous
 62
     4
100
AcDbLine
 10
1656.331236897275
 20
2247.662010639821
 30
0.0
 11
1656.331236897275
 21
2394.900187709848
 31
0.0
  0
LINE
  5
240
330
20
100
AcDbEntity
  8
_0-0_
  6
Continuous
 62
     4
100
AcDbLine
 10
1656.331236897275
 20
2247.662010639821
 30
0.0
 11
1651.672494085429
 21
2265.048675513025
 31
0.0
  0
LINE
  5
241
330
20
100
AcDbEntity
  8
_0-0_
  6
Continuous
 62
     4
100
AcDbLine
 10
1656.331236897275
 20
2247.662010639821
 30
0.0
 11
1660.98997970912
 21
2265.048675513025
 31
0.0
  0
TEXT
  5
614
330
20
100
AcDbEntity
  8
_0-0_
 62
     7
100
AcDbText
 10
993.2406091370557
 20
3073.708532491779
 30
0.0
 40
54.0
  1
ソケット付Ｕ形３００Ｂ
 41
0.8
  7
MSゴシック
 72
     1
 11
1302.0
 21
3073.708532491779
 31
0.0
100
AcDbText
  0
TEXT
  5
615
330
20
100
AcDbEntity
  8
_0-0_
 62
     7
100
AcDbText
 10
1964.207547169811
 20
2984.075695475537
 30
0.0
 40
48.0
  1
単位 ｍｍ
 41
0.8
  7
MSゴシック
100
AcDbText
  0
LINE
  5
616
330
20
100
AcDbEntity
  8
_0-0_
  6
Continuous
 62
     5
100
AcDbLine
 10
1616.623393203089
 20
3057.930754714003
 30
0.0
 11
987.811210461972
 21
3057.930754714003
 31
0.0
  0
TEXT
  5
617
330
20
100
AcDbEntity
  8
_0-0_
 62
     7
100
AcDbText
 10
720.7013484568647
 20
2300.666591465534
 30
0.0
 40
42.0
  1
50r
 41
0.8
  7
MSゴシック
100
AcDbText
  0
TEXT
  5
618
330
20
100
AcDbEntity
  8
_0-0_
 62
     7
100
AcDbText
 10
836.4507997791656
 20
1692.707244537495
 30
0.0
 40
54.0
  1
ソケット付Ｕ形３００Ｂ すべり止め
 41
0.8
  7
MSゴシック
 72
     1
 11
1299.589886073582
 21
1692.707244537495
 31
0.0
100
AcDbText
  0
LINE
  5
619
330
20
100
AcDbEntity
  8
_0-0_
  6
Continuous
 62
     5
100
AcDbLine
 10
1773.59543147208
 20
1676.929466759719
 30
0.0
 11
830.4045685279184
 21
1676.929466759719
 31
0.0
  0
TEXT
  5
61A
330
20
100
AcDbEntity
  8
_0-0_
 62
     7
100
AcDbText
 10
1964.207547169811
 20
1608.88679245283
 30
0.0
 40
48.0
  1
単位 ｍｍ
 41
0.8
  7
MSゴシック
100
AcDbText
  0
ENDSEC
  0
SECTION
  2
OBJECTS
  0
DICTIONARY
  5
C
330
0
100
AcDbDictionary
281
     1
  3
ACAD_COLOR
350
1B
  3
ACAD_GROUP
350
D
  3
ACAD_LAYOUT
350
19
  3
ACAD_MATERIAL
350
1A
  3
ACAD_MLINESTYLE
350
16
  3
ACAD_PLOTSETTINGS
350
18
  3
ACAD_PLOTSTYLENAME
350
E
  3
ACDBHEADERROUNDTRIPXREC
350
65A
  3
AcDbVariableDictionary
350
629
  0
DICTIONARY
  5
1B
102
{ACAD_REACTORS
330
C
102
}
330
C
100
AcDbDictionary
281
     1
  0
DICTIONARY
  5
D
102
{ACAD_REACTORS
330
C
102
}
330
C
100
AcDbDictionary
281
     1
  0
DICTIONARY
  5
19
102
{ACAD_REACTORS
330
C
102
}
330
C
100
AcDbDictionary
281
     1
  3
Model
350
23
  3
レイアウト1
350
1F
  0
DICTIONARY
  5
1A
102
{ACAD_REACTORS
330
C
102
}
330
C
100
AcDbDictionary
281
     1
  0
DICTIONARY
  5
16
102
{ACAD_REACTORS
330
C
102
}
330
C
100
AcDbDictionary
281
     1
  3
Standard
350
17
  0
DICTIONARY
  5
18
102
{ACAD_REACTORS
330
C
102
}
330
C
100
AcDbDictionary
281
     1
  0
ACDBDICTIONARYWDFLT
  5
E
102
{ACAD_REACTORS
330
C
102
}
330
C
100
AcDbDictionary
281
     1
  3
Normal
350
F
100
AcDbDictionaryWithDefault
340
F
  0
DICTIONARY
  5
65A
102
{ACAD_REACTORS
330
C
102
}
330
C
100
AcDbDictionary
281
     1
  3
COLORDICT
350
65C
  3
MATERIALDICT
350
65B
  0
DICTIONARY
  5
629
102
{ACAD_REACTORS
330
C
102
}
330
C
100
AcDbDictionary
281
     1
  3
DIMASSOC
350
62A
  3
PROJECTNAME
350
62B
  0
LAYOUT
  5
23
102
{ACAD_XDICTIONARY
360
65F
102
}
102
{ACAD_REACTORS
330
19
102
}
330
19
100
AcDbPlotSettings
  1

  2
EPSON LP-S5000
  4

  6

 40
0.0
 41
0.0
 42
0.0
 43
0.0
 44
0.0
 45
0.0
 46
0.0
 47
0.0
 48
0.0
 49
0.0
140
0.0
141
0.0
142
1.0
143
1.0
 70
  1712
 72
     0
 73
     0
 74
     0
  7

 75
     0
147
1.0
148
0.0
149
0.0
100
AcDbLayout
  1
Model
 70
     1
 71
     0
 10
0.0
 20
0.0
 11
12.0
 21
9.0
 12
0.0
 22
0.0
 32
0.0
 14
0.0
 24
0.0
 34
0.0
 15
0.0
 25
0.0
 35
0.0
146
0.0
 13
0.0
 23
0.0
 33
0.0
 16
1.0
 26
0.0
 36
0.0
 17
0.0
 27
1.0
 37
0.0
 76
     0
330
20
  0
LAYOUT
  5
1F
102
{ACAD_XDICTIONARY
360
65D
102
}
102
{ACAD_REACTORS
330
19
102
}
330
19
100
AcDbPlotSettings
  1

  2
EPSON LP-S5000
  4

  6

 40
0.0
 41
0.0
 42
0.0
 43
0.0
 44
0.0
 45
0.0
 46
0.0
 47
0.0
 48
0.0
 49
0.0
140
0.0
141
0.0
142
1.0
143
1.0
 70
   688
 72
     0
 73
     0
 74
     5
  7

 75
    16
147
1.0
148
0.0
149
0.0
100
AcDbLayout
  1
レイアウト1
 70
     1
 71
     1
 10
0.0
 20
0.0
 11
12.0
 21
9.0
 12
0.0
 22
0.0
 32
0.0
 14
1.000000000000000E+20
 24
1.000000000000000E+20
 34
1.000000000000000E+20
 15
-1.000000000000000E+20
 25
-1.000000000000000E+20
 35
-1.000000000000000E+20
146
0.0
 13
0.0
 23
0.0
 33
0.0
 16
1.0
 26
0.0
 36
0.0
 17
0.0
 27
1.0
 37
0.0
 76
     0
330
1C
  0
MLINESTYLE
  5
17
102
{ACAD_REACTORS
330
16
102
}
330
16
100
AcDbMlineStyle
  2
STANDARD
 70
     0
  3

 62
   256
 51
90.0
 52
90.0
 71
     2
 49
0.5
 62
   256
  6
BYLAYER
 49
-0.5
 62
   256
  6
BYLAYER
  0
ACDBPLACEHOLDER
  5
F
102
{ACAD_REACTORS
330
E
102
}
330
E
  0
XRECORD
  5
65C
102
{ACAD_REACTORS
330
65A
102
}
330
65A
100
AcDbXrecord
280
     1
340
1B
  0
XRECORD
  5
65B
102
{ACAD_REACTORS
330
65A
102
}
330
65A
100
AcDbXrecord
280
     1
340
1A
  0
DICTIONARYVAR
  5
62A
102
{ACAD_REACTORS
330
629
102
}
330
629
100
DictionaryVariables
280
     0
  1
1
  0
DICTIONARYVAR
  5
62B
102
{ACAD_REACTORS
330
629
102
}
330
629
100
DictionaryVariables
280
     0
  1

  0
DICTIONARY
  5
65F
330
23
100
AcDbDictionary
280
     1
281
     1
  3
ACAD_XREC_ROUNDTRIP
360
660
  0
DICTIONARY
  5
65D
330
1F
100
AcDbDictionary
280
     1
281
     1
  3
ACAD_XREC_ROUNDTRIP
360
65E
  0
XRECORD
  5
660
102
{ACAD_REACTORS
330
65F
102
}
330
65F
100
AcDbXrecord
280
     1
102
SHADEPLOT
 70
     0
102
SHADEPLOTRESLEVEL
 70
     2
102
SHADEPLOTCUSTOMDPI
 70
   300
  0
XRECORD
  5
65E
102
{ACAD_REACTORS
330
65D
102
}
330
65D
100
AcDbXrecord
280
     1
102
SHADEPLOT
 70
     0
102
SHADEPLOTRESLEVEL
 70
     2
102
SHADEPLOTCUSTOMDPI
 70
   300
  0
ENDSEC
  0
EOF
